  0
SECTION
  2
HEADER
  9
$ACADVER
  1
AC1009
  9
$INSBASE
 10
0.0
 20
0.0
 30
0.0
  9
$EXTMIN
 10
19.287462307707749
 20
16.20593401906762
 30
-0.0000000000000153
  9
$EXTMAX
 10
817.54193308314041
 20
583.77612441798692
 30
0.0
  9
$LIMMIN
 10
0.0
 20
0.0
  9
$LIMMAX
 10
841.0
 20
594.0
  9
$ORTHOMODE
 70
     1
  9
$REGENMODE
 70
     1
  9
$FILLMODE
 70
     1
  9
$QTEXTMODE
 70
     0
  9
$MIRRTEXT
 70
     1
  9
$DRAGMODE
 70
     2
  9
$LTSCALE
 40
1.0
  9
$OSMODE
 70
  3071
  9
$ATTMODE
 70
     1
  9
$TEXTSIZE
 40
12.5
  9
$TRACEWID
 40
1.0
  9
$TEXTSTYLE
  7
STANDARD
  9
$CLAYER
  8
0
  9
$CELTYPE
  6
BYLAYER
  9
$CECOLOR
 62
   256
  9
$DIMSCALE
 40
1.0
  9
$DIMASZ
 40
4.7999999999999989
  9
$DIMEXO
 40
1.0
  9
$DIMDLI
 40
7.0
  9
$DIMRND
 40
0.0
  9
$DIMDLE
 40
0.0
  9
$DIMEXE
 40
3.0
  9
$DIMTP
 40
0.1
  9
$DIMTM
 40
0.1
  9
$DIMTXT
 40
7.0
  9
$DIMCEN
 40
0.0
  9
$DIMTSZ
 40
0.0
  9
$DIMTOL
 70
     0
  9
$DIMLIM
 70
     0
  9
$DIMTIH
 70
     0
  9
$DIMTOH
 70
     0
  9
$DIMSE1
 70
     0
  9
$DIMSE2
 70
     0
  9
$DIMTAD
 70
     1
  9
$DIMZIN
 70
     8
  9
$DIMBLK
  1
DOTSMALL
  9
$DIMASO
 70
     1
  9
$DIMSHO
 70
     1
  9
$DIMPOST
  1

  9
$DIMAPOST
  1
"
  9
$DIMALT
 70
     0
  9
$DIMALTD
 70
     2
  9
$DIMALTF
 40
0.0393701
  9
$DIMLFAC
 40
1.0
  9
$DIMTOFL
 70
     1
  9
$DIMTVP
 40
0.0
  9
$DIMTIX
 70
     0
  9
$DIMSOXD
 70
     0
  9
$DIMSAH
 70
     0
  9
$DIMBLK1
  1

  9
$DIMBLK2
  1

  9
$DIMSTYLE
  2
SANKYO
  9
$DIMCLRD
 70
   256
  9
$DIMCLRE
 70
   256
  9
$DIMCLRT
 70
   256
  9
$DIMTFAC
 40
0.71
  9
$DIMGAP
 40
1.3
  9
$LUNITS
 70
     2
  9
$LUPREC
 70
     4
  9
$SKETCHINC
 40
1.0
  9
$FILLETRAD
 40
0.4
  9
$AUNITS
 70
     0
  9
$AUPREC
 70
     0
  9
$MENU
  1
.
  9
$ELEVATION
 40
0.0
  9
$PELEVATION
 40
0.0
  9
$THICKNESS
 40
0.0
  9
$LIMCHECK
 70
     0
  9
$BLIPMODE
 70
     0
  9
$CHAMFERA
 40
10.0
  9
$CHAMFERB
 40
10.0
  9
$SKPOLY
 70
     0
  9
$TDCREATE
 40
2455110.561913426
  9
$TDUPDATE
 40
2459031.582889908
  9
$TDINDWG
 40
1.7841358218000001
  9
$TDUSRTIMER
 40
1.7839401736
  9
$USRTIMER
 70
     1
  9
$ANGBASE
 50
0.0
  9
$ANGDIR
 70
     0
  9
$PDMODE
 70
     0
  9
$PDSIZE
 40
0.0
  9
$PLINEWID
 40
0.0
  9
$COORDS
 70
     2
  9
$SPLFRAME
 70
     0
  9
$SPLINETYPE
 70
     6
  9
$SPLINESEGS
 70
     8
  9
$ATTDIA
 70
     1
  9
$ATTREQ
 70
     1
  9
$HANDLING
 70
     1
  9
$HANDSEED
  5
13DA7
  9
$SURFTAB1
 70
     6
  9
$SURFTAB2
 70
     6
  9
$SURFTYPE
 70
     6
  9
$SURFU
 70
     6
  9
$SURFV
 70
     6
  9
$UCSNAME
  2

  9
$UCSORG
 10
0.0
 20
0.0
 30
0.0
  9
$UCSXDIR
 10
1.0
 20
0.0
 30
0.0
  9
$UCSYDIR
 10
0.0
 20
1.0
 30
0.0
  9
$PUCSNAME
  2

  9
$PUCSORG
 10
0.0
 20
0.0
 30
0.0
  9
$PUCSXDIR
 10
1.0
 20
0.0
 30
0.0
  9
$PUCSYDIR
 10
0.0
 20
1.0
 30
0.0
  9
$USERI1
 70
     0
  9
$USERI2
 70
     0
  9
$USERI3
 70
     0
  9
$USERI4
 70
     0
  9
$USERI5
 70
     0
  9
$USERR1
 40
0.0
  9
$USERR2
 40
0.0
  9
$USERR3
 40
0.0
  9
$USERR4
 40
0.0
  9
$USERR5
 40
0.0
  9
$WORLDVIEW
 70
     1
  9
$SHADEDGE
 70
     3
  9
$SHADEDIF
 70
    70
  9
$TILEMODE
 70
     1
  9
$MAXACTVP
 70
    48
  9
$PLIMCHECK
 70
     0
  9
$PEXTMIN
 10
1.0000000000000000E+020
 20
1.0000000000000000E+020
 30
1.0000000000000000E+020
  9
$PEXTMAX
 10
-1.0000000000000000E+020
 20
-1.0000000000000000E+020
 30
-1.0000000000000000E+020
  9
$PLIMMIN
 10
0.0
 20
0.0
  9
$PLIMMAX
 10
420.0
 20
297.0
  9
$UNITMODE
 70
     0
  9
$VISRETAIN
 70
     1
  9
$PLINEGEN
 70
     0
  9
$PSLTSCALE
 70
     1
  0
ENDSEC
  0
SECTION
  2
TABLES
  0
TABLE
  2
VPORT
 70
     1
  0
VPORT
  2
*ACTIVE
 70
     0
 10
0.0
 20
0.0
 11
1.0
 21
1.0
 12
418.41469769542408
 22
299.99102921852727
 13
0.0
 23
0.0
 14
2.5
 24
2.5
 15
10.0
 25
10.0
 16
0.0
 26
0.0
 36
1.0
 17
0.0
 27
0.0
 37
0.0
 40
572.59070616617009
 41
2.096730245231607
 42
50.0
 43
0.0
 44
0.0
 50
0.0
 51
0.0
 71
     0
 72
   100
 73
     1
 74
     1
 75
     0
 76
     0
 77
     0
 78
     0
  0
ENDTAB
  0
TABLE
  2
LTYPE
 70
    21
  0
LTYPE
  2
CONTINUOUS
 70
     0
  3
Solid line
 72
    65
 73
     0
 40
0.0
  0
LTYPE
  2
CENTER
 70
     0
  3
Center ____ _ ____ _ ____ _ ____ _ ____ _ ____
 72
    65
 73
     4
 40
50.799999999999997
 49
31.75
 49
-6.3499999999999988
 49
6.3499999999999988
 49
-6.3499999999999988
  0
LTYPE
  2
CENTER2
 70
     0
  3
Center (.5x) ___ _ ___ _ ___ _ ___ _ ___ _ ___
 72
    65
 73
     4
 40
28.574999999999999
 49
19.050000000000001
 49
-3.1749999999999989
 49
3.1749999999999989
 49
-3.1749999999999989
  0
LTYPE
  2
PHANTOM
 70
     0
  3
Phantom ______  __  __  ______  __  __  ______
 72
    65
 73
     6
 40
63.5
 49
31.75
 49
-6.3499999999999988
 49
6.3499999999999988
 49
-6.3499999999999988
 49
6.3499999999999988
 49
-6.3499999999999988
  0
LTYPE
  2
PHANTOM2
 70
     0
  3
Phantom (.5x) ___ _ _ ___ _ _ ___ _ _ ___ _ _
 72
    65
 73
     6
 40
31.75
 49
15.875
 49
-3.1749999999999989
 49
3.1749999999999989
 49
-3.1749999999999989
 49
3.1749999999999989
 49
-3.1749999999999989
  0
LTYPE
  2
DASHED
 70
     0
  3
Dashed __ __ __ __ __ __ __ __ __ __ __ __ __ _
 72
    65
 73
     2
 40
19.050000000000001
 49
12.699999999999999
 49
-6.3499999999999988
  0
LTYPE
  2
DASHED2
 70
     0
  3
Dashed (.5x) _ _ _ _ _ _ _ _ _ _ _ _ _ _ _ _ _
 72
    65
 73
     2
 40
9.5249999999999986
 49
6.3499999999999988
 49
-3.1749999999999989
  0
LTYPE
  2
ZIGZAG
 70
     0
  3
Zig zag /\/\/\/\/\/\/\/\/\/\/\/\/\/\/\/\/\/\/\/
 72
    65
 73
     4
 40
20.32254
 49
0.00254
 49
-5.0800000000000001
 49
-10.16
 49
-5.0800000000000001
  0
LTYPE
  2
AM_ISO02W050
 70
     0
  3
__ __ __ __ __ __ __ __ __ __ __ __ __ __ __
 72
    65
 73
     2
 40
7.5
 49
6.0
 49
-1.5
  0
LTYPE
  2
AMCONSTR
 70
     0
  3
_______________________
 72
    65
 73
     2
 40
9999.0
 49
9999.0
 49
0.0
  0
LTYPE
  2
AMZIGZAG
 70
     0
  3
/\/-/\/-/\/-/\/-/\/-/\/
 72
    65
 73
     2
 40
11.0001
 49
0.0001
 49
-11.0
  0
LTYPE
  2
ACJISTGB
 70
     0
  3
__ . . __ . .
 72
    65
 73
     6
 40
9.0
 49
4.0
 49
-1.0
 49
1.0
 49
-1.0
 49
1.0
 49
-1.0
  0
LTYPE
  2
ACJISTGL
 70
     0
  3
_ _ _ _ _
 72
    65
 73
     2
 40
3.0
 49
2.0
 49
-1.0
  0
LTYPE
  2
ACISOWELD
 70
     0
  3
_ _ _ _ _
 72
    65
 73
     2
 40
2.0
 49
2.0
 49
-1.0
  0
LTYPE
  2
ACISOTGB
 70
     0
  3
__ . . __ . .
 72
    65
 73
     6
 40
9.0
 49
4.0
 49
-1.0
 49
1.0
 49
-1.0
 49
1.0
 49
-1.0
  0
LTYPE
  2
ACISOTGL
 70
     0
  3
_ _ _ _ _
 72
    65
 73
     2
 40
3.0
 49
2.0
 49
-1.0
  0
LTYPE
  2
HIDDEN
 70
     0
  3
Hidden __ __ __ __ __ __ __ __ __ __ __ __ __ _
 72
    65
 73
     2
 40
9.5249999999999986
 49
6.3499999999999988
 49
-3.1749999999999989
  0
LTYPE
  2
AM_ISO08W050
 70
     0
  3
____ . ____ . ____ . ____ . ____ . ____ . ____
 72
    65
 73
     4
 40
18.0
 49
12.0
 49
-1.5
 49
3.0
 49
-1.5
  0
LTYPE
  2
AM_ISO09W050
 70
     0
  3
_____ . . _____ . . _____ . . ____ .. ____
 72
    65
 73
     6
 40
22.5
 49
12.0
 49
-1.5
 49
3.0
 49
-1.5
 49
3.0
 49
-1.5
  0
LTYPE
  2
AM_ISO08W050X2
 70
     0
  3
__ . __ . __ . __ . __ . __
 72
    65
 73
     4
 40
9.0
 49
6.0
 49
-0.75
 49
1.5
 49
-0.75
  0
LTYPE
  2
AM_ISO02W050X2
 70
     0
  3
 _ _ _ _ _ _ _ _ _ _ _ _
 72
    65
 73
     2
 40
3.75
 49
3.0
 49
-0.75
  0
ENDTAB
  0
TABLE
  2
LAYER
 70
    11
  0
LAYER
  2
0
 70
     0
 62
     7
  6
CONTINUOUS
  0
LAYER
  2
KI1
 70
     0
 62
     7
  6
CONTINUOUS
  0
LAYER
  2
TS
 70
     0
 62
     6
  6
DASHED2
  0
LAYER
  2
SU
 70
     0
 62
     3
  6
CONTINUOUS
  0
LAYER
  2
MJ
 70
     0
 62
     2
  6
CONTINUOUS
  0
LAYER
  2
OS
 70
     0
 62
     2
  6
CONTINUOUS
  0
LAYER
  2
KI2
 70
     0
 62
     4
  6
CONTINUOUS
  0
LAYER
  2
TE
 70
     0
 62
     6
  6
CONTINUOUS
  0
LAYER
  2
PH
 70
     0
 62
     6
  6
PHANTOM2
  0
LAYER
  2
WK
 70
     4
 62
     7
  6
CONTINUOUS
  0
LAYER
  2
CL
 70
     0
 62
     4
  6
CENTER2
  0
ENDTAB
  0
TABLE
  2
STYLE
 70
     7
  0
STYLE
  2
STANDARD
 70
     0
 40
0.0
 41
0.8299999999999999
 50
0.0
 71
     0
 42
12.5
  3
romans.shx
  4
extfont.shx
  0
STYLE
  2

 70
     1
 40
0.0
 41
1.0
 50
0.0
 71
     0
 42
2.5
  3
ltypeshp.shx
  4

  0
STYLE
  2
ACJISTS
 70
     0
 40
1.0
 41
1.0
 50
0.0
 71
     0
 42
2.5
  3
isocp.shx
  4
extfont.shx
  0
STYLE
  2
ACJISGDT
 70
     0
 40
0.0
 41
1.0
 50
0.0
 71
     0
 42
2.5
  3
amgdt.shx
  4

  0
STYLE
  2
ACISOTS
 70
     0
 40
1.0
 41
1.0
 50
0.0
 71
     0
 42
2.5
  3
isocp.shx
  4
extfont.shx
  0
STYLE
  2
ACISOGDT
 70
     0
 40
0.0
 41
1.0
 50
0.0
 71
     0
 42
2.5
  3
amgdt.shx
  4

  0
STYLE
  2
CONVERT
 70
     0
 40
0.0
 41
1.0
 50
0.0
 71
     0
 42
2.5
  3
monotxt.shx
  4
extfont.shx
  0
ENDTAB
  0
TABLE
  2
VIEW
 70
     6
  0
VIEW
  2
AM_VIEW1
 70
     0
 40
297.5
 10
-194.33547008547001
 20
148.25
 41
457.32905982905982
 11
0.0
 21
0.0
 31
1.0
 12
0.0
 22
0.0
 32
0.0
 42
50.0
 43
0.0
 44
0.0
 50
0.0
 71
     0
  0
VIEW
  2
AM_VIEW2
 70
     0
 40
297.5
 10
189.33547008547001
 20
148.25
 41
457.32905982905982
 11
0.0
 21
0.0
 31
1.0
 12
0.0
 22
0.0
 32
0.0
 42
50.0
 43
0.0
 44
0.0
 50
0.0
 71
     0
  0
VIEW
  2
AM_VIEW3
 70
     0
 40
297.5
 10
-194.33547008547001
 20
-149.25
 41
457.32905982905982
 11
0.0
 21
0.0
 31
1.0
 12
0.0
 22
0.0
 32
0.0
 42
50.0
 43
0.0
 44
0.0
 50
0.0
 71
     0
  0
VIEW
  2
AM_VIEW4
 70
     0
 40
297.5
 10
189.33547008547001
 20
-149.25
 41
457.32905982905982
 11
0.0
 21
0.0
 31
1.0
 12
0.0
 22
0.0
 32
0.0
 42
50.0
 43
0.0
 44
0.0
 50
0.0
 71
     0
  0
VIEW
  2
AM_VIEW5
 70
     0
 40
297.5
 10
-2.5
 20
-0.5
 41
457.32905982905982
 11
0.0
 21
0.0
 31
1.0
 12
0.0
 22
0.0
 32
0.0
 42
50.0
 43
0.0
 44
0.0
 50
0.0
 71
     0
  0
VIEW
  2
AM_VIEW6
 70
     0
 40
594.99405000000002
 10
-2.5
 20
-0.5
 41
914.6489730769232
 11
0.0
 21
0.0
 31
1.0
 12
0.0
 22
0.0
 32
0.0
 42
50.0
 43
0.0
 44
0.0
 50
0.0
 71
     0
  0
ENDTAB
  0
TABLE
  2
UCS
 70
     0
  0
ENDTAB
  0
TABLE
  2
APPID
 70
    45
  0
APPID
  2
ACAD
 70
     0
  0
APPID
  2
MCAD_NO_VIS
 70
     0
  0
APPID
  2
ACAD_TEMP_GRAPHIC
 70
     0
  0
APPID
  2
ACATTRIBSERVICES
 70
     0
  0
APPID
  2
GENIUS_GENDIMSH_14
 70
     0
  0
APPID
  2
GENIUS_GENODEF_13
 70
     0
  0
APPID
  2
GENIUS_GENOENT_13
 70
     0
  0
APPID
  2
GENIUS_GENOBJ-N-TIT_13
 70
     0
  0
APPID
  2
GENIUS_GENOLIS_13
 70
     0
  0
APPID
  2
GENIUS_GENTITLE_13
 70
     0
  0
APPID
  2
GENIUS_GENOREF_13
 70
     0
  0
APPID
  2
GENIUS_GENSCREG_15
 70
     0
  0
APPID
  2
GENIUS_GENOBJ-N-SDF_13
 70
     0
  0
APPID
  2
GENIUS_GENOBJ-N-REV_13
 70
     0
  0
APPID
  2
GENIUS_GENOBJ-N-RSSYM_13
 70
     0
  0
APPID
  2
GENIUS_GENSYMENT_13
 70
     0
  0
APPID
  2
GENIUS_GENSCSYM_13
 70
     0
  0
APPID
  2
GENIUS_GENOBJ-N-CEN_13
 70
     0
  0
APPID
  2
GENIUS_GENOBJ-N-FIL_13
 70
     0
  0
APPID
  2
GENIUS_GENBH_13
 70
     0
  0
APPID
  2
GENIUS_GENOBJ-NBEHI-BHF_13
 70
     0
  0
APPID
  2
GENIUS_GENFIL_13
 70
     0
  0
APPID
  2
GENIUS_GENOBJ-N-CHA_13
 70
     0
  0
APPID
  2
GENIUS_GENOBJ-NBEHI-BHB_13
 70
     0
  0
APPID
  2
GENIUS_GENOBJ-N-CRS_13
 70
     0
  0
APPID
  2
GENIUS_GENDTOL_13
 70
     0
  0
APPID
  2
AD_DRAW
 70
     0
  0
APPID
  2
DESIGNERASSEMBLIES
 70
     0
  0
APPID
  2
ACADM_DIM_EDIT
 70
     0
  0
APPID
  2
AMDT_DM_ADJ
 70
     0
  0
APPID
  2
ACAD_PSEXT
 70
     0
  0
APPID
  2
ACAECLAYERSTANDARD
 70
     0
  0
APPID
  2
DCO15
 70
     0
  0
APPID
  2
GENIUS_GENREC_14
 70
     0
  0
APPID
  2
GENIUS_GENOBJ-N-REC_13
 70
     0
  0
APPID
  2
GENIUS_GENOBJ-N-HTC_13
 70
     0
  0
APPID
  2
GENIUS_GENHATCH_13
 70
     0
  0
APPID
  2
ACAD_DSTYLE_DIMARC_LENGTH_
 70
     0
  0
APPID
  2
ACAD_DSTYLE_DIMFLIPARROW_W
 70
     0
  0
APPID
  2
ACAD_EXEMPT_FROM_CAD_STANDARDS
 70
     0
  0
APPID
  2
ACAD_DSTYLE_DIMBREAK
 70
     0
  0
APPID
  2
ACAD_DSTYLE_DIMJAG
 70
     0
  0
APPID
  2
ACAD_NAV_VCDISPLAY
 70
     0
  0
APPID
  2
CONTENTBLOCKICON
 70
     0
  0
APPID
  2
ACAD_MLEADERVER
 70
     0
  0
ENDTAB
  0
TABLE
  2
DIMSTYLE
 70
    27
  0
DIMSTYLE
  2
AM_JIS
 70
     0
  3

  4
"
  5
OPEN
  6

  7

 40
1.0
 41
1.6000000000000001
 42
1.0
 43
7.0
 44
1.0
 45
0.0
 46
0.0
 47
0.1
 48
0.1
140
2.5
141
0.0
142
0.0
143
0.0393701
144
1.0
145
0.0
146
0.71
147
0.625
 71
     0
 72
     0
 73
     0
 74
     0
 75
     0
 76
     0
 77
     1
 78
     8
170
     0
171
     2
172
     1
173
     0
174
     0
175
     0
176
   256
177
   256
178
   256
  0
DIMSTYLE
  2
AM_JIS$3
 70
     0
  3

  4
"
  5
OPEN
  6

  7

 40
1.0
 41
1.6000000000000001
 42
1.0
 43
7.0
 44
1.0
 45
0.0
 46
0.0
 47
0.1
 48
0.1
140
2.5
141
0.0
142
0.0
143
0.0393701
144
1.0
145
0.0
146
0.71
147
0.625
 71
     0
 72
     0
 73
     0
 74
     0
 75
     0
 76
     0
 77
     1
 78
     8
170
     0
171
     2
172
     1
173
     0
174
     0
175
     0
176
   256
177
   256
178
   256
  0
DIMSTYLE
  2
AM_JIS$4
 70
     0
  3

  4
"
  5
OPEN
  6

  7

 40
1.0
 41
1.6000000000000001
 42
1.0
 43
7.0
 44
1.0
 45
0.0
 46
0.0
 47
0.1
 48
0.1
140
2.5
141
0.0
142
0.0
143
0.0393701
144
1.0
145
0.0
146
0.71
147
0.625
 71
     0
 72
     0
 73
     0
 74
     0
 75
     0
 76
     0
 77
     1
 78
     8
170
     0
171
     2
172
     1
173
     0
174
     0
175
     0
176
   256
177
   256
178
   256
  0
DIMSTYLE
  2
AM_JIS$6
 70
     0
  3

  4
"
  5
OPEN
  6

  7

 40
1.0
 41
1.6000000000000001
 42
1.0
 43
7.0
 44
1.0
 45
0.0
 46
0.0
 47
0.1
 48
0.1
140
2.5
141
0.0
142
0.0
143
0.0393701
144
1.0
145
0.0
146
0.71
147
0.625
 71
     0
 72
     0
 73
     0
 74
     0
 75
     0
 76
     0
 77
     0
 78
     8
170
     0
171
     2
172
     1
173
     0
174
     0
175
     0
176
   256
177
   256
178
   256
  0
DIMSTYLE
  2
AM_JIS$7
 70
     0
  3

  4
"
  5
OPEN
  6

  7

 40
1.0
 41
1.6000000000000001
 42
1.0
 43
7.0
 44
1.0
 45
0.0
 46
0.0
 47
0.1
 48
0.1
140
2.5
141
0.0
142
0.0
143
0.0393701
144
1.0
145
0.0
146
0.71
147
0.625
 71
     0
 72
     0
 73
     0
 74
     0
 75
     0
 76
     0
 77
     1
 78
     8
170
     0
171
     2
172
     1
173
     0
174
     0
175
     0
176
   256
177
   256
178
   256
  0
DIMSTYLE
  2
AM_JIS$SF
 70
     0
  3

  4
"
  5
OPEN30
  6
OPEN30
  7
OPEN30
 40
1.0
 41
2.5
 42
1.0
 43
10.0
 44
1.0
 45
0.0
 46
0.0
 47
0.1
 48
0.1
140
3.5
141
0.0
142
0.0
143
0.0393701
144
1.0
145
0.0
146
0.71
147
1.5
 71
     0
 72
     0
 73
     0
 74
     0
 75
     1
 76
     1
 77
     3
 78
     8
170
     0
171
     2
172
     1
173
     0
174
     0
175
     0
176
   256
177
   256
178
     2
  0
DIMSTYLE
  2
AM_JIS$SH
 70
     0
  3

  4
"
  5
OPEN30
  6
GENAXEH
  7
OPEN30
 40
1.0
 41
2.5
 42
1.0
 43
10.0
 44
1.0
 45
0.0
 46
0.0
 47
0.1
 48
0.1
140
3.5
141
0.0
142
0.0
143
0.0393701
144
2.0
145
0.0
146
0.71
147
1.5
 71
     0
 72
     0
 73
     0
 74
     0
 75
     1
 76
     1
 77
     3
 78
     8
170
     0
171
     2
172
     1
173
     1
174
     0
175
     0
176
   256
177
   256
178
     2
  0
DIMSTYLE
  2
AM_JIS$2
 70
     0
  3

  4
"
  5
OPEN
  6

  7

 40
1.0
 41
1.6000000000000001
 42
1.0
 43
7.0
 44
1.0
 45
0.0
 46
0.0
 47
0.1
 48
0.1
140
2.5
141
0.0
142
0.0
143
0.0393701
144
1.0
145
0.0
146
0.71
147
0.625
 71
     0
 72
     0
 73
     0
 74
     0
 75
     0
 76
     0
 77
     1
 78
     8
170
     0
171
     2
172
     1
173
     0
174
     0
175
     0
176
   256
177
   256
178
   256
  0
DIMSTYLE
  2
AM_JIS$0
 70
     0
  3

  4
"
  5
OPEN
  6

  7

 40
1.0
 41
1.6000000000000001
 42
1.0
 43
7.0
 44
1.0
 45
0.0
 46
0.0
 47
0.1
 48
0.1
140
2.5
141
0.0
142
0.0
143
0.0393701
144
1.0
145
0.0
146
0.71
147
0.625
 71
     0
 72
     0
 73
     0
 74
     0
 75
     0
 76
     0
 77
     1
 78
     8
170
     0
171
     2
172
     1
173
     0
174
     0
175
     0
176
   256
177
   256
178
   256
  0
DIMSTYLE
  2
SANKYO
 70
     0
  3

  4
"
  5
DOTSMALL
  6

  7

 40
1.0
 41
4.7999999999999989
 42
1.0
 43
7.0
 44
3.0
 45
0.0
 46
0.0
 47
0.1
 48
0.1
140
7.0
141
0.0
142
0.0
143
0.0393701
144
1.0
145
0.0
146
0.71
147
1.3
 71
     0
 72
     0
 73
     0
 74
     0
 75
     0
 76
     0
 77
     1
 78
     8
170
     0
171
     2
172
     1
173
     0
174
     0
175
     0
176
   256
177
   256
178
   256
  0
DIMSTYLE
  2
SANKYO$3
 70
     0
  3

  4
"
  5
DOTSMALL
  6

  7

 40
1.0
 41
4.7999999999999989
 42
1.0
 43
10.0
 44
3.0
 45
0.0
 46
0.0
 47
0.1
 48
0.1
140
7.0
141
0.0
142
0.0
143
0.0393701
144
1.0
145
0.0
146
0.71
147
1.3
 71
     0
 72
     0
 73
     0
 74
     0
 75
     0
 76
     0
 77
     1
 78
     8
170
     0
171
     2
172
     1
173
     0
174
     0
175
     0
176
   256
177
   256
178
   256
  0
DIMSTYLE
  2
SANKYO$4
 70
     0
  3

  4
"
  5

  6
OPEN30
  7
OPEN
 40
1.0
 41
4.7999999999999989
 42
1.0
 43
10.0
 44
3.0
 45
0.0
 46
0.0
 47
0.1
 48
0.1
140
7.0
141
0.0
142
0.0
143
0.0393701
144
1.0
145
0.0
146
0.71
147
1.3
 71
     0
 72
     0
 73
     0
 74
     0
 75
     0
 76
     0
 77
     1
 78
     8
170
     0
171
     2
172
     1
173
     1
174
     0
175
     0
176
   256
177
   256
178
   256
  0
DIMSTYLE
  2
SANKYO$6
 70
     0
  3

  4
"
  5
OPEN30
  6

  7

 40
1.0
 41
4.7999999999999989
 42
1.0
 43
7.0
 44
3.0
 45
0.0
 46
0.0
 47
0.1
 48
0.1
140
7.0
141
0.0
142
0.0
143
0.0393701
144
1.0
145
0.0
146
0.71
147
1.3
 71
     0
 72
     0
 73
     0
 74
     0
 75
     0
 76
     0
 77
     0
 78
     8
170
     0
171
     2
172
     1
173
     0
174
     0
175
     0
176
   256
177
   256
178
   256
  0
DIMSTYLE
  2
SANKYO$7
 70
     0
  3

  4
"
  5
DOTSMALL
  6

  7

 40
1.0
 41
4.7999999999999989
 42
1.0
 43
7.0
 44
3.0
 45
0.0
 46
0.0
 47
0.1
 48
0.1
140
7.0
141
0.0
142
0.0
143
0.0393701
144
1.0
145
0.0
146
0.71
147
1.3
 71
     0
 72
     0
 73
     0
 74
     0
 75
     0
 76
     0
 77
     1
 78
     8
170
     0
171
     2
172
     1
173
     0
174
     0
175
     0
176
   256
177
   256
178
   256
  0
DIMSTYLE
  2
SANKYO$SF
 70
     0
  3

  4
"
  5
OPEN30
  6
OPEN30
  7
OPEN30
 40
1.0
 41
2.5
 42
1.0
 43
10.0
 44
1.0
 45
0.0
 46
0.0
 47
0.1
 48
0.1
140
3.5
141
0.0
142
0.0
143
0.0393701
144
1.0
145
0.0
146
0.71
147
1.5
 71
     0
 72
     0
 73
     0
 74
     0
 75
     1
 76
     1
 77
     3
 78
     8
170
     0
171
     2
172
     1
173
     0
174
     0
175
     0
176
   256
177
   256
178
     2
  0
DIMSTYLE
  2
SANKYO$SH
 70
     0
  3

  4
"
  5
OPEN30
  6
GENAXEH
  7
OPEN30
 40
1.0
 41
2.5
 42
1.0
 43
10.0
 44
1.0
 45
0.0
 46
0.0
 47
0.1
 48
0.1
140
3.5
141
0.0
142
0.0
143
0.0393701
144
2.0
145
0.0
146
0.71
147
1.5
 71
     0
 72
     0
 73
     0
 74
     0
 75
     1
 76
     1
 77
     3
 78
     8
170
     0
171
     2
172
     1
173
     1
174
     0
175
     0
176
   256
177
   256
178
     2
  0
DIMSTYLE
  2
SANKYO$2
 70
     0
  3

  4
"
  5
DOTSMALL
  6

  7

 40
1.0
 41
4.7999999999999989
 42
1.0
 43
7.0
 44
3.0
 45
0.0
 46
0.0
 47
0.1
 48
0.1
140
7.0
141
0.0
142
0.0
143
0.0393701
144
1.0
145
0.0
146
0.71
147
1.3
 71
     0
 72
     0
 73
     0
 74
     0
 75
     0
 76
     0
 77
     1
 78
     8
170
     0
171
     2
172
     1
173
     0
174
     0
175
     0
176
   256
177
   256
178
   256
  0
DIMSTYLE
  2
SANKYO$0
 70
     0
  3

  4
"
  5
DOTSMALL
  6

  7

 40
1.0
 41
4.7999999999999989
 42
1.0
 43
7.0
 44
3.0
 45
0.0
 46
0.0
 47
0.1
 48
0.1
140
7.0
141
0.0
142
0.0
143
0.0393701
144
1.0
145
0.0
146
0.71
147
1.3
 71
     0
 72
     0
 73
     0
 74
     0
 75
     0
 76
     0
 77
     1
 78
     8
170
     0
171
     2
172
     1
173
     0
174
     0
175
     0
176
   256
177
   256
178
   256
  0
DIMSTYLE
  2
AM_ISO
 70
     0
  3

  4
"
  5

  6

  7

 40
1.0
 41
1.6000000000000001
 42
1.0
 43
7.0
 44
1.0
 45
0.0
 46
0.0
 47
0.1
 48
0.1
140
2.5
141
0.0
142
0.0
143
0.0393701
144
1.0
145
0.0
146
0.71
147
0.625
 71
     0
 72
     0
 73
     0
 74
     0
 75
     0
 76
     0
 77
     1
 78
     8
170
     0
171
     2
172
     1
173
     0
174
     0
175
     0
176
   256
177
   256
178
   256
  0
DIMSTYLE
  2
AM_ISO$3
 70
     0
  3

  4
"
  5

  6

  7

 40
1.0
 41
1.6000000000000001
 42
1.0
 43
7.0
 44
1.0
 45
0.0
 46
0.0
 47
0.1
 48
0.1
140
2.5
141
0.0
142
0.0
143
0.0393701
144
1.0
145
0.0
146
0.71
147
0.625
 71
     0
 72
     0
 73
     0
 74
     0
 75
     0
 76
     0
 77
     1
 78
     8
170
     0
171
     2
172
     1
173
     0
174
     0
175
     0
176
   256
177
   256
178
   256
  0
DIMSTYLE
  2
AM_ISO$4
 70
     0
  3

  4
"
  5

  6

  7

 40
1.0
 41
1.6000000000000001
 42
1.0
 43
7.0
 44
1.0
 45
0.0
 46
0.0
 47
0.1
 48
0.1
140
2.5
141
0.0
142
0.0
143
0.0393701
144
1.0
145
0.0
146
0.71
147
0.625
 71
     0
 72
     0
 73
     0
 74
     0
 75
     0
 76
     0
 77
     1
 78
     8
170
     0
171
     2
172
     1
173
     0
174
     0
175
     0
176
   256
177
   256
178
   256
  0
DIMSTYLE
  2
AM_ISO$6
 70
     0
  3

  4
"
  5

  6

  7

 40
1.0
 41
1.6000000000000001
 42
1.0
 43
7.0
 44
1.0
 45
0.0
 46
0.0
 47
0.1
 48
0.1
140
2.5
141
0.0
142
0.0
143
0.0393701
144
1.0
145
0.0
146
0.71
147
0.625
 71
     0
 72
     0
 73
     0
 74
     0
 75
     0
 76
     0
 77
     0
 78
     8
170
     0
171
     2
172
     1
173
     0
174
     0
175
     0
176
   256
177
   256
178
   256
  0
DIMSTYLE
  2
AM_ISO$7
 70
     0
  3

  4
"
  5

  6

  7

 40
1.0
 41
1.6000000000000001
 42
1.0
 43
7.0
 44
1.0
 45
0.0
 46
0.0
 47
0.1
 48
0.1
140
2.5
141
0.0
142
0.0
143
0.0393701
144
1.0
145
0.0
146
0.71
147
0.625
 71
     0
 72
     0
 73
     0
 74
     0
 75
     0
 76
     0
 77
     1
 78
     8
170
     0
171
     2
172
     1
173
     0
174
     0
175
     0
176
   256
177
   256
178
   256
  0
DIMSTYLE
  2
AM_ISO$SF
 70
     0
  3

  4
"
  5

  6

  7

 40
1.0
 41
2.5
 42
1.0
 43
10.0
 44
1.0
 45
0.0
 46
0.0
 47
0.1
 48
0.1
140
3.5
141
0.0
142
0.0
143
0.0393701
144
1.0
145
0.0
146
0.71
147
1.5
 71
     0
 72
     0
 73
     0
 74
     0
 75
     1
 76
     1
 77
     1
 78
     8
170
     0
171
     2
172
     1
173
     0
174
     0
175
     0
176
   256
177
   256
178
     2
  0
DIMSTYLE
  2
AM_ISO$SH
 70
     0
  3

  4
"
  5

  6
GENAXEH
  7

 40
1.0
 41
2.5
 42
1.0
 43
10.0
 44
1.0
 45
0.0
 46
0.0
 47
0.1
 48
0.1
140
3.5
141
0.0
142
0.0
143
0.0393701
144
2.0
145
0.0
146
0.71
147
1.5
 71
     0
 72
     0
 73
     0
 74
     0
 75
     1
 76
     1
 77
     1
 78
     8
170
     0
171
     2
172
     1
173
     1
174
     0
175
     0
176
   256
177
   256
178
     2
  0
DIMSTYLE
  2
AM_ISO$2
 70
     0
  3

  4
"
  5

  6

  7

 40
1.0
 41
1.6000000000000001
 42
1.0
 43
7.0
 44
1.0
 45
0.0
 46
0.0
 47
0.1
 48
0.1
140
2.5
141
0.0
142
0.0
143
0.0393701
144
1.0
145
0.0
146
0.71
147
0.625
 71
     0
 72
     0
 73
     0
 74
     0
 75
     0
 76
     0
 77
     1
 78
     8
170
     0
171
     2
172
     1
173
     0
174
     0
175
     0
176
   256
177
   256
178
   256
  0
DIMSTYLE
  2
AM_ISO$0
 70
     0
  3

  4
"
  5

  6

  7

 40
1.0
 41
1.6000000000000001
 42
1.0
 43
7.0
 44
1.0
 45
0.0
 46
0.0
 47
0.1
 48
0.1
140
2.5
141
0.0
142
0.0
143
0.0393701
144
1.0
145
0.0
146
0.71
147
0.625
 71
     0
 72
     0
 73
     0
 74
     0
 75
     0
 76
     0
 77
     1
 78
     8
170
     0
171
     2
172
     1
173
     0
174
     0
175
     0
176
   256
177
   256
178
   256
  0
ENDTAB
  0
ENDSEC
  0
SECTION
  2
BLOCKS
  0
BLOCK
  8
0
  2
$MODEL_SPACE
 70
     0
 10
0.0
 20
0.0
 30
0.0
  3
$MODEL_SPACE
  1

  0
ENDBLK
  5
1A
  8
0
  0
BLOCK
 67
     1
  8
0
  2
$PAPER_SPACE
 70
     0
 10
0.0
 20
0.0
 30
0.0
  3
$PAPER_SPACE
  1

  0
ENDBLK
  5
17
 67
     1
  8
0
  0
BLOCK
  8
0
  2
_OPEN30
 70
     0
 10
0.0
 20
0.0
 30
0.0
  3
_OPEN30
  1

  0
LINE
  5
34
  8
0
  6
BYBLOCK
 62
     0
 10
-1.0
 20
0.26794919
 30
0.0
 11
0.0
 21
0.0
 31
0.0
  0
LINE
  5
35
  8
0
  6
BYBLOCK
 62
     0
 10
0.0
 20
0.0
 30
0.0
 11
-1.0
 21
-0.26794919
 31
0.0
  0
LINE
  5
36
  8
0
  6
BYBLOCK
 62
     0
 10
0.0
 20
0.0
 30
0.0
 11
-1.0
 21
0.0
 31
0.0
  0
ENDBLK
  5
37
  8
0
  0
BLOCK
  8
0
  2
GENAXEH
 70
     0
 10
0.0
 20
0.0
 30
0.0
  3
GENAXEH
  1

  0
LINE
  5
102
  8
0
 10
-1.0
 20
0.0
 30
0.0
 11
1.0
 21
0.0
 31
0.0
  0
ENDBLK
  5
104
  8
0
  0
BLOCK
  8
0
  2
_OPEN
 70
     0
 10
0.0
 20
0.0
 30
0.0
  3
_OPEN
  1

  0
LINE
  5
30B
  8
0
  6
BYBLOCK
 62
     0
 10
-1.0
 20
0.1666666666666666
 30
0.0
 11
0.0
 21
0.0
 31
0.0
  0
LINE
  5
30C
  8
0
  6
BYBLOCK
 62
     0
 10
-1.0
 20
-0.1666666666666666
 30
0.0
 11
0.0
 21
0.0
 31
0.0
  0
LINE
  5
30D
  8
0
  6
BYBLOCK
 62
     0
 10
0.0
 20
0.0
 30
0.0
 11
-1.0
 21
0.0
 31
0.0
  0
ENDBLK
  5
30F
  8
0
  0
BLOCK
  8
0
  2
_DOTSMALL
 70
     0
 10
0.0
 20
0.0
 30
0.0
  3
_DOTSMALL
  1

  0
POLYLINE
  5
A1C9
  8
0
  6
BYBLOCK
 62
     0
 66
     1
 10
0.0
 20
0.0
 30
0.0
 70
     1
 40
0.5
 41
0.5
  0
VERTEX
  5
13D8D
  8
0
  6
BYBLOCK
 62
     0
 10
-0.0625
 20
0.0
 30
0.0
 42
1.0
  0
VERTEX
  5
13D8E
  8
0
  6
BYBLOCK
 62
     0
 10
0.0625
 20
0.0
 30
0.0
 42
1.0
  0
SEQEND
  5
13D8F
  8
0
  6
BYBLOCK
 62
     0
  0
ENDBLK
  5
A1CB
  8
0
  0
ENDSEC
  0
SECTION
  2
ENTITIES
  0
LINE
  5
9B1A
  8
WK
 10
23.5
 20
16.25
 30
0.0
 11
817.5
 21
16.25
 31
0.0
  0
LINE
  5
9B1B
  8
WK
 10
23.5
 20
577.74999999999989
 30
0.0
 11
817.5
 21
577.74999999999989
 31
0.0
  0
LINE
  5
9B1C
  8
WK
 10
23.5
 20
577.74999999999989
 30
0.0
 11
23.5
 21
16.25
 31
0.0
  0
LINE
  5
9B1F
  8
WK
 10
817.5
 20
577.74999999999989
 30
0.0
 11
817.5
 21
16.25
 31
0.0
  0
TEXT
  5
9BE2
  8
WK
 10
22.5
 20
16.25
 30
0.0
 40
3.2000000000000002
  1
A1
 50
90.0
 41
0.8299999999999999
  0
LINE
  5
9C31
  8
WK
 10
737.5
 20
34.25
 30
0.0
 11
737.5
 21
16.25
 31
0.0
  0
LINE
  5
9C32
  8
WK
 10
542.49999999999989
 20
34.25
 30
0.0
 11
542.49999999999989
 21
16.25
 31
0.0
  0
LINE
  5
9C34
  8
WK
 10
697.5
 20
34.25
 30
0.0
 11
697.5
 21
16.25
 31
0.0
  0
LINE
  5
9C35
  8
WK
 10
717.49999999999989
 20
34.25
 30
0.0
 11
717.49999999999989
 21
16.25
 31
0.0
  0
LINE
  5
9C37
  8
WK
 10
657.5
 20
34.25
 30
0.0
 11
657.5
 21
16.25
 31
0.0
  0
LINE
  5
9C38
  8
WK
 10
637.5
 20
34.25
 30
0.0
 11
637.5
 21
16.25
 31
0.0
  0
LINE
  5
9C3A
  8
WK
 10
542.49999999999989
 20
34.25
 30
0.0
 11
817.5
 21
34.25
 31
0.0
  0
LINE
  5
9C3B
  8
WK
 10
551.49999999999989
 20
26.25
 30
0.0
 11
624.5
 21
26.25
 31
0.0
  0
LINE
  5
9C3E
  8
WK
 10
657.5
 20
22.25
 30
0.0
 11
697.5
 21
22.25
 31
0.0
  0
LINE
  5
9C3F
  8
WK
 10
657.5
 20
28.25
 30
0.0
 11
697.5
 21
28.25
 31
0.0
  0
LINE
  5
9C46
  8
WK
 10
803.80947501931098
 20
25.25
 30
0.0
 11
815.80947501931109
 21
25.25
 31
0.0
  0
CIRCLE
  5
9C47
  8
WK
 10
809.80947501931098
 20
25.25
 30
0.0
 40
6.0
  0
TEXT
  5
9C56
  8
WK
 10
644.52780952380954
 20
20.649999643948512
 30
0.0
 40
3.2000000000000002
  1
1:1
 41
0.8299999999999999
 72
     4
 11
647.5
 21
22.249999643948509
 31
0.0
  0
TEXT
  5
9C57
  8
WK
 10
739.80313333333334
 20
30.150000000000009
 30
0.0
 40
3.2000000000000002
  1
図番
 41
0.8299999999999999
  0
TEXT
  5
9C58
  8
WK
 10
719.92899999999986
 20
30.150000000000009
 30
0.0
 40
3.2000000000000002
  1
検図
 41
0.8299999999999999
  0
TEXT
  5
9C59
  8
WK
 10
699.92899999999997
 20
30.150000000000009
 30
0.0
 40
3.2000000000000002
  1
作図
 41
0.8299999999999999
  0
TEXT
  5
9C5A
  8
WK
 10
658.55357250571251
 20
29.149999999999999
 30
0.0
 40
3.2000000000000002
  1
作成
 41
0.8299999999999999
  0
TEXT
  5
9C5B
  8
WK
 10
658.55357250571251
 20
23.149999999999999
 30
0.0
 40
3.2000000000000002
  1
制定
 41
0.8299999999999999
  0
TEXT
  5
9C5C
  8
WK
 10
658.55357250571251
 20
17.149999999999999
 30
0.0
 40
3.2000000000000002
  1
廃止
 41
0.8299999999999999
  0
TEXT
  5
9C5D
  8
WK
 10
638.42899999999997
 20
30.149999999999999
 30
0.0
 40
3.2000000000000002
  1
尺度
 41
0.8299999999999999
  0
TEXT
  5
9C5E
  8
WK
 10
625.49999999999989
 20
18.25
 30
0.0
 40
4.0
  1
基準図
 41
0.8
  0
TEXT
  5
9C77
  8
WK
 10
544.30313333333334
 20
30.150000000000009
 30
0.0
 40
3.2000000000000002
  1
図名
 41
0.8299999999999999
  0
LINE
  5
9C7C
  8
WK
 10
737.49999994324844
 20
558.15002446409278
 30
0.0
 11
817.49999994324844
 21
558.15002446409278
 31
0.0
  0
LINE
  5
9C89
  8
WK
 10
737.49999994324844
 20
562.95001225706164
 30
0.0
 11
817.49999994324844
 21
562.95001225706164
 31
0.0
  0
LINE
  5
9C95
  8
WK
 10
746.49999994324844
 20
572.95001225706164
 30
0.0
 11
746.49999994324844
 21
558.15002446409278
 31
0.0
  0
LINE
  5
9C96
  8
WK
 10
737.49999994324844
 20
567.75000005003062
 30
0.0
 11
817.49999994324844
 21
567.75000005003062
 31
0.0
  0
LINE
  5
9CA0
  8
WK
 10
737.49999994324844
 20
572.95001225706187
 30
0.0
 11
817.49999994324844
 21
572.95001225706187
 31
0.0
  0
LINE
  5
9CA2
  8
WK
 10
772.71856683778037
 20
577.75000005003062
 30
0.0
 11
772.71856683778014
 21
558.15002446409278
 31
0.0
  0
LINE
  5
9CA3
  8
WK
 10
762.71856683778026
 20
577.75000005003062
 30
0.0
 11
762.71856683778014
 21
558.15002446409278
 31
0.0
  0
LINE
  5
9CAB
  8
WK
 10
737.49999994324844
 20
577.75000005003062
 30
0.0
 11
737.49999994324844
 21
558.15002446409278
 31
0.0
  0
TEXT
  5
9CAC
  8
WK
 10
741.75857244896099
 20
559.40002446409289
 30
0.0
 40
2.5
  1
ｘ
 41
0.59
  0
TEXT
  5
9CAD
  8
WK
 10
741.75857244896099
 20
564.20001225706164
 30
0.0
 40
2.5
  1
ｘ
 41
0.59
  0
TEXT
  5
9CAE
  8
WK
 10
741.75857244896099
 20
569.00000005003051
 30
0.0
 40
2.5
  1
ｘ
 41
0.59
  0
TEXT
  5
9CAF
  8
WK
 10
739.1601213750539
 20
568.64997563596853
 30
0.0
 40
2.5
  1
1
 41
0.8299999999999999
 72
     4
 11
740.00000232743491
 21
569.89997563596853
 31
0.0
  0
TEXT
  5
9CEF
  8
WK
 10
739.01190708933973
 20
563.84998784299955
 30
0.0
 40
2.5
  1
2
 41
0.8299999999999999
 72
     4
 11
740.00000232743491
 21
565.09998784299955
 31
0.0
  0
TEXT
  5
9CF0
  8
WK
 10
739.01190708933973
 20
559.05000005003092
 30
0.0
 40
2.5
  1
3
 41
0.8299999999999999
 72
     4
 11
740.00000232743491
 21
560.3000000500308
 31
0.0
  0
TEXT
  5
9CF1
  8
WK
 10
755.53260687278987
 20
574.25000005003062
 30
0.0
 40
2.5
  1
付
 41
0.59
  0
TEXT
  5
9CF2
  8
WK
 10
745.59642299420909
 20
574.25000005003062
 30
0.0
 40
2.5
  1
日
 41
0.59
  0
TEXT
  5
9CF3
  8
WK
 10
768.84046250429969
 20
574.25000005003062
 30
0.0
 40
2.5
  1
当
 41
0.59
  0
TEXT
  5
9CF4
  8
WK
 10
765.57034854294386
 20
574.25000005003062
 30
0.0
 40
2.5
  1
担
 41
0.59
  0
TEXT
  5
9CF5
  8
WK
 10
790.0378253786489
 20
574.25000005003062
 30
0.0
 40
2.5
  1
記
 41
0.59
  0
TEXT
  5
9CF6
  8
WK
 10
799.28785589622703
 20
574.25000005003062
 30
0.0
 40
2.5
  1
事
 41
0.59
  0
LINE
  5
9ECF
  8
WK
 10
737.69000238465537
 20
563.54998784299971
 30
0.0
 11
742.31000227021445
 21
563.54998784299971
 31
0.0
  0
LINE
  5
9ED0
  8
WK
 10
742.31000227021445
 20
563.54998784299971
 30
0.0
 11
740.00000232743491
 21
567.55102510575091
 31
0.0
  0
LINE
  5
9ED1
  8
WK
 10
740.00000232743491
 20
567.55102510575091
 30
0.0
 11
737.69000238465537
 21
563.54998784299971
 31
0.0
  0
LINE
  5
9ED2
  8
WK
 10
737.69000238465537
 20
568.34997563596858
 30
0.0
 11
742.31000227021445
 21
568.34997563596858
 31
0.0
  0
LINE
  5
9ED3
  8
WK
 10
742.31000227021445
 20
568.34997563596858
 30
0.0
 11
740.00000232743491
 21
572.35101289871977
 31
0.0
  0
LINE
  5
9ED4
  8
WK
 10
740.00000232743491
 20
572.35101289871977
 30
0.0
 11
737.69000238465537
 21
568.34997563596858
 31
0.0
  0
LINE
  5
9ED5
  8
WK
 10
737.69000238465537
 20
558.75000005003085
 30
0.0
 11
742.31000227021445
 21
558.75000005003085
 31
0.0
  0
LINE
  5
9ED6
  8
WK
 10
742.31000227021445
 20
558.75000005003085
 30
0.0
 11
740.00000232743491
 21
562.75103731278216
 31
0.0
  0
LINE
  5
9ED7
  8
WK
 10
740.00000232743491
 20
562.75103731278216
 30
0.0
 11
737.69000238465537
 21
558.75000005003085
 31
0.0
  0
TEXT
  5
121F1
  8
MJ
 10
392.5
 20
24.25
 30
0.0
 40
7.0
  1
ｖｒ０２ａ００３－ｄ
 41
0.8299999999999999
  0
TEXT
  5
121F2
  8
MJ
 10
392.5
 20
51.25
 30
0.0
 40
7.0
  1
室内ドア　親子ドア
 41
0.8299999999999999
  0
TEXT
  5
121F3
  8
MJ
 10
392.5
 20
33.25
 30
0.0
 40
7.0
  1
たて横断面
 41
0.8299999999999999
  0
TEXT
  5
121F4
  8
MJ
 10
392.5
 20
42.25
 30
0.0
 40
7.0
  1
木製枠　枠見込み１６７ｍｍ（ノンケーシング枠）
 41
0.8299999999999999
  0
TEXT
  5
12B55
  8
WK
 10
786.28571599721909
 20
579.75
 30
0.0
 40
4.0
  1
大栄建材株式会社
 41
0.82
  0
LINE
  5
12F79
  8
SU
 10
304.49999620000011
 20
225.2499999999923
 30
0.0
 11
292.5
 21
225.2499999999923
 31
0.0
  0
LINE
  5
12F7A
  8
SU
 10
304.37999630000002
 20
225.0500001999923
 30
0.0
 11
292.6199999000001
 21
225.0500001999923
 31
0.0
  0
LINE
  5
12F7B
  8
SU
 10
304.25999639999998
 20
224.8500003999923
 30
0.0
 11
292.73999980000002
 21
224.8500003999923
 31
0.0
  0
LINE
  5
12F7C
  8
SU
 10
304.1399965
 20
224.6500005999923
 30
0.0
 11
292.8599997
 21
224.6500005999923
 31
0.0
  0
LINE
  5
12F7D
  8
SU
 10
304.01999660000001
 20
224.4500007999923
 30
0.0
 11
292.97999950000002
 21
224.4500007999923
 31
0.0
  0
LINE
  5
12F7E
  8
SU
 10
303.89999680000011
 20
224.2500009999923
 30
0.0
 11
293.0999994
 21
224.2500009999923
 31
0.0
  0
LINE
  5
12F7F
  8
SU
 10
303.77999690000001
 20
224.0500010999923
 30
0.0
 11
293.2199993000001
 21
224.0500010999923
 31
0.0
  0
LINE
  5
12F80
  8
SU
 10
303.65999790000001
 20
223.8500012999923
 30
0.0
 11
293.33999920000002
 21
223.8500012999923
 31
0.0
  0
LINE
  5
12F81
  8
SU
 10
303.5399981000001
 20
223.6500014999923
 30
0.0
 11
293.4599991
 21
223.6500014999923
 31
0.0
  0
LINE
  5
12F82
  8
SU
 10
303.41999820000001
 20
223.4500016999923
 30
0.0
 11
293.5799990000001
 21
223.4500016999923
 31
0.0
  0
LINE
  5
12F83
  8
SU
 10
303.29999830000003
 20
223.2500018999923
 30
0.0
 11
293.69999890000003
 21
223.2500018999923
 31
0.0
  0
LINE
  5
12F84
  8
SU
 10
303.17999839999999
 20
223.0500020999923
 30
0.0
 11
293.81999869999999
 21
223.0500020999923
 31
0.0
  0
LINE
  5
12F85
  8
SU
 10
303.05999850000001
 20
222.8500022999923
 30
0.0
 11
293.93999860000002
 21
222.8500022999923
 31
0.0
  0
LINE
  5
12F86
  8
SU
 10
302.93999860000002
 20
222.6500024999923
 30
0.0
 11
294.05999850000001
 21
222.6500024999923
 31
0.0
  0
LINE
  5
12F87
  8
SU
 10
302.69999890000003
 20
222.2500028999923
 30
0.0
 11
294.29999829999991
 21
222.2500028999923
 31
0.0
  0
LINE
  5
12F88
  8
SU
 10
302.8199987000001
 20
222.4500026999923
 30
0.0
 11
294.1799984000001
 21
222.4500026999923
 31
0.0
  0
LINE
  5
12F89
  8
SU
 10
301.97999950000002
 20
221.0500039999923
 30
0.0
 11
295.01999760000001
 21
221.0500039999923
 31
0.0
  0
LINE
  5
12F8A
  8
SU
 10
301.86000059999998
 20
220.8500041999923
 30
0.0
 11
295.13999750000011
 21
220.8500041999923
 31
0.0
  0
LINE
  5
12F8B
  8
SU
 10
301.7400007
 20
220.6500043999923
 30
0.0
 11
295.25999739999997
 21
220.6500043999923
 31
0.0
  0
LINE
  5
12F8C
  8
SU
 10
301.62000080000001
 20
220.4500045999923
 30
0.0
 11
295.37999730000001
 21
220.4500045999923
 31
0.0
  0
LINE
  5
12F8D
  8
SU
 10
301.500001
 20
220.2500047999923
 30
0.0
 11
295.49999709999997
 21
220.2500047999923
 31
0.0
  0
LINE
  5
12F8E
  8
SU
 10
301.38000110000002
 20
220.0500049999923
 30
0.0
 11
295.61999700000001
 21
220.0500049999923
 31
0.0
  0
LINE
  5
12F8F
  8
SU
 10
301.26000119999998
 20
219.8500050999923
 30
0.0
 11
295.73999689999999
 21
219.8500050999923
 31
0.0
  0
LINE
  5
12F90
  8
SU
 10
301.14000129999999
 20
219.6500052999923
 30
0.0
 11
295.85999679999998
 21
219.6500052999923
 31
0.0
  0
LINE
  5
12F91
  8
SU
 10
301.02000140000001
 20
219.4500054999923
 30
0.0
 11
295.97999670000002
 21
219.4500054999923
 31
0.0
  0
LINE
  5
12F92
  8
SU
 10
300.90000149999997
 20
219.2500056999923
 30
0.0
 11
296.09999660000011
 21
219.2500056999923
 31
0.0
  0
LINE
  5
12F93
  8
SU
 10
300.78000159999999
 20
219.0500058999923
 30
0.0
 11
296.21999649999998
 21
219.0500058999923
 31
0.0
  0
LINE
  5
12F94
  8
SU
 10
300.66000270000001
 20
218.8500060999923
 30
0.0
 11
296.3399963
 21
218.8500060999923
 31
0.0
  0
LINE
  5
12F95
  8
SU
 10
300.54000280000002
 20
218.6500062999923
 30
0.0
 11
296.45999619999998
 21
218.6500062999923
 31
0.0
  0
LINE
  5
12F96
  8
SU
 10
300.42000289999999
 20
218.4500064999923
 30
0.0
 11
296.57999610000002
 21
218.4500064999923
 31
0.0
  0
LINE
  5
12F97
  8
SU
 10
300.30000310000003
 20
218.2500066999923
 30
0.0
 11
296.69999600000011
 21
218.2500066999923
 31
0.0
  0
LINE
  5
12F98
  8
SU
 10
300.18000319999999
 20
218.05000689999221
 30
0.0
 11
296.81999589999998
 21
218.05000689999221
 31
0.0
  0
LINE
  5
12F99
  8
SU
 10
300.06000329999989
 20
217.8500070999923
 30
0.0
 11
296.93999580000002
 21
217.8500070999923
 31
0.0
  0
LINE
  5
12F9A
  8
SU
 10
299.94000340000002
 20
217.6500071999923
 30
0.0
 11
297.0599957
 21
217.6500071999923
 31
0.0
  0
LINE
  5
12F9B
  8
SU
 10
299.70000359999989
 20
217.2500075999923
 30
0.0
 11
297.2999954
 21
217.2500075999923
 31
0.0
  0
LINE
  5
12F9C
  8
SU
 10
299.82000349999998
 20
217.4500073999923
 30
0.0
 11
297.17999550000002
 21
217.4500073999923
 31
0.0
  0
LINE
  5
12F9D
  8
SU
 10
299.58000370000002
 20
217.0500077999923
 30
0.0
 11
297.41999529999998
 21
217.0500077999923
 31
0.0
  0
LINE
  5
12F9E
  8
SU
 10
299.46000385000002
 20
216.8500079999923
 30
0.0
 11
297.53999519000001
 21
216.8500079999923
 31
0.0
  0
LINE
  5
12F9F
  8
SU
 10
299.34000397
 20
216.6500081999923
 30
0.0
 11
297.65999507999999
 21
216.6500081999923
 31
0.0
  0
LINE
  5
12FA0
  8
SU
 10
299.2200050400001
 20
216.4500083999923
 30
0.0
 11
297.7799949599999
 21
216.4500083999923
 31
0.0
  0
LINE
  5
12FA1
  8
SU
 10
299.10000515000002
 20
216.2500085999923
 30
0.0
 11
297.89999484999998
 21
216.2500085999923
 31
0.0
  0
LINE
  5
12FA2
  8
SU
 10
298.86000252000002
 20
215.85000895999229
 30
0.0
 11
298.13999461999998
 21
215.85000895999229
 31
0.0
  0
LINE
  5
12FA3
  8
SU
 10
298.98000525999998
 20
216.0500087699923
 30
0.0
 11
298.01999474000002
 21
216.0500087699923
 31
0.0
  0
LINE
  5
12FA4
  8
SU
 10
298.74000262999999
 20
215.65000915999229
 30
0.0
 11
298.25999451000001
 21
215.65000915999229
 31
0.0
  0
LINE
  5
12FA5
  8
SU
 10
298.5000020224893
 20
215.24999581901881
 30
0.0
 11
292.50000010000002
 21
225.24999959999229
 31
0.0
  0
LINE
  5
12FA6
  8
SU
 10
298.62000751000011
 20
215.45001220999231
 30
0.0
 11
298.37999248999989
 21
215.45001220999231
 31
0.0
  0
LINE
  5
12FA7
  8
SU
 10
298.49999993819199
 20
215.24999981984141
 30
0.0
 11
304.4999957
 21
225.2499998999923
 31
0.0
  0
LINE
  5
12FA8
  8
SU
 10
302.1000004
 20
221.2500037999923
 30
0.0
 11
294.89999769999997
 21
221.2500037999923
 31
0.0
  0
LINE
  5
12FA9
  8
SU
 10
302.22000029999998
 20
221.4500035999923
 30
0.0
 11
294.77999779999999
 21
221.4500035999923
 31
0.0
  0
LINE
  5
12FAA
  8
SU
 10
302.33999920000002
 20
221.6500033999923
 30
0.0
 11
294.65999790000001
 21
221.6500033999923
 31
0.0
  0
LINE
  5
12FAB
  8
SU
 10
302.4599991
 20
221.8500031999923
 30
0.0
 11
294.53999809999999
 21
221.8500031999923
 31
0.0
  0
LINE
  5
12FAC
  8
SU
 10
302.57999899999999
 20
222.05000309999221
 30
0.0
 11
294.41999820000001
 21
222.05000309999221
 31
0.0
  0
LINE
  5
12FAD
  8
KI1
 10
61.5
 20
445.24999999999221
 30
0.0
 11
228.5
 21
445.24999999999221
 31
0.0
  0
LINE
  5
12FAE
  8
KI1
 10
228.5
 20
445.24999999999221
 30
0.0
 11
228.5
 21
319.24999999999233
 31
0.0
  0
LINE
  5
12FAF
  8
KI1
 10
61.49999999999995
 20
319.24999999999233
 30
0.0
 11
61.5
 21
445.24999999999221
 31
0.0
  0
LINE
  5
12FB0
  8
KI1
 10
187.9999999999998
 20
418.24999999999221
 30
0.0
 11
221.0
 21
418.24999999999221
 31
0.0
1001
GENIUS_GENREC_14
1002
{
1000
PYDIR
1011
187.9999999999998
1021
0.0
1031
0.0
1021
62.182052160362097
1031
0.0
1002
}
1002
{
1000
PXDIR
1011
225.5
1021
0.0
1031
0.0
1021
418.24999999999221
1031
0.0
1002
}
1002
{
1000
PORI
1011
187.9999999999998
1021
0.0
1031
0.0
1021
418.24999999999221
1031
0.0
1002
}
1002
{
1000
PINS
1011
187.9999999999998
1021
0.0
1031
0.0
1021
418.24999999999221
1031
0.0
1002
}
1002
{
1000
PINS2
1011
225.5
1021
0.0
1031
0.0
1021
62.182052160362097
1031
0.0
1002
}
1002
{
1000
C
1070
     1
1002
}
1001
GENIUS_GENOBJ-N-REC_13
1002
{
1000
OWNER
1000
GEN
1002
}
1001
GENIUS_GENODEF_13
1002
{
1000
HIER
1070
     0
1002
}
1002
{
1000
MANEDIT
1070
     0
1002
}
1002
{
1000
NOSEL
1070
     0
1002
}
1002
{
1000
BEHIND
1070
     0
1002
}
1002
{
1000
OTHER
1070
     0
1002
}
1002
{
1000
REACTOR
1002
}
  0
LINE
  5
12FB1
  8
KI1
 10
221.0
 20
418.24999999999221
 30
0.0
 11
221.0
 21
319.24999999999233
 31
0.0
1001
GENIUS_GENREC_14
1002
{
1000
PYDIR
1011
187.9999999999998
1021
0.0
1031
0.0
1021
62.182052160362097
1031
0.0
1002
}
1002
{
1000
PXDIR
1011
225.5
1021
0.0
1031
0.0
1021
418.24999999999221
1031
0.0
1002
}
1002
{
1000
PORI
1011
187.9999999999998
1021
0.0
1031
0.0
1021
418.24999999999221
1031
0.0
1002
}
1002
{
1000
PINS
1011
187.9999999999998
1021
0.0
1031
0.0
1021
418.24999999999221
1031
0.0
1002
}
1002
{
1000
PINS2
1011
225.5
1021
0.0
1031
0.0
1021
62.182052160362097
1031
0.0
1002
}
1002
{
1000
C
1070
     1
1002
}
1001
GENIUS_GENOBJ-N-REC_13
1002
{
1000
OWNER
1000
GEN
1002
}
1001
GENIUS_GENODEF_13
1002
{
1000
HIER
1070
     0
1002
}
1002
{
1000
MANEDIT
1070
     0
1002
}
1002
{
1000
NOSEL
1070
     0
1002
}
1002
{
1000
BEHIND
1070
     0
1002
}
1002
{
1000
OTHER
1070
     0
1002
}
1002
{
1000
REACTOR
1002
}
  0
LINE
  5
12FB2
  8
KI1
 10
187.9999999999998
 20
319.24999999999233
 30
0.0
 11
187.9999999999998
 21
418.24999999999221
 31
0.0
1001
GENIUS_GENREC_14
1002
{
1000
PYDIR
1011
187.9999999999998
1021
0.0
1031
0.0
1021
62.182052160362097
1031
0.0
1002
}
1002
{
1000
PXDIR
1011
225.5
1021
0.0
1031
0.0
1021
418.24999999999221
1031
0.0
1002
}
1002
{
1000
PORI
1011
187.9999999999998
1021
0.0
1031
0.0
1021
418.24999999999221
1031
0.0
1002
}
1002
{
1000
PINS
1011
187.9999999999998
1021
0.0
1031
0.0
1021
418.24999999999221
1031
0.0
1002
}
1002
{
1000
PINS2
1011
225.5
1021
0.0
1031
0.0
1021
62.182052160362097
1031
0.0
1002
}
1002
{
1000
C
1070
     1
1002
}
1001
GENIUS_GENOBJ-N-REC_13
1002
{
1000
OWNER
1000
GEN
1002
}
1001
GENIUS_GENODEF_13
1002
{
1000
HIER
1070
     0
1002
}
1002
{
1000
MANEDIT
1070
     0
1002
}
1002
{
1000
NOSEL
1070
     0
1002
}
1002
{
1000
BEHIND
1070
     0
1002
}
1002
{
1000
OTHER
1070
     0
1002
}
1002
{
1000
REACTOR
1002
}
  0
LINE
  5
12FB3
  8
OS
 10
192.99999999999989
 20
206.2499999999923
 30
0.0
 11
41.5
 21
206.2499999999923
 31
0.0
  0
LINE
  5
12FB4
  8
OS
 10
192.99999999999989
 20
209.24999999999221
 30
0.0
 11
41.5
 21
209.24999999999221
 31
0.0
  0
LINE
  5
12FB5
  8
OS
 10
192.99999999999989
 20
212.24999999999221
 30
0.0
 11
41.5
 21
212.2499999999923
 31
0.0
  0
LINE
  5
12FB6
  8
OS
 10
192.99999999999989
 20
215.2499999999923
 30
0.0
 11
41.5
 21
215.2499999999923
 31
0.0
  0
LINE
  5
12FB7
  8
OS
 10
192.99999999999989
 20
203.2499999999923
 30
0.0
 11
41.5
 21
203.2499999999923
 31
0.0
  0
LINE
  5
12FB8
  8
KI1
 10
61.500000000000107
 20
317.24999999999233
 30
0.0
 11
61.500000000000107
 21
215.2499999999923
 31
0.0
  0
LINE
  5
12FB9
  8
KI1
 10
228.5
 20
317.24999999999233
 30
0.0
 11
228.5
 21
215.2499999999923
 31
0.0
  0
LINE
  5
12FBA
  8
KI1
 10
192.99999999999989
 20
203.2499999999925
 30
0.0
 11
217.99999999999989
 21
203.2499999999925
 31
0.0
  0
LINE
  5
12FBB
  8
KI1
 10
192.99999999999989
 20
203.2499999999925
 30
0.0
 11
192.99999999999989
 21
215.24999999998431
 31
0.0
  0
LINE
  5
12FBC
  8
KI1
 10
217.99999999999989
 20
203.2499999999925
 30
0.0
 11
217.99999999999989
 21
215.24999999998431
 31
0.0
  0
LINE
  5
12FBD
  8
OS
 10
248.5
 20
215.2499999999923
 30
0.0
 11
217.99999999999989
 21
215.2499999999923
 31
0.0
  0
LINE
  5
12FBE
  8
OS
 10
248.5
 20
212.2499999999923
 30
0.0
 11
217.99999999999989
 21
212.2499999999923
 31
0.0
  0
LINE
  5
12FBF
  8
OS
 10
248.5
 20
209.24999999999221
 30
0.0
 11
217.99999999999989
 21
209.24999999999221
 31
0.0
  0
LINE
  5
12FC0
  8
OS
 10
248.5
 20
203.2499999999923
 30
0.0
 11
217.99999999999989
 21
203.2499999999923
 31
0.0
  0
LINE
  5
12FC1
  8
OS
 10
248.5
 20
206.2499999999923
 30
0.0
 11
217.99999999999989
 21
206.2499999999923
 31
0.0
  0
LINE
  5
12FC2
  8
KI1
 10
210.9999999999998
 20
205.24999999999241
 30
0.0
 11
210.9999999999998
 21
213.34999847411339
 31
0.0
  0
LINE
  5
12FC3
  8
KI1
 10
211.9999999999998
 20
213.74999999999241
 30
0.0
 11
211.9999999999998
 21
204.74999999999241
 31
0.0
  0
LINE
  5
12FC4
  8
KI1
 10
199.9999999999998
 20
213.34999847411339
 30
0.0
 11
199.9999999999998
 21
205.24999999999241
 31
0.0
  0
LINE
  5
12FC5
  8
KI1
 10
198.9999999999998
 20
204.74999999999241
 30
0.0
 11
198.9999999999998
 21
213.74999999999241
 31
0.0
  0
LINE
  5
12FC6
  8
KI1
 10
210.9999999999998
 20
203.7499999999925
 30
0.0
 11
199.9999999999998
 21
203.7499999999925
 31
0.0
  0
LINE
  5
12FC7
  8
KI1
 10
205.79999923706029
 20
204.74999999999241
 30
0.0
 11
210.4999999999998
 21
204.74999999999241
 31
0.0
  0
ARC
  5
12FC8
  8
KI1
 10
199.9999999999998
 20
204.74999999999241
 30
0.0
 40
1.0
 50
179.99999134857859
 51
270.000000683243
  0
ARC
  5
12FC9
  8
KI1
 10
200.4999999999998
 20
205.24999999999241
 30
0.0
 40
0.5
 50
179.99999134857859
 51
270.000000683243
  0
LINE
  5
12FCA
  8
KI1
 10
205.50000113796469
 20
204.45000159739689
 30
0.0
 11
205.8000003695486
 21
204.7500008344575
 31
0.0
  0
LINE
  5
12FCB
  8
KI1
 10
205.20000126957871
 20
204.75000143050389
 30
0.0
 11
205.50000113796469
 21
204.45000159739689
 31
0.0
  0
LINE
  5
12FCC
  8
KI1
 10
200.4999999999998
 20
204.74999999999241
 30
0.0
 11
205.2000007629394
 21
204.74999999999241
 31
0.0
  0
ARC
  5
12FCD
  8
KI1
 10
210.9999999999998
 20
204.74999999999241
 30
0.0
 40
1.0
 50
269.99999749551819
 51
0.0
  0
ARC
  5
12FCE
  8
KI1
 10
210.4999999999998
 20
205.24999999999241
 30
0.0
 40
0.5
 50
269.99999749551819
 51
0.0
  0
ARC
  5
12FCF
  8
KI1
 10
194.9999999999998
 20
214.72867965697449
 30
0.0
 40
0.2000000029802
 50
45.000001252234298
 51
180.00000500895689
  0
LINE
  5
12FD0
  8
KI1
 10
196.4999980926512
 20
215.34999847411339
 30
0.0
 11
194.7464421263644
 21
217.10355348672601
 31
0.0
  0
ARC
  5
12FD1
  8
KI1
 10
194.39288883191139
 20
216.74999999999241
 30
0.0
 40
0.5
 50
45.000015580204142
 51
90.0
1001
GENIUS_GENOBJ-N-FIL_13
1002
{
1000
OWNER
1000
GEN
1002
}
1001
GENIUS_GENODEF_13
1002
{
1000
HIER
1070
     0
1002
}
1002
{
1000
MANEDIT
1070
     0
1002
}
1002
{
1000
NOSEL
1070
     0
1002
}
1002
{
1000
BEHIND
1070
     0
1002
}
1002
{
1000
OTHER
1070
     0
1002
}
1002
{
1000
REACTOR
1002
}
  0
LINE
  5
12FD2
  8
KI1
 10
194.39288883191139
 20
217.24999999999241
 30
0.0
 11
189.00001300731881
 21
217.24999999999241
 31
0.0
  0
ARC
  5
12FD3
  8
KI1
 10
185.4999999999998
 20
215.6253791883494
 30
0.0
 40
0.5
 50
107.45439221042299
 51
180.0
1001
GENIUS_GENODEF_13
1002
{
1000
HIER
1070
     0
1002
}
1002
{
1000
MANEDIT
1070
     0
1002
}
1002
{
1000
NOSEL
1070
     0
1002
}
1002
{
1000
BEHIND
1070
     0
1002
}
1002
{
1000
OTHER
1070
     0
1002
}
1002
{
1000
REACTOR
1002
}
1001
GENIUS_GENOBJ-N-FIL_13
1002
{
1000
OWNER
1000
GEN
1002
}
  0
LINE
  5
12FD4
  8
KI1
 10
184.9999999999998
 20
215.6253791883494
 30
0.0
 11
184.9999999999998
 21
215.24999999999241
 31
0.0
  0
ARC
  5
12FD5
  8
KI1
 10
194.39999771118181
 20
212.95000076293201
 30
0.0
 40
0.4000000059605
 50
179.99999134857859
 51
0.0000100179073766
  0
ARC
  5
12FD6
  8
KI1
 10
193.70000076293979
 20
215.65000152587041
 30
0.0
 40
0.3000000119209
 50
0.0
 51
90.000002504475205
  0
LINE
  5
12FD7
  8
KI1
 10
187.00001907348681
 20
215.24999999999241
 30
0.0
 11
189.00002098083479
 21
215.95000076293141
 31
0.0
  0
LINE
  5
12FD8
  8
KI1
 10
189.00001907348681
 20
215.95000076293141
 30
0.0
 11
193.70000076293979
 21
215.95000076293141
 31
0.0
  0
LINE
  5
12FD9
  8
KI1
 10
193.9999999999998
 20
215.65000152587041
 30
0.0
 11
193.9999999999998
 21
212.95000076293201
 31
0.0
  0
LINE
  5
12FDA
  8
KI1
 10
187.00001907348681
 20
215.24999999999241
 30
0.0
 11
184.9999999999998
 21
215.24999999999241
 31
0.0
  0
LINE
  5
12FDB
  8
KI1
 10
185.35002673009311
 20
216.1023571944603
 30
0.0
 11
189.00001300731881
 21
217.24999999999241
 31
0.0
  0
LINE
  5
12FDC
  8
KI1
 10
194.7999992370608
 20
212.95000076293201
 30
0.0
 11
194.7999992370608
 21
214.72867965697449
 31
0.0
  0
ARC
  5
12FDD
  8
KI1
 10
199.9999999999998
 20
214.84999847411339
 30
0.0
 40
0.5
 50
0.0
 51
90.000002504475205
  0
ARC
  5
12FDE
  8
KI1
 10
198.70000076293931
 20
213.74999999999241
 30
0.0
 40
0.3000000119209
 50
0.0
 51
90.000002504475205
  0
LINE
  5
12FDF
  8
KI1
 10
198.70000076293931
 20
214.04999923705239
 30
0.0
 11
195.96152114868141
 21
214.04999923705239
 31
0.0
  0
LINE
  5
12FE0
  8
KI1
 10
199.9999999999998
 20
215.34999847411339
 30
0.0
 11
196.4999999999998
 21
215.34999847411339
 31
0.0
  0
LINE
  5
12FE1
  8
KI1
 10
199.9999999999998
 20
213.34999847411339
 30
0.0
 11
200.4999999999998
 21
213.34999847411339
 31
0.0
  0
LINE
  5
12FE2
  8
KI1
 10
200.4999999999998
 20
213.34999847411339
 30
0.0
 11
200.4999999999998
 21
214.84999847411339
 31
0.0
  0
LINE
  5
12FE3
  8
KI1
 10
195.1414232254028
 20
214.87010192870241
 30
0.0
 11
195.96152400970439
 21
214.05000114440139
 31
0.0
  0
LINE
  5
12FE4
  8
KI1
 10
221.9999680125587
 20
217.24999999999241
 30
0.0
 11
216.60710639971629
 21
217.24999999999241
 31
0.0
  0
LINE
  5
12FE5
  8
KI1
 10
217.30000305175679
 20
215.95000076293141
 30
0.0
 11
221.99997711181581
 21
215.95000076293141
 31
0.0
  0
ARC
  5
12FE6
  8
KI1
 10
216.60710639971629
 20
216.74999999999241
 30
0.0
 40
0.5
 50
90.0
 51
134.99998441981859
1001
GENIUS_GENODEF_13
1002
{
1000
HIER
1070
     0
1002
}
1002
{
1000
MANEDIT
1070
     0
1002
}
1002
{
1000
NOSEL
1070
     0
1002
}
1002
{
1000
BEHIND
1070
     0
1002
}
1002
{
1000
OTHER
1070
     0
1002
}
1002
{
1000
REACTOR
1002
}
1001
GENIUS_GENOBJ-N-FIL_13
1002
{
1000
OWNER
1000
GEN
1002
}
  0
ARC
  5
12FE7
  8
KI1
 10
216.59999847412081
 20
212.95000076293201
 30
0.0
 40
0.4000000059605
 50
179.99999134857859
 51
0.0000100179073766
  0
ARC
  5
12FE8
  8
KI1
 10
210.9999999999998
 20
214.84999847411339
 30
0.0
 40
0.5
 50
90.000002504475205
 51
180.00000500895689
  0
ARC
  5
12FE9
  8
KI1
 10
212.30000305175761
 20
213.74999999999241
 30
0.0
 40
0.3000000119209
 50
90.000002504475205
 51
180.00000500895689
  0
ARC
  5
12FEA
  8
KI1
 10
217.30000305175679
 20
215.65000152587041
 30
0.0
 40
0.3000000119209
 50
90.000002504475205
 51
180.00000500895689
  0
ARC
  5
12FEB
  8
KI1
 10
215.9999999999998
 20
214.72867965697449
 30
0.0
 40
0.2000000029802
 50
0.0
 51
135.0000003416219
  0
LINE
  5
12FEC
  8
KI1
 10
215.03847503662089
 20
214.04999923705239
 30
0.0
 11
212.30000305175761
 21
214.04999923705239
 31
0.0
  0
LINE
  5
12FED
  8
KI1
 10
216.9999999999998
 20
212.95000076293201
 30
0.0
 11
216.9999999999998
 21
215.65000152587041
 31
0.0
  0
LINE
  5
12FEE
  8
KI1
 10
216.25355310526319
 20
217.1035534867259
 30
0.0
 11
214.49999618530251
 21
215.34999752043839
 31
0.0
  0
LINE
  5
12FEF
  8
KI1
 10
214.4999999999998
 20
215.34999847411339
 30
0.0
 11
210.9999999999998
 21
215.34999847411339
 31
0.0
  0
LINE
  5
12FF0
  8
KI1
 10
210.4999999999998
 20
213.34999847411339
 30
0.0
 11
210.9999999999998
 21
213.34999847411339
 31
0.0
  0
LINE
  5
12FF1
  8
KI1
 10
210.4999999999998
 20
214.84999847411339
 30
0.0
 11
210.4999999999998
 21
213.34999847411339
 31
0.0
  0
LINE
  5
12FF2
  8
KI1
 10
215.03847599029521
 20
214.04999923705239
 30
0.0
 11
215.8585767745968
 21
214.87010002135449
 31
0.0
  0
LINE
  5
12FF3
  8
KI1
 10
216.1999969482419
 20
214.72867965697449
 30
0.0
 11
216.1999969482419
 21
212.95000076293201
 31
0.0
  0
ARC
  5
12FF4
  8
KI1
 10
225.49999999999989
 20
215.62537347067581
 30
0.0
 40
0.5
 50
0.0
 51
72.545611362732629
1001
GENIUS_GENOBJ-N-FIL_13
1002
{
1000
OWNER
1000
GEN
1002
}
1001
GENIUS_GENODEF_13
1002
{
1000
HIER
1070
     0
1002
}
1002
{
1000
MANEDIT
1070
     0
1002
}
1002
{
1000
NOSEL
1070
     0
1002
}
1002
{
1000
BEHIND
1070
     0
1002
}
1002
{
1000
OTHER
1070
     0
1002
}
1002
{
1000
REACTOR
1002
}
  0
LINE
  5
12FF5
  8
KI1
 10
225.9999999999998
 20
215.62537347067581
 30
0.0
 11
225.9999999999998
 21
215.24999999999241
 31
0.0
  0
LINE
  5
12FF6
  8
KI1
 10
221.99997711181581
 20
215.94999885558249
 30
0.0
 11
223.99997711181581
 21
215.24999904631741
 31
0.0
  0
LINE
  5
12FF7
  8
KI1
 10
225.9999999999998
 20
215.24999999999241
 30
0.0
 11
223.99997711181581
 21
215.24999999999241
 31
0.0
  0
LINE
  5
12FF8
  8
KI1
 10
221.9999680125587
 20
217.24999999999241
 30
0.0
 11
225.6499732401607
 21
216.10235148613941
 31
0.0
  0
LINE
  5
12FF9
  8
KI1
 10
209.69999980926491
 20
215.34999847411331
 30
0.0
 11
201.30000019073469
 21
215.34999847411331
 31
0.0
  0
LINE
  5
12FFA
  8
KI1
 10
215.1000003814695
 20
216.64999847411329
 30
0.0
 11
195.8999996185301
 21
216.64999847411329
 31
0.0
  0
ARC
  5
12FFB
  8
KI1
 10
201.20737504959089
 20
210.34999848007379
 30
0.0
 40
0.4000000059605
 50
195.00000565373881
 51
15.000000417414331
  0
LINE
  5
12FFC
  8
KI1
 10
196.69999999999979
 20
215.34999847411331
 30
0.0
 11
195.75730825457509
 21
216.3098590228953
 31
0.0
  0
ARC
  5
12FFD
  8
KI1
 10
195.89999999999981
 20
216.4499984741133
 30
0.0
 40
0.2
 50
90.0
 51
224.4829717565718
  0
LINE
  5
12FFE
  8
KI1
 10
200.4999999999998
 20
215.34999847411331
 30
0.0
 11
196.69999999999979
 21
215.34999847411331
 31
0.0
  0
ARC
  5
12FFF
  8
KI1
 10
200.4999999999998
 20
212.6035883486193
 30
0.0
 40
0.3000000119209
 50
120.00000333930301
 51
195.00000201127381
  0
LINE
  5
13000
  8
KI1
 10
201.29999971389759
 20
211.54979920982541
 30
0.0
 11
201.5937454700468
 21
210.45352602600281
 31
0.0
  0
LINE
  5
13001
  8
KI1
 10
200.8210048675536
 20
210.24647093414481
 30
0.0
 11
200.2102222442625
 21
212.52594256996329
 31
0.0
  0
LINE
  5
13002
  8
KI1
 10
201.30000019073469
 20
211.54979920982541
 30
0.0
 11
201.30000019073469
 21
215.34999847411331
 31
0.0
  0
LINE
  5
13003
  8
KI1
 10
200.3500003814695
 20
212.8633959352893
 30
0.0
 11
200.4999999999998
 21
212.94999838470639
 31
0.0
  0
LINE
  5
13004
  8
KI1
 10
200.4999999999998
 20
215.34999847411331
 30
0.0
 11
200.4999999999998
 21
212.94999838470639
 31
0.0
  0
ARC
  5
13005
  8
KI1
 10
209.79262495040871
 20
210.34999848007379
 30
0.0
 40
0.4000000059605
 50
164.9999943462611
 51
345.00001301559303
  0
LINE
  5
13006
  8
KI1
 10
214.29999999999981
 20
215.34999847411331
 30
0.0
 11
215.24269174542451
 21
216.3098590228953
 31
0.0
  0
ARC
  5
13007
  8
KI1
 10
215.0999999999998
 20
216.4499984741133
 30
0.0
 40
0.2
 50
315.51702824342362
 51
90.0
  0
LINE
  5
13008
  8
KI1
 10
214.29999999999981
 20
215.34999847411331
 30
0.0
 11
210.4999999999998
 21
215.34999847411331
 31
0.0
  0
ARC
  5
13009
  8
KI1
 10
210.4999999999998
 20
212.6035883486193
 30
0.0
 40
0.3000000119209
 50
344.99999958258559
 51
60.000001669652299
  0
LINE
  5
1300A
  8
KI1
 10
209.4062545299528
 20
210.45352602600281
 30
0.0
 11
209.7000002861021
 21
211.54979920982541
 31
0.0
  0
LINE
  5
1300B
  8
KI1
 10
210.78977775573711
 20
212.52594256996329
 30
0.0
 11
210.17899513244609
 21
210.24647093414481
 31
0.0
  0
LINE
  5
1300C
  8
KI1
 10
209.69999980926491
 20
215.34999847411331
 30
0.0
 11
209.69999980926491
 21
211.54979920982541
 31
0.0
  0
LINE
  5
1300D
  8
KI1
 10
210.4999999999998
 20
212.94999838470639
 30
0.0
 11
210.6499996185301
 21
212.8633959352893
 31
0.0
  0
LINE
  5
1300E
  8
KI1
 10
210.4999999999998
 20
212.94999838470639
 30
0.0
 11
210.4999999999998
 21
215.34999847411331
 31
0.0
  0
LINE
  5
1300F
  8
KI1
 10
221.0
 20
317.24999999999233
 30
0.0
 11
221.0
 21
225.2500000000004
 31
0.0
  0
LINE
  5
13010
  8
KI1
 10
188.0
 20
317.24999999999233
 30
0.0
 11
188.00000000000011
 21
225.2500000000004
 31
0.0
  0
LINE
  5
13011
  8
KI1
 10
188.00000000000011
 20
225.2500000000004
 30
0.0
 11
221.0
 21
225.2500000000004
 31
0.0
  0
LINE
  5
13012
  8
KI1
 10
217.99999999999989
 20
215.2499999999923
 30
0.0
 11
228.5
 21
215.2499999999923
 31
0.0
  0
LINE
  5
13013
  8
KI1
 10
61.500000000000107
 20
215.2499999999923
 30
0.0
 11
192.99999999999989
 21
215.2499999999923
 31
0.0
  0
LINE
  5
13014
  8
OS
 10
192.99999999999989
 20
215.2499999999923
 30
0.0
 11
192.99999999999989
 21
203.2499999999925
 31
0.0
  0
LINE
  5
13015
  8
OS
 10
217.99999999999989
 20
215.2499999999923
 30
0.0
 11
217.99999999999989
 21
203.2499999999923
 31
0.0
  0
LINE
  5
13016
  8
OS
 10
248.5
 20
55.249999999992269
 30
0.0
 11
41.5
 21
55.249999999992269
 31
0.0
  0
LINE
  5
13017
  8
KI1
 10
61.50000000000005
 20
165.2499999999923
 30
0.0
 11
61.500000000000057
 21
100.41050166998841
 31
0.0
  0
LINE
  5
13018
  8
KI1
 10
228.5
 20
165.2499999999923
 30
0.0
 11
228.5
 21
55.249999999992269
 31
0.0
  0
LINE
  5
13019
  8
OS
 10
248.5
 20
52.249999999992262
 30
0.0
 11
41.5
 21
52.249999999992262
 31
0.0
  0
LINE
  5
1301A
  8
OS
 10
248.5
 20
43.249999999992269
 30
0.0
 11
41.5
 21
43.249999999992269
 31
0.0
  0
LINE
  5
1301B
  8
OS
 10
248.5
 20
46.249999999992269
 30
0.0
 11
41.5
 21
46.249999999992269
 31
0.0
  0
LINE
  5
1301C
  8
OS
 10
248.5
 20
49.249999999992269
 30
0.0
 11
41.5
 21
49.249999999992269
 31
0.0
  0
LINE
  5
1301D
  8
KI1
 10
167.0417424305046
 20
56.449999999992251
 30
0.0
 11
161.10000000000019
 21
56.449999999992322
 31
0.0
  0
LINE
  5
1301E
  8
KI1
 10
160.4000000000002
 20
55.249999999992269
 30
0.0
 11
186.60000000000019
 21
55.249999999992269
 31
0.0
  0
LINE
  5
1301F
  8
KI1
 10
161.20000000000019
 20
58.849999999992292
 30
0.0
 11
160.90000000000009
 21
58.849999999992228
 31
0.0
  0
ARC
  5
13020
  8
KI1
 10
160.4000000000002
 20
55.749999999992269
 30
0.0
 40
0.5
 50
180.0
 51
270.0
1001
GENIUS_GENOBJ-N-FIL_13
1002
{
1000
OWNER
1000
GEN
1002
}
1001
GENIUS_GENODEF_13
1002
{
1000
HIER
1070
     0
1002
}
1002
{
1000
MANEDIT
1070
     0
1002
}
1002
{
1000
NOSEL
1070
     0
1002
}
1002
{
1000
BEHIND
1070
     0
1002
}
1002
{
1000
OTHER
1070
     0
1002
}
1002
{
1000
REACTOR
1002
}
  0
LINE
  5
13021
  8
KI1
 10
160.80000000000021
 20
56.749999999992269
 30
0.0
 11
160.80000000000021
 21
57.608342613218319
 31
0.0
  0
LINE
  5
13022
  8
KI1
 10
159.90000000000009
 20
57.849999999992228
 30
0.0
 11
159.9000000000002
 21
55.749999999992269
 31
0.0
  0
ARC
  5
13023
  8
KI1
 10
161.10000000000019
 20
56.749999999992269
 30
0.0
 40
0.3
 50
180.0
 51
270.0
1001
GENIUS_GENOBJ-N-FIL_13
1002
{
1000
OWNER
1000
GEN
1002
}
1001
GENIUS_GENODEF_13
1002
{
1000
HIER
1070
     0
1002
}
1002
{
1000
MANEDIT
1070
     0
1002
}
1002
{
1000
NOSEL
1070
     0
1002
}
1002
{
1000
BEHIND
1070
     0
1002
}
1002
{
1000
OTHER
1070
     0
1002
}
1002
{
1000
REACTOR
1002
}
  0
LINE
  5
13024
  8
KI1
 10
160.98935997373221
 20
58.000136913942917
 30
0.0
 11
161.386384015761
 21
58.314923419557552
 31
0.0
  0
ARC
  5
13025
  8
KI1
 10
161.30000000000021
 20
57.608342613218319
 30
0.0
 40
0.5
 50
128.40967106341299
 51
180.0
1001
GENIUS_GENODEF_13
1002
{
1000
HIER
1070
     0
1002
}
1002
{
1000
MANEDIT
1070
     0
1002
}
1002
{
1000
NOSEL
1070
     0
1002
}
1002
{
1000
BEHIND
1070
     0
1002
}
1002
{
1000
OTHER
1070
     0
1002
}
1002
{
1000
REACTOR
1002
}
1001
GENIUS_GENOBJ-N-FIL_13
1002
{
1000
OWNER
1000
GEN
1002
}
  0
ARC
  5
13026
  8
KI1
 10
161.20000000000019
 20
58.549999999992281
 30
0.0
 40
0.3
 50
308.40967106341299
 51
90.0
  0
ARC
  5
13027
  8
KI1
 10
160.90000000000009
 20
57.849999999992228
 30
0.0
 40
1.0
 50
90.000000000003254
 51
180.0
1001
GENIUS_GENOBJ-N-FIL_13
1002
{
1000
OWNER
1000
GEN
1002
}
1001
GENIUS_GENODEF_13
1002
{
1000
HIER
1070
     0
1002
}
1002
{
1000
MANEDIT
1070
     0
1002
}
1002
{
1000
NOSEL
1070
     0
1002
}
1002
{
1000
BEHIND
1070
     0
1002
}
1002
{
1000
OTHER
1070
     0
1002
}
1002
{
1000
REACTOR
1002
}
  0
ARC
  5
13028
  8
KI1
 10
185.80000000000021
 20
58.549999999992281
 30
0.0
 40
0.3
 50
90.0
 51
231.59032893658701
  0
LINE
  5
13029
  8
KI1
 10
185.9000000000002
 20
56.449999999992322
 30
0.0
 11
179.9582575694958
 21
56.449999999992251
 31
0.0
  0
ARC
  5
1302A
  8
KI1
 10
173.5000000000002
 20
56.649999999992239
 30
0.0
 40
0.5
 50
203.5781784782003
 51
336.42182152179959
  0
LINE
  5
1302B
  8
KI1
 10
173.0417424305046
 20
56.449999999992251
 30
0.0
 11
167.9582575694958
 21
56.449999999992251
 31
0.0
  0
ARC
  5
1302C
  8
KI1
 10
167.5000000000002
 20
56.649999999992239
 30
0.0
 40
0.5
 50
203.5781784782003
 51
336.42182152179959
  0
ARC
  5
1302D
  8
KI1
 10
179.5000000000002
 20
56.649999999992239
 30
0.0
 40
0.5
 50
203.5781784782003
 51
336.42182152179959
  0
LINE
  5
1302E
  8
KI1
 10
179.0417424305046
 20
56.449999999992251
 30
0.0
 11
173.9582575694958
 21
56.449999999992251
 31
0.0
  0
LINE
  5
1302F
  8
KI1
 10
185.80000000000021
 20
58.849999999992292
 30
0.0
 11
186.10000000000039
 21
58.849999999992292
 31
0.0
  0
ARC
  5
13030
  8
KI1
 10
186.60000000000019
 20
55.749999999992269
 30
0.0
 40
0.5
 50
270.0
 51
0.0
1001
GENIUS_GENOBJ-N-FIL_13
1002
{
1000
OWNER
1000
GEN
1002
}
1001
GENIUS_GENODEF_13
1002
{
1000
HIER
1070
     0
1002
}
1002
{
1000
MANEDIT
1070
     0
1002
}
1002
{
1000
NOSEL
1070
     0
1002
}
1002
{
1000
BEHIND
1070
     0
1002
}
1002
{
1000
OTHER
1070
     0
1002
}
1002
{
1000
REACTOR
1002
}
  0
LINE
  5
13031
  8
KI1
 10
186.20000000000019
 20
56.749999999992269
 30
0.0
 11
186.20000000000019
 21
57.608342613218319
 31
0.0
  0
LINE
  5
13032
  8
KI1
 10
187.10000000000031
 20
57.849999999992228
 30
0.0
 11
187.10000000000019
 21
55.749999999992269
 31
0.0
  0
ARC
  5
13033
  8
KI1
 10
185.9000000000002
 20
56.749999999992269
 30
0.0
 40
0.3
 50
270.0
 51
0.0
1001
GENIUS_GENOBJ-N-FIL_13
1002
{
1000
OWNER
1000
GEN
1002
}
1001
GENIUS_GENODEF_13
1002
{
1000
HIER
1070
     0
1002
}
1002
{
1000
MANEDIT
1070
     0
1002
}
1002
{
1000
NOSEL
1070
     0
1002
}
1002
{
1000
BEHIND
1070
     0
1002
}
1002
{
1000
OTHER
1070
     0
1002
}
1002
{
1000
REACTOR
1002
}
  0
ARC
  5
13034
  8
KI1
 10
185.7000000000003
 20
57.608342613218319
 30
0.0
 40
0.5
 50
0.0
 51
51.590328936586999
1001
GENIUS_GENODEF_13
1002
{
1000
HIER
1070
     0
1002
}
1002
{
1000
MANEDIT
1070
     0
1002
}
1002
{
1000
NOSEL
1070
     0
1002
}
1002
{
1000
BEHIND
1070
     0
1002
}
1002
{
1000
OTHER
1070
     0
1002
}
1002
{
1000
REACTOR
1002
}
1001
GENIUS_GENOBJ-N-FIL_13
1002
{
1000
OWNER
1000
GEN
1002
}
  0
LINE
  5
13035
  8
KI1
 10
186.01064002626819
 20
58.000136913942917
 30
0.0
 11
185.6136159842394
 21
58.314923419557552
 31
0.0
  0
ARC
  5
13036
  8
KI1
 10
186.10000000000031
 20
57.849999999992292
 30
0.0
 40
1.0
 50
359.99999999999682
 51
89.999999999993491
1001
GENIUS_GENOBJ-N-FIL_13
1002
{
1000
OWNER
1000
GEN
1002
}
1001
GENIUS_GENODEF_13
1002
{
1000
HIER
1070
     0
1002
}
1002
{
1000
MANEDIT
1070
     0
1002
}
1002
{
1000
NOSEL
1070
     0
1002
}
1002
{
1000
BEHIND
1070
     0
1002
}
1002
{
1000
OTHER
1070
     0
1002
}
1002
{
1000
REACTOR
1002
}
  0
LINE
  5
13037
  8
KI1
 10
61.50000000000005
 20
55.249999999992269
 30
0.0
 11
228.5
 21
55.249999999992269
 31
0.0
  0
LINE
  5
13038
  8
KI1
 10
192.29215236292251
 20
56.599650298687997
 30
0.0
 11
187.5
 21
60.049999999992217
 31
0.0
  0
LINE
  5
13039
  8
KI1
 10
191.55738820434451
 20
55.649999999992247
 30
0.0
 11
186.83516598212219
 21
59.049999999992231
 31
0.0
  0
LINE
  5
1303A
  8
KI1
 10
184.5
 20
59.049999999992231
 30
0.0
 11
162.5
 21
59.049999999992231
 31
0.0
  0
LINE
  5
1303B
  8
KI1
 10
187.5
 20
60.049999999992217
 30
0.0
 11
159.5
 21
60.049999999992217
 31
0.0
  0
ARC
  5
1303C
  8
KI1
 10
155.0
 20
56.193883127962238
 30
0.0
 40
0.5
 50
125.75388725443651
 51
180.0
1001
GENIUS_GENOBJ-N-FIL_13
1002
{
1000
OWNER
1000
GEN
1002
}
1001
GENIUS_GENODEF_13
1002
{
1000
HIER
1070
     0
1002
}
1002
{
1000
MANEDIT
1070
     0
1002
}
1002
{
1000
NOSEL
1070
     0
1002
}
1002
{
1000
BEHIND
1070
     0
1002
}
1002
{
1000
OTHER
1070
     0
1002
}
1002
{
1000
REACTOR
1002
}
  0
LINE
  5
1303D
  8
KI1
 10
155.44261179565549
 20
55.649999999992247
 30
0.0
 11
160.16483401787769
 21
59.049999999992231
 31
0.0
  0
LINE
  5
1303E
  8
KI1
 10
154.5
 20
55.649999999992247
 30
0.0
 11
155.44261179565549
 21
55.649999999992247
 31
0.0
  0
LINE
  5
1303F
  8
KI1
 10
154.5
 20
55.649999999992247
 30
0.0
 11
154.5
 21
56.193883127962238
 31
0.0
  0
LINE
  5
13040
  8
KI1
 10
154.70784763707741
 20
56.599650298687997
 30
0.0
 11
159.5
 21
60.049999999992217
 31
0.0
  0
LINE
  5
13041
  8
KI1
 10
161.59999999999999
 20
59.049999999992231
 30
0.0
 11
160.16483401787769
 21
59.049999999992231
 31
0.0
  0
LINE
  5
13042
  8
KI1
 10
161.59999999999999
 20
58.549999999992217
 30
0.0
 11
161.29674390621429
 21
58.270651218749371
 31
0.0
  0
LINE
  5
13043
  8
KI1
 10
161.23046433738321
 20
57.918278602422212
 30
0.0
 11
161.74061911651111
 21
56.874371469898847
 31
0.0
  0
ARC
  5
13044
  8
KI1
 10
161.49999999999989
 20
58.049999999992217
 30
0.0
 40
0.3
 50
132.6501740956694
 51
206.04464303945349
  0
ARC
  5
13045
  8
KI1
 10
162.09999999999999
 20
57.049999999992217
 30
0.0
 40
0.4
 50
206.04464303945349
 51
0.0
  0
LINE
  5
13046
  8
KI1
 10
162.5
 20
59.049999999992231
 30
0.0
 11
162.5
 21
57.049999999992217
 31
0.0
  0
LINE
  5
13047
  8
KI1
 10
161.59999999999999
 20
59.049999999992231
 30
0.0
 11
161.59999999999999
 21
58.549999999992217
 31
0.0
  0
ARC
  5
13048
  8
KI1
 10
185.5
 20
58.049999999992217
 30
0.0
 40
0.3
 50
333.95535696054651
 51
47.349825904330558
  0
LINE
  5
13049
  8
KI1
 10
186.83516598212219
 20
59.049999999992231
 30
0.0
 11
185.40000000000001
 21
59.049999999992231
 31
0.0
  0
LINE
  5
1304A
  8
KI1
 10
185.7695356626167
 20
57.918278602422212
 30
0.0
 11
185.25938088348889
 21
56.874371469898847
 31
0.0
  0
LINE
  5
1304B
  8
KI1
 10
185.40000000000001
 20
59.049999999992231
 30
0.0
 11
185.40000000000001
 21
58.549999999992217
 31
0.0
  0
LINE
  5
1304C
  8
KI1
 10
185.40000000000001
 20
58.549999999992217
 30
0.0
 11
185.70325609378571
 21
58.270651218749371
 31
0.0
  0
LINE
  5
1304D
  8
KI1
 10
184.5
 20
59.049999999992231
 30
0.0
 11
184.5
 21
57.049999999992217
 31
0.0
  0
ARC
  5
1304E
  8
KI1
 10
184.90000000000001
 20
57.049999999992217
 30
0.0
 40
0.4
 50
180.0
 51
333.95535696054651
  0
ARC
  5
1304F
  8
KI1
 10
192.0
 20
56.193883127962238
 30
0.0
 40
0.5
 50
0.0
 51
54.246112745563508
1001
GENIUS_GENOBJ-N-FIL_13
1002
{
1000
OWNER
1000
GEN
1002
}
1001
GENIUS_GENODEF_13
1002
{
1000
HIER
1070
     0
1002
}
1002
{
1000
MANEDIT
1070
     0
1002
}
1002
{
1000
NOSEL
1070
     0
1002
}
1002
{
1000
BEHIND
1070
     0
1002
}
1002
{
1000
OTHER
1070
     0
1002
}
1002
{
1000
REACTOR
1002
}
  0
LINE
  5
13050
  8
KI1
 10
192.5
 20
55.649999999992247
 30
0.0
 11
192.5
 21
56.193883127962238
 31
0.0
  0
LINE
  5
13051
  8
KI1
 10
192.5
 20
55.649999999992247
 30
0.0
 11
191.55738820434451
 21
55.649999999992247
 31
0.0
  0
LINE
  5
13052
  8
KI1
 10
221.00000000000011
 20
165.2499999999923
 30
0.0
 11
221.00000000000011
 21
68.250000000000568
 31
0.0
  0
LINE
  5
13053
  8
KI1
 10
188.00000000000011
 20
165.2499999999923
 30
0.0
 11
188.0000000000002
 21
68.250000000000455
 31
0.0
  0
LINE
  5
13054
  8
KI1
 10
188.0000000000002
 20
68.250000000000455
 30
0.0
 11
221.00000000000011
 21
68.250000000000455
 31
0.0
  0
LINE
  5
13055
  8
OS
 10
452.99999999999972
 20
432.25000000000028
 30
0.0
 11
311.5
 21
432.25000000000028
 31
0.0
  0
LINE
  5
13056
  8
OS
 10
452.99999999999972
 20
435.25000000000028
 30
0.0
 11
311.5
 21
435.25000000000028
 31
0.0
  0
LINE
  5
13057
  8
OS
 10
452.99999999999972
 20
438.25000000000028
 30
0.0
 11
311.5
 21
438.25000000000028
 31
0.0
  0
LINE
  5
13058
  8
OS
 10
452.99999999999972
 20
441.25000000000023
 30
0.0
 11
311.5
 21
441.25000000000028
 31
0.0
  0
LINE
  5
13059
  8
OS
 10
451.99999999999972
 20
429.25000000000028
 30
0.0
 11
311.5
 21
429.25000000000028
 31
0.0
  0
LINE
  5
1305A
  8
TS
 10
321.5
 20
429.2500000000083
 30
0.0
 11
488.49999999999989
 21
429.2500000000083
 31
0.0
  0
LINE
  5
1305C
  8
KI1
 10
321.5
 20
521.25000000000034
 30
0.0
 11
321.5
 21
441.25000000000028
 31
0.0
  0
LINE
  5
1305D
  8
TS
 10
321.5
 20
441.25000000000028
 30
0.0
 11
321.5
 21
429.2500000000083
 31
0.0
  0
LINE
  5
1305E
  8
KI1
 10
477.99999999999972
 20
429.25000000000051
 30
0.0
 11
477.99999999999972
 21
441.24999999999221
 31
0.0
  0
LINE
  5
1305F
  8
KI1
 10
452.99999999999972
 20
429.25000000000051
 30
0.0
 11
452.99999999999972
 21
441.24999999999221
 31
0.0
  0
LINE
  5
13061
  8
KI1
 10
488.49999999999989
 20
521.25000000000034
 30
0.0
 11
488.49999999999989
 21
441.25000000000028
 31
0.0
  0
LINE
  5
13062
  8
TS
 10
488.49999999999989
 20
441.25000000000028
 30
0.0
 11
488.49999999999989
 21
429.2500000000083
 31
0.0
  0
LINE
  5
13063
  8
OS
 10
508.49999999999989
 20
429.25000000000028
 30
0.0
 11
477.99999999999972
 21
429.2500000000083
 31
0.0
  0
LINE
  5
13064
  8
OS
 10
508.49999999999989
 20
438.25000000000028
 30
0.0
 11
477.99999999999972
 21
438.25000000000028
 31
0.0
  0
LINE
  5
13065
  8
OS
 10
508.49999999999989
 20
435.25000000000028
 30
0.0
 11
477.99999999999972
 21
435.25000000000023
 31
0.0
  0
LINE
  5
13066
  8
OS
 10
508.49999999999989
 20
432.25000000000028
 30
0.0
 11
477.99999999999972
 21
432.25000000000028
 31
0.0
  0
LINE
  5
13067
  8
KI1
 10
452.99999999999972
 20
429.25000000000051
 30
0.0
 11
477.99999999999972
 21
429.25000000000051
 31
0.0
  0
LINE
  5
13068
  8
OS
 10
508.49999999999989
 20
441.25000000000028
 30
0.0
 11
477.99999999999972
 21
441.25000000000028
 31
0.0
  0
LINE
  5
13069
  8
KI1
 10
571.49999999999989
 20
429.2500000000083
 30
0.0
 11
584.49999999999989
 21
429.2500000000083
 31
0.0
  0
LINE
  5
1306A
  8
KI1
 10
581.5
 20
521.25000000000034
 30
0.0
 11
581.5
 21
441.25000000000028
 31
0.0
  0
LINE
  5
1306B
  8
TS
 10
581.5
 20
441.25000000000028
 30
0.0
 11
581.5
 21
429.2500000000083
 31
0.0
  0
LINE
  5
1306C
  8
OS
 10
768.5
 20
429.25000000000028
 30
0.0
 11
571.49999999999989
 21
429.25000000000028
 31
0.0
  0
LINE
  5
1306D
  8
OS
 10
584.49999999999989
 20
441.25000000000028
 30
0.0
 11
571.49999999999989
 21
441.25000000000028
 31
0.0
  0
LINE
  5
1306E
  8
OS
 10
584.49999999999989
 20
438.25000000000028
 30
0.0
 11
571.49999999999989
 21
438.25000000000028
 31
0.0
  0
LINE
  5
1306F
  8
OS
 10
584.49999999999989
 20
435.25000000000028
 30
0.0
 11
571.49999999999989
 21
435.25000000000028
 31
0.0
  0
LINE
  5
13070
  8
OS
 10
584.49999999999989
 20
432.25000000000028
 30
0.0
 11
571.49999999999989
 21
432.25000000000028
 31
0.0
  0
LINE
  5
13071
  8
OS
 10
768.5
 20
432.25000000000028
 30
0.0
 11
745.5
 21
432.25000000000028
 31
0.0
  0
LINE
  5
13072
  8
OS
 10
768.5
 20
435.25000000000028
 30
0.0
 11
745.5
 21
435.25000000000028
 31
0.0
  0
LINE
  5
13073
  8
OS
 10
768.5
 20
438.25000000000028
 30
0.0
 11
745.5
 21
438.25000000000028
 31
0.0
  0
LINE
  5
13074
  8
OS
 10
768.5
 20
441.25000000000028
 30
0.0
 11
745.5
 21
441.25000000000028
 31
0.0
  0
LINE
  5
13075
  8
KI1
 10
748.5
 20
521.25000000000034
 30
0.0
 11
748.5
 21
441.25000000000028
 31
0.0
  0
LINE
  5
13076
  8
TS
 10
748.5
 20
441.25000000000028
 30
0.0
 11
748.5
 21
429.2500000000083
 31
0.0
  0
LINE
  5
13077
  8
KI1
 10
470.99999999999977
 20
431.25000000000051
 30
0.0
 11
470.99999999999977
 21
439.34999847412149
 31
0.0
  0
LINE
  5
13078
  8
KI1
 10
471.99999999999972
 20
439.75000000000051
 30
0.0
 11
471.99999999999972
 21
430.75000000000051
 31
0.0
  0
LINE
  5
13079
  8
KI1
 10
459.99999999999972
 20
439.34999847412149
 30
0.0
 11
459.99999999999972
 21
431.25000000000051
 31
0.0
  0
LINE
  5
1307A
  8
KI1
 10
458.99999999999977
 20
430.75000000000051
 30
0.0
 11
458.99999999999977
 21
439.75000000000051
 31
0.0
  0
LINE
  5
1307B
  8
KI1
 10
470.99999999999977
 20
429.75000000000051
 30
0.0
 11
459.99999999999972
 21
429.75000000000051
 31
0.0
  0
LINE
  5
1307C
  8
KI1
 10
465.79999923706021
 20
430.75000000000051
 30
0.0
 11
470.49999999999972
 21
430.75000000000051
 31
0.0
  0
ARC
  5
1307D
  8
KI1
 10
459.99999999999972
 20
430.75000000000051
 30
0.0
 40
1.0
 50
179.99999134857859
 51
270.000000683243
  0
ARC
  5
1307E
  8
KI1
 10
460.49999999999972
 20
431.25000000000051
 30
0.0
 40
0.5
 50
179.99999134857859
 51
270.000000683243
  0
LINE
  5
1307F
  8
KI1
 10
465.5000011379646
 20
430.45000159740488
 30
0.0
 11
465.80000036954863
 21
430.75000083446548
 31
0.0
  0
LINE
  5
13080
  8
KI1
 10
465.20000126957859
 20
430.75000143051187
 30
0.0
 11
465.5000011379646
 21
430.45000159740488
 31
0.0
  0
LINE
  5
13081
  8
KI1
 10
460.49999999999972
 20
430.75000000000051
 30
0.0
 11
465.20000076293928
 21
430.75000000000051
 31
0.0
  0
ARC
  5
13082
  8
KI1
 10
470.99999999999977
 20
430.75000000000051
 30
0.0
 40
1.0
 50
269.99999749551819
 51
0.0
  0
ARC
  5
13083
  8
KI1
 10
470.49999999999972
 20
431.25000000000051
 30
0.0
 40
0.5
 50
269.99999749551819
 51
0.0
  0
ARC
  5
13084
  8
KI1
 10
454.99999999999977
 20
440.72867965698248
 30
0.0
 40
0.2000000029802
 50
45.000001252234007
 51
180.00000500895689
  0
LINE
  5
13085
  8
KI1
 10
456.49999809265108
 20
441.34999847412138
 30
0.0
 11
454.74644212636429
 21
443.10355348673409
 31
0.0
  0
ARC
  5
13086
  8
KI1
 10
454.39288883191131
 20
442.75000000000051
 30
0.0
 40
0.5
 50
45.000015580204142
 51
90.0
1001
GENIUS_GENOBJ-N-FIL_13
1002
{
1000
OWNER
1000
GEN
1002
}
1001
GENIUS_GENODEF_13
1002
{
1000
HIER
1070
     0
1002
}
1002
{
1000
MANEDIT
1070
     0
1002
}
1002
{
1000
NOSEL
1070
     0
1002
}
1002
{
1000
BEHIND
1070
     0
1002
}
1002
{
1000
OTHER
1070
     0
1002
}
1002
{
1000
REACTOR
1002
}
  0
LINE
  5
13087
  8
KI1
 10
454.39288883191131
 20
443.25000000000051
 30
0.0
 11
449.00001300731873
 21
443.25000000000051
 31
0.0
  0
ARC
  5
13088
  8
KI1
 10
445.49999999999972
 20
441.62537918835739
 30
0.0
 40
0.5
 50
107.45439221042299
 51
180.0
1001
GENIUS_GENODEF_13
1002
{
1000
HIER
1070
     0
1002
}
1002
{
1000
MANEDIT
1070
     0
1002
}
1002
{
1000
NOSEL
1070
     0
1002
}
1002
{
1000
BEHIND
1070
     0
1002
}
1002
{
1000
OTHER
1070
     0
1002
}
1002
{
1000
REACTOR
1002
}
1001
GENIUS_GENOBJ-N-FIL_13
1002
{
1000
OWNER
1000
GEN
1002
}
  0
LINE
  5
13089
  8
KI1
 10
444.99999999999972
 20
441.62537918835739
 30
0.0
 11
444.99999999999972
 21
441.2500000000004
 31
0.0
  0
ARC
  5
1308A
  8
KI1
 10
454.3999977111817
 20
438.95000076294002
 30
0.0
 40
0.4000000059605
 50
179.99999134857859
 51
0.0000100179073766
  0
ARC
  5
1308B
  8
KI1
 10
453.70000076293979
 20
441.65000152587851
 30
0.0
 40
0.3000000119209
 50
0.0
 51
90.000002504475205
  0
LINE
  5
1308C
  8
KI1
 10
447.00001907348673
 20
441.2500000000004
 30
0.0
 11
449.00002098083468
 21
441.95000076293951
 31
0.0
  0
LINE
  5
1308D
  8
KI1
 10
449.00001907348678
 20
441.95000076293951
 30
0.0
 11
453.70000076293979
 21
441.95000076293951
 31
0.0
  0
LINE
  5
1308E
  8
KI1
 10
453.99999999999977
 20
441.65000152587851
 30
0.0
 11
453.99999999999977
 21
438.95000076294002
 31
0.0
  0
LINE
  5
1308F
  8
KI1
 10
447.00001907348673
 20
441.2500000000004
 30
0.0
 11
444.99999999999972
 21
441.2500000000004
 31
0.0
  0
LINE
  5
13090
  8
KI1
 10
445.35002673009302
 20
442.10235719446831
 30
0.0
 11
449.00001300731873
 21
443.25000000000051
 31
0.0
  0
LINE
  5
13091
  8
KI1
 10
454.79999923706072
 20
438.95000076294002
 30
0.0
 11
454.79999923706072
 21
440.72867965698248
 31
0.0
  0
ARC
  5
13092
  8
KI1
 10
459.99999999999972
 20
440.84999847412138
 30
0.0
 40
0.5
 50
0.0
 51
90.000002504475205
  0
ARC
  5
13093
  8
KI1
 10
458.70000076293923
 20
439.75000000000051
 30
0.0
 40
0.3000000119209
 50
0.0
 51
90.000002504475205
  0
LINE
  5
13094
  8
KI1
 10
458.70000076293923
 20
440.04999923706049
 30
0.0
 11
455.9615211486813
 21
440.04999923706049
 31
0.0
  0
LINE
  5
13095
  8
KI1
 10
459.99999999999972
 20
441.34999847412138
 30
0.0
 11
456.49999999999972
 21
441.34999847412138
 31
0.0
  0
LINE
  5
13096
  8
KI1
 10
459.99999999999972
 20
439.34999847412149
 30
0.0
 11
460.49999999999972
 21
439.34999847412149
 31
0.0
  0
LINE
  5
13097
  8
KI1
 10
460.49999999999972
 20
439.34999847412149
 30
0.0
 11
460.49999999999972
 21
440.84999847412138
 31
0.0
  0
LINE
  5
13098
  8
KI1
 10
455.14142322540272
 20
440.87010192871048
 30
0.0
 11
455.96152400970431
 21
440.05000114440952
 31
0.0
  0
LINE
  5
13099
  8
KI1
 10
481.99996801255861
 20
443.25000000000051
 30
0.0
 11
476.6071063997162
 21
443.25000000000051
 31
0.0
  0
LINE
  5
1309A
  8
KI1
 10
477.30000305175668
 20
441.95000076293951
 30
0.0
 11
481.99997711181572
 21
441.95000076293951
 31
0.0
  0
ARC
  5
1309B
  8
KI1
 10
476.6071063997162
 20
442.75000000000051
 30
0.0
 40
0.5
 50
90.0
 51
134.99998441981859
1001
GENIUS_GENODEF_13
1002
{
1000
HIER
1070
     0
1002
}
1002
{
1000
MANEDIT
1070
     0
1002
}
1002
{
1000
NOSEL
1070
     0
1002
}
1002
{
1000
BEHIND
1070
     0
1002
}
1002
{
1000
OTHER
1070
     0
1002
}
1002
{
1000
REACTOR
1002
}
1001
GENIUS_GENOBJ-N-FIL_13
1002
{
1000
OWNER
1000
GEN
1002
}
  0
ARC
  5
1309C
  8
KI1
 10
476.5999984741207
 20
438.95000076294002
 30
0.0
 40
0.4000000059605
 50
179.99999134857859
 51
0.0000100179073766
  0
ARC
  5
1309D
  8
KI1
 10
470.99999999999977
 20
440.84999847412138
 30
0.0
 40
0.5
 50
90.000002504475205
 51
180.00000500895689
  0
ARC
  5
1309E
  8
KI1
 10
472.30000305175753
 20
439.75000000000051
 30
0.0
 40
0.3000000119209
 50
90.000002504475205
 51
180.00000500895689
  0
ARC
  5
1309F
  8
KI1
 10
477.30000305175668
 20
441.65000152587851
 30
0.0
 40
0.3000000119209
 50
90.000002504475205
 51
180.00000500895689
  0
ARC
  5
130A0
  8
KI1
 10
475.99999999999977
 20
440.72867965698248
 30
0.0
 40
0.2000000029802
 50
0.0
 51
135.00000034162221
  0
LINE
  5
130A1
  8
KI1
 10
475.03847503662081
 20
440.04999923706049
 30
0.0
 11
472.30000305175753
 21
440.04999923706049
 31
0.0
  0
LINE
  5
130A2
  8
KI1
 10
476.99999999999972
 20
438.95000076294002
 30
0.0
 11
476.99999999999972
 21
441.65000152587851
 31
0.0
  0
LINE
  5
130A3
  8
KI1
 10
476.25355310526299
 20
443.10355348673397
 30
0.0
 11
474.49999618530239
 21
441.34999752044649
 31
0.0
  0
LINE
  5
130A4
  8
KI1
 10
474.49999999999972
 20
441.34999847412138
 30
0.0
 11
470.99999999999977
 21
441.34999847412138
 31
0.0
  0
LINE
  5
130A5
  8
KI1
 10
470.49999999999972
 20
439.34999847412149
 30
0.0
 11
470.99999999999977
 21
439.34999847412149
 31
0.0
  0
LINE
  5
130A6
  8
KI1
 10
470.49999999999972
 20
440.84999847412138
 30
0.0
 11
470.49999999999972
 21
439.34999847412149
 31
0.0
  0
LINE
  5
130A7
  8
KI1
 10
475.03847599029513
 20
440.04999923706049
 30
0.0
 11
475.85857677459683
 21
440.87010002136248
 31
0.0
  0
LINE
  5
130A8
  8
KI1
 10
476.19999694824179
 20
440.72867965698248
 30
0.0
 11
476.19999694824179
 21
438.95000076294002
 31
0.0
  0
ARC
  5
130A9
  8
KI1
 10
485.49999999999972
 20
441.62537347068383
 30
0.0
 40
0.5
 50
0.0
 51
72.545611362732629
1001
GENIUS_GENOBJ-N-FIL_13
1002
{
1000
OWNER
1000
GEN
1002
}
1001
GENIUS_GENODEF_13
1002
{
1000
HIER
1070
     0
1002
}
1002
{
1000
MANEDIT
1070
     0
1002
}
1002
{
1000
NOSEL
1070
     0
1002
}
1002
{
1000
BEHIND
1070
     0
1002
}
1002
{
1000
OTHER
1070
     0
1002
}
1002
{
1000
REACTOR
1002
}
  0
LINE
  5
130AA
  8
KI1
 10
485.99999999999972
 20
441.62537347068383
 30
0.0
 11
485.99999999999972
 21
441.2500000000004
 31
0.0
  0
LINE
  5
130AB
  8
KI1
 10
481.99997711181572
 20
441.94999885559048
 30
0.0
 11
483.99997711181572
 21
441.2499990463254
 31
0.0
  0
LINE
  5
130AC
  8
KI1
 10
485.99999999999972
 20
441.2500000000004
 30
0.0
 11
483.99997711181572
 21
441.2500000000004
 31
0.0
  0
LINE
  5
130AD
  8
KI1
 10
481.99996801255861
 20
443.25000000000051
 30
0.0
 11
485.64997324016059
 21
442.10235148614748
 31
0.0
  0
LINE
  5
130AE
  8
KI1
 10
469.69999980926491
 20
441.34999847412132
 30
0.0
 11
461.30000019073458
 21
441.34999847412132
 31
0.0
  0
LINE
  5
130AF
  8
KI1
 10
475.10000038146939
 20
442.64999847412128
 30
0.0
 11
455.89999961852999
 21
442.64999847412128
 31
0.0
  0
ARC
  5
130B0
  8
KI1
 10
461.20737504959078
 20
436.34999848008181
 30
0.0
 40
0.4000000059605
 50
195.00000565373881
 51
15.00000041741394
  0
LINE
  5
130B1
  8
KI1
 10
456.6999999999997
 20
441.34999847412132
 30
0.0
 11
455.75730825457509
 21
442.30985902290342
 31
0.0
  0
ARC
  5
130B2
  8
KI1
 10
455.89999999999969
 20
442.44999847412129
 30
0.0
 40
0.2
 50
90.0
 51
224.4829717565718
  0
LINE
  5
130B3
  8
KI1
 10
460.49999999999972
 20
441.34999847412132
 30
0.0
 11
456.6999999999997
 21
441.34999847412132
 31
0.0
  0
ARC
  5
130B4
  8
KI1
 10
460.49999999999972
 20
438.60358834862728
 30
0.0
 40
0.3000000119209
 50
120.0000033393024
 51
195.00000201127381
  0
LINE
  5
130B5
  8
KI1
 10
461.29999971389748
 20
437.5497992098334
 30
0.0
 11
461.59374547004683
 21
436.45352602601082
 31
0.0
  0
LINE
  5
130B6
  8
KI1
 10
460.82100486755348
 20
436.2464709341528
 30
0.0
 11
460.21022224426241
 21
438.52594256997128
 31
0.0
  0
LINE
  5
130B7
  8
KI1
 10
461.30000019073458
 20
437.5497992098334
 30
0.0
 11
461.30000019073458
 21
441.34999847412132
 31
0.0
  0
LINE
  5
130B8
  8
KI1
 10
460.35000038146939
 20
438.86339593529732
 30
0.0
 11
460.49999999999972
 21
438.94999838471438
 31
0.0
  0
LINE
  5
130B9
  8
KI1
 10
460.49999999999972
 20
441.34999847412132
 30
0.0
 11
460.49999999999972
 21
438.94999838471438
 31
0.0
  0
ARC
  5
130BA
  8
KI1
 10
469.79262495040871
 20
436.34999848008181
 30
0.0
 40
0.4000000059605
 50
164.9999943462611
 51
345.00001301559303
  0
LINE
  5
130BB
  8
KI1
 10
474.29999999999973
 20
441.34999847412132
 30
0.0
 11
475.24269174542439
 21
442.30985902290342
 31
0.0
  0
ARC
  5
130BC
  8
KI1
 10
475.09999999999968
 20
442.44999847412129
 30
0.0
 40
0.2
 50
315.51702824342362
 51
90.0
  0
LINE
  5
130BD
  8
KI1
 10
474.29999999999973
 20
441.34999847412132
 30
0.0
 11
470.49999999999972
 21
441.34999847412132
 31
0.0
  0
ARC
  5
130BE
  8
KI1
 10
470.49999999999972
 20
438.60358834862728
 30
0.0
 40
0.3000000119209
 50
344.99999958258599
 51
60.000001669652299
  0
LINE
  5
130BF
  8
KI1
 10
469.40625452995272
 20
436.45352602601082
 30
0.0
 11
469.70000028610201
 21
437.5497992098334
 31
0.0
  0
LINE
  5
130C0
  8
KI1
 10
470.78977775573702
 20
438.52594256997128
 30
0.0
 11
470.178995132446
 21
436.2464709341528
 31
0.0
  0
LINE
  5
130C1
  8
KI1
 10
469.69999980926491
 20
441.34999847412132
 30
0.0
 11
469.69999980926491
 21
437.5497992098334
 31
0.0
  0
LINE
  5
130C2
  8
KI1
 10
470.49999999999972
 20
438.94999838471438
 30
0.0
 11
470.64999961852999
 21
438.86339593529732
 31
0.0
  0
LINE
  5
130C3
  8
KI1
 10
470.49999999999972
 20
438.94999838471438
 30
0.0
 11
470.49999999999972
 21
441.34999847412132
 31
0.0
  0
LINE
  5
130C4
  8
KI1
 10
741.0
 20
521.25000000000034
 30
0.0
 11
741.0
 21
451.25000000000841
 31
0.0
  0
LINE
  5
130C5
  8
KI1
 10
708.0
 20
521.25000000000034
 30
0.0
 11
708.0
 21
451.25000000000853
 31
0.0
  0
LINE
  5
130C6
  8
KI1
 10
708.0
 20
451.25000000000853
 30
0.0
 11
741.0
 21
451.25000000000841
 31
0.0
  0
LINE
  5
130C7
  8
KI1
 10
480.99999999999977
 20
521.25000000000034
 30
0.0
 11
480.99999999999977
 21
451.25000000000841
 31
0.0
  0
LINE
  5
130C8
  8
KI1
 10
447.99999999999989
 20
521.25000000000034
 30
0.0
 11
448.0
 21
451.25000000000853
 31
0.0
  0
LINE
  5
130C9
  8
KI1
 10
448.0
 20
451.25000000000853
 30
0.0
 11
480.99999999999977
 21
451.25000000000841
 31
0.0
  0
LINE
  5
130CA
  8
TS
 10
748.5
 20
429.2500000000083
 30
0.0
 11
599.5
 21
429.2500000000083
 31
0.0
  0
LINE
  5
130CB
  8
OS
 10
452.99999999999972
 20
441.24999999999221
 30
0.0
 11
452.99999999999972
 21
429.25000000000028
 31
0.0
  0
LINE
  5
130CC
  8
OS
 10
477.99999999999972
 20
441.24999999999221
 30
0.0
 11
477.99999999999972
 21
429.2500000000083
 31
0.0
  0
LINE
  5
130CD
  8
OS
 10
584.49999999999989
 20
441.25000000000028
 30
0.0
 11
584.49999999999989
 21
429.2500000000083
 31
0.0
  0
LINE
  5
130CE
  8
OS
 10
745.5
 20
441.25000000000028
 30
0.0
 11
745.5
 21
429.25000000000028
 31
0.0
  0
TEXT
  5
130CF
  8
MJ
 10
41.5
 20
546.25000000000034
 30
0.0
 40
7.0
  1
ジャストカット枠
 41
0.8299999999999999
  0
LINE
  5
130D0
  8
SU
 10
60.5
 20
445.24999999999221
 30
0.0
 11
38.500000000000007
 21
445.24999999999221
 31
0.0
  0
LINE
  5
130D1
  8
SU
 10
63.5
 20
421.24999999999233
 30
0.0
 11
38.5
 21
421.24999999999233
 31
0.0
  0
LINE
  5
130D2
  8
SU
 10
41.500000000000007
 20
445.24999999999221
 30
0.0
 11
41.5
 21
421.24999999999233
 31
0.0
  0
ARC
  5
130D3
  8
SU
 10
41.500000000000007
 20
445.24999999999221
 30
0.0
 40
0.6
 50
270.0
 51
90.0
  0
ARC
  5
130D4
  8
SU
 10
41.500000000000007
 20
445.24999999999221
 30
0.0
 40
0.6
 50
90.0
 51
270.0
  0
ARC
  5
130D5
  8
SU
 10
41.5
 20
421.24999999999233
 30
0.0
 40
0.6
 50
90.0
 51
270.0
  0
ARC
  5
130D6
  8
SU
 10
41.5
 20
421.24999999999233
 30
0.0
 40
0.6
 50
270.0
 51
90.0
  0
TEXT
  5
130D7
  8
SU
 10
40.199999999999932
 20
427.57833333332559
 30
0.0
 40
7.0
  1
24
 50
90.0
 41
0.8299999999999999
  0
LINE
  5
130D8
  8
SU
 10
166.0
 20
409.24999999999221
 30
0.0
 11
38.49999999999995
 21
409.24999999999221
 31
0.0
  0
LINE
  5
130D9
  8
SU
 10
41.499999999999943
 20
421.24999999999233
 30
0.0
 11
41.499999999999943
 21
409.24999999999221
 31
0.0
  0
LINE
  5
130DA
  8
SU
 10
41.499999999999943
 20
409.24999999999221
 30
0.0
 11
41.499999999999943
 21
393.80721897931022
 31
0.0
  0
ARC
  5
130DB
  8
SU
 10
41.499999999999943
 20
409.24999999999221
 30
0.0
 40
0.6
 50
90.0
 51
270.0
  0
ARC
  5
130DC
  8
SU
 10
41.499999999999943
 20
409.24999999999221
 30
0.0
 40
0.6
 50
270.0
 51
90.0
  0
TEXT
  5
130DD
  8
SU
 10
40.199999999999868
 20
395.1934902261998
 30
0.0
 40
7.0
  1
12
 50
90.0
 41
0.8299999999999999
  0
LINE
  5
130DE
  8
SU
 10
229.5
 20
445.24999999999221
 30
0.0
 11
301.50000000000011
 21
445.24999999999221
 31
0.0
  0
LINE
  5
130DF
  8
SU
 10
249.5
 20
215.2499999999923
 30
0.0
 11
301.5
 21
215.2499999999923
 31
0.0
  0
LINE
  5
130E0
  8
SU
 10
298.50000000000011
 20
445.24999999999221
 30
0.0
 11
298.5
 21
215.2499999999923
 31
0.0
  0
TEXT
  5
130E1
  8
SU
 10
297.19999999999987
 20
325.90238095237328
 30
0.0
 40
10.0
  1
H
 50
90.0
 41
0.8299999999999999
  0
LINE
  5
130E2
  8
SU
 10
304.49999620000011
 20
435.2499999999921
 30
0.0
 11
292.5
 21
435.2499999999921
 31
0.0
  0
LINE
  5
130E3
  8
SU
 10
304.37999630000002
 20
435.44999979999221
 30
0.0
 11
292.6199999000001
 21
435.44999979999221
 31
0.0
  0
LINE
  5
130E4
  8
SU
 10
304.25999639999998
 20
435.6499995999921
 30
0.0
 11
292.73999980000002
 21
435.6499995999921
 31
0.0
  0
LINE
  5
130E5
  8
SU
 10
304.1399965
 20
435.84999939999221
 30
0.0
 11
292.8599997
 21
435.84999939999221
 31
0.0
  0
LINE
  5
130E6
  8
SU
 10
304.01999660000001
 20
436.04999919999221
 30
0.0
 11
292.97999950000002
 21
436.04999919999221
 31
0.0
  0
LINE
  5
130E7
  8
SU
 10
303.89999680000011
 20
436.24999899999221
 30
0.0
 11
293.0999994
 21
436.24999899999221
 31
0.0
  0
LINE
  5
130E8
  8
SU
 10
303.77999690000001
 20
436.44999889999218
 30
0.0
 11
293.2199993000001
 21
436.44999889999218
 31
0.0
  0
LINE
  5
130E9
  8
SU
 10
303.65999790000001
 20
436.64999869999212
 30
0.0
 11
293.33999920000002
 21
436.64999869999218
 31
0.0
  0
LINE
  5
130EA
  8
SU
 10
303.5399981000001
 20
436.84999849999213
 30
0.0
 11
293.4599991
 21
436.84999849999218
 31
0.0
  0
LINE
  5
130EB
  8
SU
 10
303.41999820000001
 20
437.04999829999218
 30
0.0
 11
293.5799990000001
 21
437.04999829999218
 31
0.0
  0
LINE
  5
130EC
  8
SU
 10
303.29999830000003
 20
437.24999809999218
 30
0.0
 11
293.69999890000003
 21
437.24999809999218
 31
0.0
  0
LINE
  5
130ED
  8
SU
 10
303.17999839999999
 20
437.44999789999218
 30
0.0
 11
293.81999869999999
 21
437.44999789999218
 31
0.0
  0
LINE
  5
130EE
  8
SU
 10
303.05999850000001
 20
437.64999769999213
 30
0.0
 11
293.93999860000002
 21
437.64999769999218
 31
0.0
  0
LINE
  5
130EF
  8
SU
 10
302.93999860000002
 20
437.84999749999218
 30
0.0
 11
294.05999850000001
 21
437.84999749999218
 31
0.0
  0
LINE
  5
130F0
  8
SU
 10
302.69999890000003
 20
438.24999709999219
 30
0.0
 11
294.29999829999991
 21
438.24999709999219
 31
0.0
  0
LINE
  5
130F1
  8
SU
 10
302.8199987000001
 20
438.04999729999213
 30
0.0
 11
294.1799984000001
 21
438.04999729999219
 31
0.0
  0
LINE
  5
130F2
  8
SU
 10
301.97999950000002
 20
439.4499959999921
 30
0.0
 11
295.01999760000001
 21
439.4499959999921
 31
0.0
  0
LINE
  5
130F3
  8
SU
 10
301.86000059999998
 20
439.64999579999221
 30
0.0
 11
295.13999750000011
 21
439.64999579999221
 31
0.0
  0
LINE
  5
130F4
  8
SU
 10
301.7400007
 20
439.84999559999221
 30
0.0
 11
295.25999739999997
 21
439.84999559999221
 31
0.0
  0
LINE
  5
130F5
  8
SU
 10
301.62000080000001
 20
440.04999539999221
 30
0.0
 11
295.37999730000001
 21
440.04999539999221
 31
0.0
  0
LINE
  5
130F6
  8
SU
 10
301.500001
 20
440.24999519999221
 30
0.0
 11
295.49999709999997
 21
440.24999519999221
 31
0.0
  0
LINE
  5
130F7
  8
SU
 10
301.38000110000002
 20
440.44999499999221
 30
0.0
 11
295.61999700000001
 21
440.44999499999221
 31
0.0
  0
LINE
  5
130F8
  8
SU
 10
301.26000119999998
 20
440.64999489999212
 30
0.0
 11
295.73999689999999
 21
440.64999489999218
 31
0.0
  0
LINE
  5
130F9
  8
SU
 10
301.14000129999999
 20
440.84999469999212
 30
0.0
 11
295.85999679999998
 21
440.84999469999218
 31
0.0
  0
LINE
  5
130FA
  8
SU
 10
301.02000140000001
 20
441.04999449999212
 30
0.0
 11
295.97999670000002
 21
441.04999449999218
 31
0.0
  0
LINE
  5
130FB
  8
SU
 10
300.90000149999997
 20
441.24999429999218
 30
0.0
 11
296.09999660000011
 21
441.24999429999218
 31
0.0
  0
LINE
  5
130FC
  8
SU
 10
300.78000159999999
 20
441.44999409999213
 30
0.0
 11
296.21999649999998
 21
441.44999409999218
 31
0.0
  0
LINE
  5
130FD
  8
SU
 10
300.66000270000001
 20
441.64999389999218
 30
0.0
 11
296.3399963
 21
441.64999389999218
 31
0.0
  0
LINE
  5
130FE
  8
SU
 10
300.54000280000002
 20
441.84999369999213
 30
0.0
 11
296.45999619999998
 21
441.84999369999218
 31
0.0
  0
LINE
  5
130FF
  8
SU
 10
300.42000289999999
 20
442.04999349999218
 30
0.0
 11
296.57999610000002
 21
442.04999349999218
 31
0.0
  0
LINE
  5
13100
  8
SU
 10
300.30000310000003
 20
442.24999329999213
 30
0.0
 11
296.69999600000011
 21
442.24999329999218
 31
0.0
  0
LINE
  5
13101
  8
SU
 10
300.18000319999999
 20
442.44999309999213
 30
0.0
 11
296.81999589999998
 21
442.44999309999218
 31
0.0
  0
LINE
  5
13102
  8
SU
 10
300.06000329999989
 20
442.64999289999218
 30
0.0
 11
296.93999580000002
 21
442.64999289999218
 31
0.0
  0
LINE
  5
13103
  8
SU
 10
299.94000340000002
 20
442.84999279999209
 30
0.0
 11
297.0599957
 21
442.84999279999209
 31
0.0
  0
LINE
  5
13104
  8
SU
 10
299.70000359999989
 20
443.2499923999921
 30
0.0
 11
297.2999954
 21
443.2499923999921
 31
0.0
  0
LINE
  5
13105
  8
SU
 10
299.82000349999998
 20
443.04999259999221
 30
0.0
 11
297.17999550000002
 21
443.04999259999221
 31
0.0
  0
LINE
  5
13106
  8
SU
 10
299.58000370000002
 20
443.44999219999221
 30
0.0
 11
297.41999529999998
 21
443.44999219999221
 31
0.0
  0
LINE
  5
13107
  8
SU
 10
299.46000385000002
 20
443.6499919999921
 30
0.0
 11
297.53999519000001
 21
443.6499919999921
 31
0.0
  0
LINE
  5
13108
  8
SU
 10
299.34000397
 20
443.84999179999221
 30
0.0
 11
297.65999507999999
 21
443.84999179999221
 31
0.0
  0
LINE
  5
13109
  8
SU
 10
299.2200050400001
 20
444.04999159999221
 30
0.0
 11
297.7799949599999
 21
444.04999159999221
 31
0.0
  0
LINE
  5
1310A
  8
SU
 10
299.10000515000002
 20
444.24999139999221
 30
0.0
 11
297.89999484999998
 21
444.24999139999221
 31
0.0
  0
LINE
  5
1310B
  8
SU
 10
298.86000252000002
 20
444.64999103999207
 30
0.0
 11
298.13999461999998
 21
444.64999103999219
 31
0.0
  0
LINE
  5
1310C
  8
SU
 10
298.98000525999998
 20
444.44999122999218
 30
0.0
 11
298.01999474000002
 21
444.44999122999218
 31
0.0
  0
LINE
  5
1310D
  8
SU
 10
298.74000262999999
 20
444.84999083999219
 30
0.0
 11
298.25999451000001
 21
444.84999083999219
 31
0.0
  0
LINE
  5
1310E
  8
SU
 10
298.5000020224893
 20
445.25000418096562
 30
0.0
 11
292.50000010000002
 21
435.25000039999219
 31
0.0
  0
LINE
  5
1310F
  8
SU
 10
298.62000751000011
 20
445.0499877899922
 30
0.0
 11
298.37999248999989
 21
445.0499877899922
 31
0.0
  0
LINE
  5
13110
  8
SU
 10
298.49999993819199
 20
445.25000018014299
 30
0.0
 11
304.4999957
 21
435.25000009999212
 31
0.0
  0
LINE
  5
13111
  8
SU
 10
302.1000004
 20
439.24999619999221
 30
0.0
 11
294.89999769999997
 21
439.24999619999221
 31
0.0
  0
LINE
  5
13112
  8
SU
 10
302.22000029999998
 20
439.0499963999921
 30
0.0
 11
294.77999779999999
 21
439.0499963999921
 31
0.0
  0
LINE
  5
13113
  8
SU
 10
302.33999920000002
 20
438.84999659999221
 30
0.0
 11
294.65999790000001
 21
438.84999659999221
 31
0.0
  0
LINE
  5
13114
  8
SU
 10
302.4599991
 20
438.64999679999221
 30
0.0
 11
294.53999809999999
 21
438.64999679999221
 31
0.0
  0
LINE
  5
13115
  8
SU
 10
302.57999899999999
 20
438.44999689999219
 30
0.0
 11
294.41999820000001
 21
438.44999689999219
 31
0.0
  0
LINE
  5
13116
  8
SU
 10
222.0
 20
225.2500000000006
 30
0.0
 11
286.49999999999989
 21
225.2500000000006
 31
0.0
  0
LINE
  5
13117
  8
SU
 10
222.0
 20
418.24999999999221
 30
0.0
 11
286.5
 21
418.24999999999221
 31
0.0
  0
LINE
  5
13118
  8
SU
 10
283.50000000000011
 20
225.2500000000006
 30
0.0
 11
283.5
 21
418.24999999999221
 31
0.0
  0
ARC
  5
13119
  8
SU
 10
283.49999999999989
 20
225.2500000000006
 30
0.0
 40
0.6
 50
90.0
 51
270.0
  0
ARC
  5
1311A
  8
SU
 10
283.49999999999989
 20
225.2500000000006
 30
0.0
 40
0.6
 50
270.0
 51
90.0
  0
ARC
  5
1311B
  8
SU
 10
283.5
 20
418.24999999999221
 30
0.0
 40
0.6
 50
270.0
 51
90.0
  0
ARC
  5
1311C
  8
SU
 10
283.5
 20
418.24999999999221
 30
0.0
 40
0.6
 50
90.0
 51
270.0
  0
TEXT
  5
1311D
  8
SU
 10
282.19999999999987
 20
283.60366666666312
 30
0.0
 40
7.0
  1
ドアH（DH）=H-37
 50
90.0
 41
0.8299999999999999
  0
LINE
  5
1311E
  8
SU
 10
226.5
 20
421.24999999999233
 30
0.0
 11
286.50000000000011
 21
421.24999999999233
 31
0.0
  0
LINE
  5
1311F
  8
SU
 10
283.50000000000023
 20
418.24999999999221
 30
0.0
 11
283.50000000000023
 21
421.24999999999233
 31
0.0
  0
LINE
  5
13120
  8
SU
 10
283.50000000000023
 20
419.74999999999221
 30
0.0
 11
268.5
 21
427.11025403783663
 31
0.0
  0
LINE
  5
13121
  8
SU
 10
268.5
 20
427.11025403783663
 30
0.0
 11
268.5
 21
433.58358737116993
 31
0.0
  0
TEXT
  5
13122
  8
SU
 10
267.19999999999999
 20
427.58025403783671
 30
0.0
 40
7.0
  1
3
 50
90.0
 41
0.8299999999999999
  0
ARC
  5
13123
  8
SU
 10
283.50000000000023
 20
421.24999999999233
 30
0.0
 40
0.6
 50
270.0
 51
90.0
  0
ARC
  5
13124
  8
SU
 10
283.50000000000023
 20
421.24999999999233
 30
0.0
 40
0.6
 50
90.0
 51
270.0
  0
LINE
  5
13125
  8
SU
 10
283.5
 20
421.24999999999233
 30
0.0
 11
283.5
 21
445.24999999999221
 31
0.0
  0
ARC
  5
13126
  8
SU
 10
283.5
 20
445.24999999999221
 30
0.0
 40
0.6
 50
270.0
 51
90.0
  0
ARC
  5
13127
  8
SU
 10
283.5
 20
445.24999999999221
 30
0.0
 40
0.6
 50
90.0
 51
270.0
  0
TEXT
  5
13128
  8
SU
 10
282.19999999999987
 20
427.5783333333257
 30
0.0
 40
7.0
  1
24
 50
90.0
 41
0.8299999999999999
  0
LINE
  5
13129
  8
SU
 10
222.9999680125587
 20
217.24999999999241
 30
0.0
 11
286.50000000000011
 21
217.24999999999241
 31
0.0
  0
LINE
  5
1312A
  8
SU
 10
283.50000000000011
 20
225.2500000000006
 30
0.0
 11
283.50000000000011
 21
217.24999999999241
 31
0.0
  0
ARC
  5
1312B
  8
SU
 10
283.50000000000011
 20
217.24999999999241
 30
0.0
 40
0.6
 50
90.0
 51
270.0
  0
ARC
  5
1312C
  8
SU
 10
283.50000000000011
 20
217.24999999999241
 30
0.0
 40
0.6
 50
270.0
 51
90.0
  0
LINE
  5
1312D
  8
SU
 10
283.5
 20
215.2499999999923
 30
0.0
 11
283.5
 21
204.82610361706449
 31
0.0
  0
LINE
  5
1312E
  8
SU
 10
283.5
 20
217.24999999999241
 30
0.0
 11
283.5
 21
215.2499999999923
 31
0.0
  0
ARC
  5
1312F
  8
SU
 10
283.5
 20
215.2499999999923
 30
0.0
 40
0.6
 50
270.0
 51
90.0
  0
ARC
  5
13130
  8
SU
 10
283.5
 20
215.2499999999923
 30
0.0
 40
0.6
 50
90.0
 51
270.0
  0
TEXT
  5
13131
  8
SU
 10
282.19999999999999
 20
205.2961036170644
 30
0.0
 40
7.0
  1
2
 50
90.0
 41
0.8299999999999999
  0
LINE
  5
13132
  8
SU
 10
192.99999999999989
 20
202.2499999999923
 30
0.0
 11
192.99999999999989
 21
180.24999999999221
 31
0.0
  0
LINE
  5
13133
  8
SU
 10
217.99999999999989
 20
202.2499999999923
 30
0.0
 11
217.99999999999989
 21
180.24999999999221
 31
0.0
  0
LINE
  5
13134
  8
SU
 10
192.99999999999989
 20
183.2499999999923
 30
0.0
 11
217.99999999999989
 21
183.2499999999923
 31
0.0
  0
ARC
  5
13135
  8
SU
 10
192.99999999999989
 20
183.2499999999923
 30
0.0
 40
0.6
 50
0.0
 51
180.0
  0
ARC
  5
13136
  8
SU
 10
192.99999999999989
 20
183.2499999999923
 30
0.0
 40
0.6
 50
180.0
 51
0.0
  0
ARC
  5
13137
  8
SU
 10
217.99999999999989
 20
183.2499999999923
 30
0.0
 40
0.6
 50
180.0
 51
0.0
  0
ARC
  5
13138
  8
SU
 10
217.99999999999989
 20
183.2499999999923
 30
0.0
 40
0.6
 50
0.0
 51
180.0
  0
TEXT
  5
13139
  8
SU
 10
199.9666666666665
 20
184.54999999999231
 30
0.0
 40
7.0
  1
25
 41
0.8299999999999999
  0
LINE
  5
1313A
  8
SU
 10
228.5
 20
214.2499999999923
 30
0.0
 11
228.5
 21
180.24999999999241
 31
0.0
  0
LINE
  5
1313B
  8
SU
 10
217.99999999999989
 20
183.2499999999923
 30
0.0
 11
228.5
 21
183.24999999999241
 31
0.0
  0
LINE
  5
1313C
  8
SU
 10
228.5
 20
183.24999999999241
 30
0.0
 11
252.7766666666667
 21
183.24999999999241
 31
0.0
  0
ARC
  5
1313D
  8
SU
 10
228.5
 20
183.24999999999241
 30
0.0
 40
0.6
 50
180.0
 51
0.0
  0
ARC
  5
1313E
  8
SU
 10
228.5
 20
183.24999999999241
 30
0.0
 40
0.6
 50
0.0
 51
180.0
  0
TEXT
  5
1313F
  8
SU
 10
232.94
 20
184.54999999999239
 30
0.0
 40
7.0
  1
10.5
 41
0.8299999999999999
  0
LINE
  5
13140
  8
SU
 10
185.0
 20
216.99230043587971
 30
0.0
 11
185.0
 21
251.25000000000051
 31
0.0
  0
LINE
  5
13141
  8
SU
 10
225.9999999999998
 20
216.9922947421928
 30
0.0
 11
225.9999999999998
 21
251.25000000000051
 31
0.0
  0
LINE
  5
13142
  8
SU
 10
185.0
 20
248.25000000000051
 30
0.0
 11
225.9999999999998
 21
248.25000000000051
 31
0.0
  0
ARC
  5
13143
  8
SU
 10
185.0
 20
248.25000000000051
 30
0.0
 40
0.6
 50
0.0
 51
180.0
  0
ARC
  5
13144
  8
SU
 10
185.0
 20
248.25000000000051
 30
0.0
 40
0.6
 50
180.0
 51
0.0
  0
ARC
  5
13145
  8
SU
 10
225.9999999999998
 20
248.25000000000051
 30
0.0
 40
0.6
 50
180.0
 51
0.0
  0
ARC
  5
13146
  8
SU
 10
225.9999999999998
 20
248.25000000000051
 30
0.0
 40
0.6
 50
0.0
 51
180.0
  0
TEXT
  5
13147
  8
SU
 10
200.7966666666666
 20
249.55000000000049
 30
0.0
 40
7.0
  1
41
 41
0.8299999999999999
  0
LINE
  5
13148
  8
SU
 10
228.5
 20
216.2499999999923
 30
0.0
 11
228.5
 21
251.25000000000051
 31
0.0
  0
LINE
  5
13149
  8
SU
 10
225.9999999999998
 20
248.25000000000051
 30
0.0
 11
228.5
 21
248.25000000000051
 31
0.0
  0
LINE
  5
1314A
  8
SU
 10
228.5
 20
248.25000000000051
 30
0.0
 11
248.07333333333341
 21
248.25000000000051
 31
0.0
  0
ARC
  5
1314B
  8
SU
 10
228.5
 20
248.25000000000051
 30
0.0
 40
0.6
 50
180.0
 51
0.0
  0
ARC
  5
1314C
  8
SU
 10
228.5
 20
248.25000000000051
 30
0.0
 40
0.6
 50
0.0
 51
180.0
  0
TEXT
  5
1314D
  8
SU
 10
233.77000000000001
 20
249.55000000000049
 30
0.0
 40
7.0
  1
2.5
 41
0.8299999999999999
  0
LINE
  5
1314E
  8
SU
 10
249.5
 20
55.249999999992269
 30
0.0
 11
301.5
 21
55.249999999992269
 31
0.0
  0
LINE
  5
1314F
  8
SU
 10
298.49999999999989
 20
55.249999999992269
 30
0.0
 11
298.5
 21
165.2499999999923
 31
0.0
  0
TEXT
  5
13150
  8
SU
 10
297.19999999999987
 20
105.90238095237321
 30
0.0
 40
10.0
  1
H
 50
90.0
 41
0.8299999999999999
  0
LINE
  5
13151
  8
SU
 10
222.00000000000011
 20
68.250000000000455
 30
0.0
 11
286.49999999999989
 21
68.250000000000441
 31
0.0
  0
LINE
  5
13152
  8
SU
 10
283.49999999999989
 20
68.250000000000441
 30
0.0
 11
283.5
 21
165.2499999999923
 31
0.0
  0
ARC
  5
13153
  8
SU
 10
283.49999999999989
 20
68.250000000000441
 30
0.0
 40
0.6
 50
90.0
 51
270.0
  0
ARC
  5
13154
  8
SU
 10
283.49999999999989
 20
68.250000000000441
 30
0.0
 40
0.6
 50
270.0
 51
90.0
  0
TEXT
  5
13155
  8
SU
 10
282.19999999999987
 20
79.976333333329734
 30
0.0
 40
7.0
  1
ドアH（DH）=H-40
 50
90.0
 41
0.8299999999999999
  0
LINE
  5
13156
  8
SU
 10
188.5
 20
60.049999999992217
 30
0.0
 11
286.49999999999989
 21
60.049999999992203
 31
0.0
  0
LINE
  5
13157
  8
SU
 10
283.49999999999989
 20
68.250000000000441
 30
0.0
 11
283.49999999999989
 21
60.049999999992203
 31
0.0
  0
LINE
  5
13158
  8
SU
 10
283.49999999999989
 20
64.149999999996325
 30
0.0
 11
268.5
 21
71.510254037840525
 31
0.0
  0
LINE
  5
13159
  8
SU
 10
268.5
 20
71.510254037840525
 30
0.0
 11
268.5
 21
85.066254037840523
 31
0.0
  0
TEXT
  5
1315A
  8
SU
 10
267.19999999999999
 20
69.324254037840561
 30
0.0
 40
7.0
  1
（8）
 50
90.0
 41
0.8299999999999999
  0
ARC
  5
1315B
  8
SU
 10
283.49999999999989
 20
60.049999999992203
 30
0.0
 40
0.6
 50
90.0
 51
270.0
  0
ARC
  5
1315C
  8
SU
 10
283.49999999999989
 20
60.049999999992203
 30
0.0
 40
0.6
 50
270.0
 51
90.0
  0
LINE
  5
1315D
  8
SU
 10
283.49999999999977
 20
60.049999999992203
 30
0.0
 11
283.49999999999977
 21
55.249999999992269
 31
0.0
  0
LINE
  5
1315E
  8
SU
 10
283.49999999999977
 20
55.249999999992269
 30
0.0
 11
283.49999999999977
 21
36.893999999992282
 31
0.0
  0
ARC
  5
1315F
  8
SU
 10
283.49999999999977
 20
55.249999999992269
 30
0.0
 40
0.6
 50
90.0
 51
270.0
  0
ARC
  5
13160
  8
SU
 10
283.49999999999977
 20
55.249999999992269
 30
0.0
 40
0.6
 50
270.0
 51
90.0
  0
TEXT
  5
13161
  8
SU
 10
282.19999999999982
 20
34.707999999992317
 30
0.0
 40
7.0
  1
（5）
 50
90.0
 41
0.8299999999999999
  0
LINE
  5
13162
  8
SU
 10
304.49999620000011
 20
65.249999999992269
 30
0.0
 11
292.5
 21
65.249999999992269
 31
0.0
  0
LINE
  5
13163
  8
SU
 10
304.37999630000002
 20
65.050000199992269
 30
0.0
 11
292.6199999000001
 21
65.050000199992269
 31
0.0
  0
LINE
  5
13164
  8
SU
 10
304.25999639999998
 20
64.850000399992268
 30
0.0
 11
292.73999980000002
 21
64.850000399992268
 31
0.0
  0
LINE
  5
13165
  8
SU
 10
304.1399965
 20
64.650000599992254
 30
0.0
 11
292.8599997
 21
64.650000599992254
 31
0.0
  0
LINE
  5
13166
  8
SU
 10
304.01999660000001
 20
64.450000799992267
 30
0.0
 11
292.97999950000002
 21
64.450000799992267
 31
0.0
  0
LINE
  5
13167
  8
SU
 10
303.89999680000011
 20
64.250000999992267
 30
0.0
 11
293.0999994
 21
64.250000999992267
 31
0.0
  0
LINE
  5
13168
  8
SU
 10
303.77999690000001
 20
64.050001099992272
 30
0.0
 11
293.2199993000001
 21
64.050001099992272
 31
0.0
  0
LINE
  5
13169
  8
SU
 10
303.65999790000001
 20
63.850001299992272
 30
0.0
 11
293.33999920000002
 21
63.850001299992272
 31
0.0
  0
LINE
  5
1316A
  8
SU
 10
303.5399981000001
 20
63.650001499992271
 30
0.0
 11
293.4599991
 21
63.650001499992271
 31
0.0
  0
LINE
  5
1316B
  8
SU
 10
303.41999820000001
 20
63.450001699992271
 30
0.0
 11
293.5799990000001
 21
63.450001699992271
 31
0.0
  0
LINE
  5
1316C
  8
SU
 10
303.29999830000003
 20
63.25000189999227
 30
0.0
 11
293.69999890000003
 21
63.25000189999227
 31
0.0
  0
LINE
  5
1316D
  8
SU
 10
303.17999839999999
 20
63.05000209999227
 30
0.0
 11
293.81999869999999
 21
63.05000209999227
 31
0.0
  0
LINE
  5
1316E
  8
SU
 10
303.05999850000001
 20
62.850002299992262
 30
0.0
 11
293.93999860000002
 21
62.850002299992262
 31
0.0
  0
LINE
  5
1316F
  8
SU
 10
302.93999860000002
 20
62.650002499992269
 30
0.0
 11
294.05999850000001
 21
62.650002499992269
 31
0.0
  0
LINE
  5
13170
  8
SU
 10
302.69999890000003
 20
62.250002899992261
 30
0.0
 11
294.29999829999991
 21
62.250002899992261
 31
0.0
  0
LINE
  5
13171
  8
SU
 10
302.8199987000001
 20
62.450002699992268
 30
0.0
 11
294.1799984000001
 21
62.450002699992268
 31
0.0
  0
LINE
  5
13172
  8
SU
 10
301.97999950000002
 20
61.050003999992271
 30
0.0
 11
295.01999760000001
 21
61.050003999992271
 31
0.0
  0
LINE
  5
13173
  8
SU
 10
301.86000059999998
 20
60.85000419999227
 30
0.0
 11
295.13999750000011
 21
60.85000419999227
 31
0.0
  0
LINE
  5
13174
  8
SU
 10
301.7400007
 20
60.65000439999227
 30
0.0
 11
295.25999739999997
 21
60.65000439999227
 31
0.0
  0
LINE
  5
13175
  8
SU
 10
301.62000080000001
 20
60.450004599992269
 30
0.0
 11
295.37999730000001
 21
60.450004599992269
 31
0.0
  0
LINE
  5
13176
  8
SU
 10
301.500001
 20
60.250004799992269
 30
0.0
 11
295.49999709999997
 21
60.250004799992269
 31
0.0
  0
LINE
  5
13177
  8
SU
 10
301.38000110000002
 20
60.050004999992261
 30
0.0
 11
295.61999700000001
 21
60.050004999992261
 31
0.0
  0
LINE
  5
13178
  8
SU
 10
301.26000119999998
 20
59.850005099992281
 30
0.0
 11
295.73999689999999
 21
59.850005099992281
 31
0.0
  0
LINE
  5
13179
  8
SU
 10
301.14000129999999
 20
59.650005299992273
 30
0.0
 11
295.85999679999998
 21
59.650005299992273
 31
0.0
  0
LINE
  5
1317A
  8
SU
 10
301.02000140000001
 20
59.450005499992272
 30
0.0
 11
295.97999670000002
 21
59.450005499992272
 31
0.0
  0
LINE
  5
1317B
  8
SU
 10
300.90000149999997
 20
59.250005699992272
 30
0.0
 11
296.09999660000011
 21
59.250005699992272
 31
0.0
  0
LINE
  5
1317C
  8
SU
 10
300.78000159999999
 20
59.050005899992271
 30
0.0
 11
296.21999649999998
 21
59.050005899992271
 31
0.0
  0
LINE
  5
1317D
  8
SU
 10
300.66000270000001
 20
58.850006099992271
 30
0.0
 11
296.3399963
 21
58.850006099992271
 31
0.0
  0
LINE
  5
1317E
  8
SU
 10
300.54000280000002
 20
58.65000629999227
 30
0.0
 11
296.45999619999998
 21
58.65000629999227
 31
0.0
  0
LINE
  5
1317F
  8
SU
 10
300.42000289999999
 20
58.45000649999227
 30
0.0
 11
296.57999610000002
 21
58.45000649999227
 31
0.0
  0
LINE
  5
13180
  8
SU
 10
300.30000310000003
 20
58.250006699992262
 30
0.0
 11
296.69999600000011
 21
58.250006699992262
 31
0.0
  0
LINE
  5
13181
  8
SU
 10
300.18000319999999
 20
58.050006899992269
 30
0.0
 11
296.81999589999998
 21
58.050006899992269
 31
0.0
  0
LINE
  5
13182
  8
SU
 10
300.06000329999989
 20
57.850007099992268
 30
0.0
 11
296.93999580000002
 21
57.850007099992268
 31
0.0
  0
LINE
  5
13183
  8
SU
 10
299.94000340000002
 20
57.650007199992267
 30
0.0
 11
297.0599957
 21
57.650007199992267
 31
0.0
  0
LINE
  5
13184
  8
SU
 10
299.70000359999989
 20
57.250007599992273
 30
0.0
 11
297.2999954
 21
57.250007599992273
 31
0.0
  0
LINE
  5
13185
  8
SU
 10
299.82000349999998
 20
57.450007399992273
 30
0.0
 11
297.17999550000002
 21
57.450007399992273
 31
0.0
  0
LINE
  5
13186
  8
SU
 10
299.58000370000002
 20
57.050007799992272
 30
0.0
 11
297.41999529999998
 21
57.050007799992272
 31
0.0
  0
LINE
  5
13187
  8
SU
 10
299.46000385000002
 20
56.850007999992272
 30
0.0
 11
297.53999519000001
 21
56.850007999992272
 31
0.0
  0
LINE
  5
13188
  8
SU
 10
299.34000397
 20
56.650008199992271
 30
0.0
 11
297.65999507999999
 21
56.650008199992271
 31
0.0
  0
LINE
  5
13189
  8
SU
 10
299.2200050400001
 20
56.450008399992271
 30
0.0
 11
297.7799949599999
 21
56.450008399992271
 31
0.0
  0
LINE
  5
1318A
  8
SU
 10
299.10000515000002
 20
56.25000859999227
 30
0.0
 11
297.89999484999998
 21
56.25000859999227
 31
0.0
  0
LINE
  5
1318B
  8
SU
 10
298.86000252000002
 20
55.850008959992259
 30
0.0
 11
298.13999461999998
 21
55.850008959992259
 31
0.0
  0
LINE
  5
1318C
  8
SU
 10
298.98000525999998
 20
56.050008769992267
 30
0.0
 11
298.01999474000002
 21
56.050008769992267
 31
0.0
  0
LINE
  5
1318D
  8
SU
 10
298.74000262999999
 20
55.650009159992273
 30
0.0
 11
298.25999451000001
 21
55.650009159992273
 31
0.0
  0
LINE
  5
1318E
  8
SU
 10
298.5000020224893
 20
55.249995819018778
 30
0.0
 11
292.50000010000002
 21
65.249999599992265
 31
0.0
  0
LINE
  5
1318F
  8
SU
 10
298.62000751000011
 20
55.450012209992281
 30
0.0
 11
298.37999248999989
 21
55.450012209992252
 31
0.0
  0
LINE
  5
13190
  8
SU
 10
298.49999993819199
 20
55.249999819841427
 30
0.0
 11
304.4999957
 21
65.249999899992275
 31
0.0
  0
LINE
  5
13191
  8
SU
 10
302.1000004
 20
61.250003799992271
 30
0.0
 11
294.89999769999997
 21
61.250003799992271
 31
0.0
  0
LINE
  5
13192
  8
SU
 10
302.22000029999998
 20
61.450003599992272
 30
0.0
 11
294.77999779999999
 21
61.450003599992272
 31
0.0
  0
LINE
  5
13193
  8
SU
 10
302.33999920000002
 20
61.650003399992272
 30
0.0
 11
294.65999790000001
 21
61.650003399992272
 31
0.0
  0
LINE
  5
13194
  8
SU
 10
302.4599991
 20
61.850003199992273
 30
0.0
 11
294.53999809999999
 21
61.850003199992273
 31
0.0
  0
LINE
  5
13195
  8
SU
 10
302.57999899999999
 20
62.050003099992267
 30
0.0
 11
294.41999820000001
 21
62.050003099992267
 31
0.0
  0
LINE
  5
13196
  8
SU
 10
154.5
 20
57.449999999992222
 30
0.0
 11
154.5
 21
91.250000000000554
 31
0.0
  0
LINE
  5
13197
  8
SU
 10
192.5
 20
57.449999999992222
 30
0.0
 11
192.5
 21
91.250000000000554
 31
0.0
  0
LINE
  5
13198
  8
SU
 10
154.5
 20
88.250000000000568
 30
0.0
 11
192.5
 21
88.250000000000568
 31
0.0
  0
ARC
  5
13199
  8
SU
 10
154.5
 20
88.250000000000568
 30
0.0
 40
0.6
 50
0.0
 51
180.0
  0
ARC
  5
1319A
  8
SU
 10
154.5
 20
88.250000000000568
 30
0.0
 40
0.6
 50
180.0
 51
0.0
  0
ARC
  5
1319B
  8
SU
 10
192.5
 20
88.250000000000568
 30
0.0
 40
0.6
 50
180.0
 51
0.0
  0
ARC
  5
1319C
  8
SU
 10
192.5
 20
88.250000000000568
 30
0.0
 40
0.6
 50
0.0
 51
180.0
  0
TEXT
  5
1319D
  8
SU
 10
167.96666666666661
 20
89.550000000000566
 30
0.0
 40
7.0
  1
38
 41
0.8299999999999999
  0
LINE
  5
1319E
  8
SU
 10
228.5
 20
56.249999999992269
 30
0.0
 11
228.5
 21
91.250000000000554
 31
0.0
  0
LINE
  5
1319F
  8
SU
 10
192.5
 20
88.250000000000568
 30
0.0
 11
228.5
 21
88.250000000000568
 31
0.0
  0
ARC
  5
131A2
  8
SU
 10
228.5
 20
88.250000000000568
 30
0.0
 40
0.6
 50
180.0
 51
0.0
  0
ARC
  5
131A3
  8
SU
 10
228.5
 20
88.250000000000568
 30
0.0
 40
0.6
 50
0.0
 51
180.0
  0
LINE
  5
131A4
  8
SU
 10
509.49999999999989
 20
441.25000000000028
 30
0.0
 11
561.5
 21
441.25000000000028
 31
0.0
  0
LINE
  5
131A5
  8
SU
 10
558.49999999999989
 20
441.25000000000028
 30
0.0
 11
558.49999999999989
 21
521.25000000000034
 31
0.0
  0
TEXT
  5
131A6
  8
SU
 10
557.19999999999993
 20
476.90238095238129
 30
0.0
 40
10.0
  1
H
 50
90.0
 41
0.8299999999999999
  0
LINE
  5
131A7
  8
SU
 10
482.00000000000011
 20
451.25000000000853
 30
0.0
 11
546.49999999999989
 21
451.25000000000853
 31
0.0
  0
LINE
  5
131A8
  8
SU
 10
543.5
 20
451.25000000000853
 30
0.0
 11
543.5
 21
521.25000000000034
 31
0.0
  0
ARC
  5
131A9
  8
SU
 10
543.5
 20
451.25000000000853
 30
0.0
 40
0.6
 50
90.0
 51
270.0
  0
ARC
  5
131AA
  8
SU
 10
543.5
 20
451.25000000000853
 30
0.0
 40
0.6
 50
270.0
 51
90.0
  0
TEXT
  5
131AB
  8
SU
 10
542.19999999999993
 20
465.97633333333772
 30
0.0
 40
7.0
  1
ドアH（DH）
 50
90.0
 41
0.8299999999999999
  0
LINE
  5
131AC
  8
SU
 10
481.99996801255861
 20
443.25000000000051
 30
0.0
 11
546.49999999999977
 21
443.25000000000051
 31
0.0
  0
LINE
  5
131AD
  8
SU
 10
543.49999999999977
 20
451.25000000000853
 30
0.0
 11
543.49999999999977
 21
443.25000000000051
 31
0.0
  0
ARC
  5
131AE
  8
SU
 10
543.49999999999977
 20
443.25000000000051
 30
0.0
 40
0.6
 50
90.0
 51
270.0
  0
ARC
  5
131AF
  8
SU
 10
543.49999999999977
 20
443.25000000000051
 30
0.0
 40
0.6
 50
270.0
 51
90.0
  0
LINE
  5
131B0
  8
SU
 10
543.49999999999966
 20
441.25000000000028
 30
0.0
 11
543.49999999999966
 21
433.48816863963089
 31
0.0
  0
LINE
  5
131B1
  8
SU
 10
543.49999999999966
 20
443.25000000000051
 30
0.0
 11
543.49999999999966
 21
441.25000000000028
 31
0.0
  0
ARC
  5
131B2
  8
SU
 10
543.49999999999966
 20
441.25000000000028
 30
0.0
 40
0.6
 50
270.0
 51
90.0
  0
ARC
  5
131B3
  8
SU
 10
543.49999999999966
 20
441.25000000000028
 30
0.0
 40
0.6
 50
90.0
 51
270.0
  0
TEXT
  5
131B4
  8
SU
 10
542.1999999999997
 20
433.95816863963103
 30
0.0
 40
7.0
  1
2
 50
90.0
 41
0.8299999999999999
  0
LINE
  5
131B5
  8
SU
 10
564.49999620000006
 20
451.25000000000028
 30
0.0
 11
552.5
 21
451.25000000000028
 31
0.0
  0
LINE
  5
131B6
  8
SU
 10
564.37999630000002
 20
451.05000020000028
 30
0.0
 11
552.61999990000004
 21
451.05000020000028
 31
0.0
  0
LINE
  5
131B7
  8
SU
 10
564.25999639999986
 20
450.85000040000028
 30
0.0
 11
552.73999979999985
 21
450.85000040000028
 31
0.0
  0
LINE
  5
131B8
  8
SU
 10
564.13999650000005
 20
450.65000060000028
 30
0.0
 11
552.85999969999989
 21
450.65000060000028
 31
0.0
  0
LINE
  5
131B9
  8
SU
 10
564.0199965999999
 20
450.45000080000028
 30
0.0
 11
552.97999949999985
 21
450.45000080000028
 31
0.0
  0
LINE
  5
131BA
  8
SU
 10
563.89999680000005
 20
450.25000100000028
 30
0.0
 11
553.0999994
 21
450.25000100000028
 31
0.0
  0
LINE
  5
131BB
  8
SU
 10
563.77999690000001
 20
450.05000110000032
 30
0.0
 11
553.21999930000004
 21
450.05000110000037
 31
0.0
  0
LINE
  5
131BC
  8
SU
 10
563.65999790000001
 20
449.85000130000032
 30
0.0
 11
553.33999919999985
 21
449.85000130000032
 31
0.0
  0
LINE
  5
131BD
  8
SU
 10
563.53999810000005
 20
449.65000150000031
 30
0.0
 11
553.4599991
 21
449.65000150000043
 31
0.0
  0
LINE
  5
131BE
  8
SU
 10
563.41999820000001
 20
449.45000170000031
 30
0.0
 11
553.57999900000004
 21
449.45000170000031
 31
0.0
  0
LINE
  5
131BF
  8
SU
 10
563.29999829999986
 20
449.25000190000031
 30
0.0
 11
553.69999889999985
 21
449.25000190000031
 31
0.0
  0
LINE
  5
131C0
  8
SU
 10
563.17999840000004
 20
449.05000210000031
 30
0.0
 11
553.81999870000004
 21
449.05000210000031
 31
0.0
  0
LINE
  5
131C1
  8
SU
 10
563.05999849999989
 20
448.8500023000002
 30
0.0
 11
553.93999859999985
 21
448.85000230000031
 31
0.0
  0
LINE
  5
131C2
  8
SU
 10
562.93999859999997
 20
448.65000250000031
 30
0.0
 11
554.05999850000001
 21
448.65000250000043
 31
0.0
  0
LINE
  5
131C3
  8
SU
 10
562.69999889999985
 20
448.25000290000031
 30
0.0
 11
554.29999829999986
 21
448.25000290000042
 31
0.0
  0
LINE
  5
131C4
  8
SU
 10
562.81999870000004
 20
448.4500027000002
 30
0.0
 11
554.17999840000004
 21
448.45000270000031
 31
0.0
  0
LINE
  5
131C5
  8
SU
 10
561.97999949999996
 20
447.05000400000029
 30
0.0
 11
555.01999760000001
 21
447.05000400000029
 31
0.0
  0
LINE
  5
131C6
  8
SU
 10
561.86000060000003
 20
446.85000420000028
 30
0.0
 11
555.13999750000005
 21
446.85000420000028
 31
0.0
  0
LINE
  5
131C7
  8
SU
 10
561.74000069999988
 20
446.65000440000028
 30
0.0
 11
555.25999739999986
 21
446.65000440000028
 31
0.0
  0
LINE
  5
131C8
  8
SU
 10
561.62000079999984
 20
446.45000460000028
 30
0.0
 11
555.37999730000001
 21
446.45000460000028
 31
0.0
  0
LINE
  5
131C9
  8
SU
 10
561.500001
 20
446.25000480000028
 30
0.0
 11
555.49999709999986
 21
446.25000480000028
 31
0.0
  0
LINE
  5
131CA
  8
SU
 10
561.38000109999984
 20
446.05000500000028
 30
0.0
 11
555.61999700000001
 21
446.05000500000028
 31
0.0
  0
LINE
  5
131CB
  8
SU
 10
561.26000120000003
 20
445.85000510000032
 30
0.0
 11
555.73999690000005
 21
445.85000510000037
 31
0.0
  0
LINE
  5
131CC
  8
SU
 10
561.14000129999988
 20
445.65000530000032
 30
0.0
 11
555.85999679999998
 21
445.65000530000032
 31
0.0
  0
LINE
  5
131CD
  8
SU
 10
561.02000139999996
 20
445.45000550000032
 30
0.0
 11
555.97999670000002
 21
445.45000550000037
 31
0.0
  0
LINE
  5
131CE
  8
SU
 10
560.90000150000003
 20
445.25000570000032
 30
0.0
 11
556.09999660000005
 21
445.25000570000032
 31
0.0
  0
LINE
  5
131CF
  8
SU
 10
560.78000159999988
 20
445.05000590000031
 30
0.0
 11
556.21999649999987
 21
445.05000590000031
 31
0.0
  0
LINE
  5
131D0
  8
SU
 10
560.66000269999995
 20
444.85000610000031
 30
0.0
 11
556.33999630000005
 21
444.85000610000031
 31
0.0
  0
LINE
  5
131D1
  8
SU
 10
560.54000280000002
 20
444.6500063000002
 30
0.0
 11
556.45999619999986
 21
444.65000630000031
 31
0.0
  0
LINE
  5
131D2
  8
SU
 10
560.42000289999999
 20
444.45000650000031
 30
0.0
 11
556.57999610000002
 21
444.45000650000043
 31
0.0
  0
LINE
  5
131D3
  8
SU
 10
560.30000310000003
 20
444.25000670000031
 30
0.0
 11
556.69999600000006
 21
444.25000670000031
 31
0.0
  0
LINE
  5
131D4
  8
SU
 10
560.18000319999987
 20
444.05000690000031
 30
0.0
 11
556.81999589999998
 21
444.05000690000043
 31
0.0
  0
LINE
  5
131D5
  8
SU
 10
560.06000329999995
 20
443.85000710000031
 30
0.0
 11
556.93999579999991
 21
443.85000710000031
 31
0.0
  0
LINE
  5
131D6
  8
SU
 10
559.94000340000002
 20
443.65000720000029
 30
0.0
 11
557.05999569999994
 21
443.65000720000029
 31
0.0
  0
LINE
  5
131D7
  8
SU
 10
559.70000359999995
 20
443.25000760000029
 30
0.0
 11
557.29999539999994
 21
443.25000760000029
 31
0.0
  0
LINE
  5
131D8
  8
SU
 10
559.82000349999987
 20
443.45000740000029
 30
0.0
 11
557.17999550000002
 21
443.45000740000029
 31
0.0
  0
LINE
  5
131D9
  8
SU
 10
559.58000370000002
 20
443.05000780000029
 30
0.0
 11
557.41999529999987
 21
443.05000780000029
 31
0.0
  0
LINE
  5
131DA
  8
SU
 10
559.46000385000002
 20
442.85000800000029
 30
0.0
 11
557.53999519000001
 21
442.85000800000029
 31
0.0
  0
LINE
  5
131DB
  8
SU
 10
559.34000396999988
 20
442.65000820000029
 30
0.0
 11
557.65999508000004
 21
442.65000820000029
 31
0.0
  0
LINE
  5
131DC
  8
SU
 10
559.22000504000005
 20
442.45000840000029
 30
0.0
 11
557.77999495999995
 21
442.45000840000029
 31
0.0
  0
LINE
  5
131DD
  8
SU
 10
559.10000515000002
 20
442.25000860000029
 30
0.0
 11
557.89999484999987
 21
442.25000860000029
 31
0.0
  0
LINE
  5
131DE
  8
SU
 10
558.86000251999985
 20
441.8500089600002
 30
0.0
 11
558.13999462000004
 21
441.85000896000031
 31
0.0
  0
LINE
  5
131DF
  8
SU
 10
558.98000525999998
 20
442.05000877000032
 30
0.0
 11
558.01999474000002
 21
442.05000877000037
 31
0.0
  0
LINE
  5
131E0
  8
SU
 10
558.74000263000005
 20
441.65000916000031
 30
0.0
 11
558.25999450999996
 21
441.65000916000042
 31
0.0
  0
LINE
  5
131E1
  8
SU
 10
558.50000202248918
 20
441.24999581902671
 30
0.0
 11
552.50000009999985
 21
451.24999960000031
 31
0.0
  0
LINE
  5
131E2
  8
SU
 10
558.62000751000005
 20
441.4500122100003
 30
0.0
 11
558.37999248999995
 21
441.4500122100003
 31
0.0
  0
LINE
  5
131E3
  8
SU
 10
558.49999993819199
 20
441.24999981984939
 30
0.0
 11
564.4999957
 21
451.24999990000032
 31
0.0
  0
LINE
  5
131E4
  8
SU
 10
562.10000039999989
 20
447.25000380000029
 30
0.0
 11
554.89999769999997
 21
447.25000380000029
 31
0.0
  0
LINE
  5
131E5
  8
SU
 10
562.22000030000004
 20
447.45000360000029
 30
0.0
 11
554.77999780000005
 21
447.45000360000029
 31
0.0
  0
LINE
  5
131E6
  8
SU
 10
562.33999919999985
 20
447.65000340000029
 30
0.0
 11
554.65999789999989
 21
447.65000340000029
 31
0.0
  0
LINE
  5
131E7
  8
SU
 10
562.4599991
 20
447.85000320000029
 30
0.0
 11
554.53999810000005
 21
447.85000320000029
 31
0.0
  0
LINE
  5
131E8
  8
SU
 10
562.57999900000004
 20
448.05000310000031
 30
0.0
 11
554.41999820000001
 21
448.05000310000031
 31
0.0
  0
LINE
  5
131E9
  8
SU
 10
445.0
 20
442.99230043588773
 30
0.0
 11
445.0
 21
477.25000000000858
 31
0.0
  0
LINE
  5
131EA
  8
SU
 10
485.99999999999972
 20
442.99229474220078
 30
0.0
 11
485.99999999999972
 21
477.25000000000858
 31
0.0
  0
LINE
  5
131EB
  8
SU
 10
445.0
 20
474.25000000000858
 30
0.0
 11
485.99999999999972
 21
474.25000000000858
 31
0.0
  0
ARC
  5
131EC
  8
SU
 10
445.0
 20
474.25000000000858
 30
0.0
 40
0.6
 50
0.0
 51
180.0
  0
ARC
  5
131ED
  8
SU
 10
445.0
 20
474.25000000000858
 30
0.0
 40
0.6
 50
180.0
 51
0.0
  0
ARC
  5
131EE
  8
SU
 10
485.99999999999972
 20
474.25000000000858
 30
0.0
 40
0.6
 50
180.0
 51
0.0
  0
ARC
  5
131EF
  8
SU
 10
485.99999999999972
 20
474.25000000000858
 30
0.0
 40
0.6
 50
0.0
 51
180.0
  0
TEXT
  5
131F0
  8
SU
 10
460.79666666666662
 20
475.55000000000859
 30
0.0
 40
7.0
  1
41
 41
0.8299999999999999
  0
LINE
  5
131F1
  8
SU
 10
488.49999999999989
 20
442.25000000000028
 30
0.0
 11
488.49999999999989
 21
477.25000000000858
 31
0.0
  0
LINE
  5
131F2
  8
SU
 10
485.99999999999972
 20
474.25000000000858
 30
0.0
 11
488.49999999999989
 21
474.25000000000858
 31
0.0
  0
LINE
  5
131F3
  8
SU
 10
508.6881296454863
 20
474.25000000000858
 30
0.0
 11
488.49999999999989
 21
474.25000000000858
 31
0.0
  0
TEXT
  5
131F4
  8
SU
 10
494.38479631215301
 20
475.55000000000859
 30
0.0
 40
7.0
  1
2.5
 41
0.8299999999999999
  0
ARC
  5
131F5
  8
SU
 10
488.49999999999989
 20
474.25000000000858
 30
0.0
 40
0.6
 50
180.0
 51
0.0
  0
ARC
  5
131F6
  8
SU
 10
488.49999999999989
 20
474.25000000000858
 30
0.0
 40
0.6
 50
0.0
 51
180.0
  0
LINE
  5
131F7
  8
SU
 10
509.49999999999989
 20
429.25000000000028
 30
0.0
 11
561.5
 21
429.25000000000028
 31
0.0
  0
LINE
  5
131F8
  8
SU
 10
558.49999999999989
 20
441.25000000000028
 30
0.0
 11
558.49999999999989
 21
429.25000000000028
 31
0.0
  0
ARC
  5
131F9
  8
SU
 10
558.49999999999989
 20
429.25000000000028
 30
0.0
 40
0.6
 50
90.0
 51
270.0
  0
ARC
  5
131FA
  8
SU
 10
558.49999999999989
 20
429.25000000000028
 30
0.0
 40
0.6
 50
270.0
 51
90.0
  0
TEXT
  5
131FB
  8
SU
 10
557.19999999999993
 20
429.30166666666702
 30
0.0
 40
7.0
  1
12
 50
90.0
 41
0.8299999999999999
  0
LINE
  5
131FC
  8
SU
 10
769.5
 20
441.25000000000028
 30
0.0
 11
806.49999999999989
 21
441.25000000000028
 31
0.0
  0
LINE
  5
131FD
  8
SU
 10
803.5
 20
441.25000000000028
 30
0.0
 11
803.5
 21
521.25000000000023
 31
0.0
  0
TEXT
  5
131FE
  8
SU
 10
802.20000000000005
 20
476.90238095238129
 30
0.0
 40
10.0
  1
H
 50
90.0
 41
0.8299999999999999
  0
LINE
  5
131FF
  8
SU
 10
742.00000000000011
 20
451.25000000000853
 30
0.0
 11
791.5
 21
451.25000000000853
 31
0.0
  0
LINE
  5
13200
  8
SU
 10
788.49999999999977
 20
451.25000000000853
 30
0.0
 11
788.49999999999989
 21
521.25000000000023
 31
0.0
  0
ARC
  5
13201
  8
SU
 10
788.49999999999989
 20
451.25000000000853
 30
0.0
 40
0.6
 50
90.0
 51
270.0
  0
ARC
  5
13202
  8
SU
 10
788.49999999999989
 20
451.25000000000853
 30
0.0
 40
0.6
 50
270.0
 51
90.0
  0
TEXT
  5
13203
  8
SU
 10
787.19999999999993
 20
465.97633333333772
 30
0.0
 40
7.0
  1
ドアH（DH）
 50
90.0
 41
0.8299999999999999
  0
LINE
  5
13204
  8
SU
 10
746.49999999999989
 20
444.25000000000028
 30
0.0
 11
791.49999999999989
 21
444.25000000000028
 31
0.0
  0
LINE
  5
13205
  8
SU
 10
788.49999999999977
 20
451.25000000000853
 30
0.0
 11
788.49999999999977
 21
444.25000000000028
 31
0.0
  0
ARC
  5
13206
  8
SU
 10
788.49999999999977
 20
444.25000000000028
 30
0.0
 40
0.6
 50
90.0
 51
270.0
  0
ARC
  5
13207
  8
SU
 10
788.49999999999977
 20
444.25000000000028
 30
0.0
 40
0.6
 50
270.0
 51
90.0
  0
LINE
  5
13208
  8
SU
 10
788.49999999999977
 20
444.25000000000028
 30
0.0
 11
788.49999999999977
 21
441.25000000000028
 31
0.0
  0
LINE
  5
13209
  8
SU
 10
788.49999999999977
 20
441.25000000000028
 30
0.0
 11
788.49999999999977
 21
432.87346598079688
 31
0.0
  0
ARC
  5
1320A
  8
SU
 10
788.49999999999977
 20
441.25000000000028
 30
0.0
 40
0.6
 50
90.0
 51
270.0
  0
ARC
  5
1320B
  8
SU
 10
788.49999999999977
 20
441.25000000000028
 30
0.0
 40
0.6
 50
270.0
 51
90.0
  0
TEXT
  5
1320C
  8
SU
 10
787.1999999999997
 20
433.34346598079708
 30
0.0
 40
7.0
  1
3
 50
90.0
 41
0.8299999999999999
  0
LINE
  5
1320D
  8
SU
 10
809.49999620000006
 20
451.25000000000028
 30
0.0
 11
797.5
 21
451.25000000000028
 31
0.0
  0
LINE
  5
1320E
  8
SU
 10
809.37999630000002
 20
451.05000020000028
 30
0.0
 11
797.61999990000004
 21
451.05000020000028
 31
0.0
  0
LINE
  5
1320F
  8
SU
 10
809.25999639999986
 20
450.85000040000028
 30
0.0
 11
797.73999979999996
 21
450.85000040000028
 31
0.0
  0
LINE
  5
13210
  8
SU
 10
809.13999650000005
 20
450.65000060000028
 30
0.0
 11
797.85999969999989
 21
450.65000060000028
 31
0.0
  0
LINE
  5
13211
  8
SU
 10
809.01999660000001
 20
450.45000080000028
 30
0.0
 11
797.97999949999985
 21
450.45000080000028
 31
0.0
  0
LINE
  5
13212
  8
SU
 10
808.89999680000005
 20
450.25000100000028
 30
0.0
 11
798.0999994
 21
450.25000100000028
 31
0.0
  0
LINE
  5
13213
  8
SU
 10
808.77999690000001
 20
450.05000110000032
 30
0.0
 11
798.21999930000004
 21
450.05000110000037
 31
0.0
  0
LINE
  5
13214
  8
SU
 10
808.65999790000001
 20
449.85000130000032
 30
0.0
 11
798.33999919999985
 21
449.85000130000032
 31
0.0
  0
LINE
  5
13215
  8
SU
 10
808.53999810000005
 20
449.65000150000031
 30
0.0
 11
798.4599991
 21
449.65000150000043
 31
0.0
  0
LINE
  5
13216
  8
SU
 10
808.4199981999999
 20
449.45000170000031
 30
0.0
 11
798.57999900000004
 21
449.45000170000031
 31
0.0
  0
LINE
  5
13217
  8
SU
 10
808.29999829999997
 20
449.25000190000031
 30
0.0
 11
798.69999889999997
 21
449.25000190000031
 31
0.0
  0
LINE
  5
13218
  8
SU
 10
808.17999839999993
 20
449.05000210000031
 30
0.0
 11
798.81999870000004
 21
449.05000210000031
 31
0.0
  0
LINE
  5
13219
  8
SU
 10
808.05999850000001
 20
448.8500023000002
 30
0.0
 11
798.93999859999985
 21
448.85000230000031
 31
0.0
  0
LINE
  5
1321A
  8
SU
 10
807.93999859999997
 20
448.65000250000031
 30
0.0
 11
799.05999850000001
 21
448.65000250000043
 31
0.0
  0
LINE
  5
1321B
  8
SU
 10
807.69999889999985
 20
448.25000290000031
 30
0.0
 11
799.29999829999986
 21
448.25000290000042
 31
0.0
  0
LINE
  5
1321C
  8
SU
 10
807.81999870000016
 20
448.4500027000002
 30
0.0
 11
799.17999840000004
 21
448.45000270000031
 31
0.0
  0
LINE
  5
1321D
  8
SU
 10
806.97999949999996
 20
447.05000400000029
 30
0.0
 11
800.01999760000012
 21
447.05000400000029
 31
0.0
  0
LINE
  5
1321E
  8
SU
 10
806.86000060000003
 20
446.85000420000028
 30
0.0
 11
800.13999749999994
 21
446.85000420000028
 31
0.0
  0
LINE
  5
1321F
  8
SU
 10
806.74000069999988
 20
446.65000440000028
 30
0.0
 11
800.25999739999997
 21
446.65000440000028
 31
0.0
  0
LINE
  5
13220
  8
SU
 10
806.62000079999984
 20
446.45000460000028
 30
0.0
 11
800.3799972999999
 21
446.45000460000028
 31
0.0
  0
LINE
  5
13221
  8
SU
 10
806.500001
 20
446.25000480000028
 30
0.0
 11
800.49999709999997
 21
446.25000480000028
 31
0.0
  0
LINE
  5
13222
  8
SU
 10
806.38000109999984
 20
446.05000500000028
 30
0.0
 11
800.61999700000001
 21
446.05000500000028
 31
0.0
  0
LINE
  5
13223
  8
SU
 10
806.26000120000003
 20
445.85000510000032
 30
0.0
 11
800.73999690000005
 21
445.85000510000037
 31
0.0
  0
LINE
  5
13224
  8
SU
 10
806.14000129999999
 20
445.65000530000032
 30
0.0
 11
800.85999679999998
 21
445.65000530000032
 31
0.0
  0
LINE
  5
13225
  8
SU
 10
806.02000139999996
 20
445.45000550000032
 30
0.0
 11
800.97999670000013
 21
445.45000550000037
 31
0.0
  0
LINE
  5
13226
  8
SU
 10
805.90000150000003
 20
445.25000570000032
 30
0.0
 11
801.09999659999994
 21
445.25000570000032
 31
0.0
  0
LINE
  5
13227
  8
SU
 10
805.78000159999988
 20
445.05000590000031
 30
0.0
 11
801.21999649999998
 21
445.05000590000031
 31
0.0
  0
LINE
  5
13228
  8
SU
 10
805.66000269999995
 20
444.85000610000031
 30
0.0
 11
801.33999630000005
 21
444.85000610000031
 31
0.0
  0
LINE
  5
13229
  8
SU
 10
805.54000280000014
 20
444.6500063000002
 30
0.0
 11
801.45999619999998
 21
444.65000630000031
 31
0.0
  0
LINE
  5
1322A
  8
SU
 10
805.42000289999999
 20
444.45000650000031
 30
0.0
 11
801.57999610000002
 21
444.45000650000043
 31
0.0
  0
LINE
  5
1322B
  8
SU
 10
805.30000309999991
 20
444.25000670000031
 30
0.0
 11
801.69999600000006
 21
444.25000670000031
 31
0.0
  0
LINE
  5
1322C
  8
SU
 10
805.18000319999987
 20
444.05000690000031
 30
0.0
 11
801.81999589999998
 21
444.05000690000043
 31
0.0
  0
LINE
  5
1322D
  8
SU
 10
805.06000329999995
 20
443.85000710000031
 30
0.0
 11
801.93999580000013
 21
443.85000710000031
 31
0.0
  0
LINE
  5
1322E
  8
SU
 10
804.94000339999991
 20
443.65000720000029
 30
0.0
 11
802.05999569999994
 21
443.65000720000029
 31
0.0
  0
LINE
  5
1322F
  8
SU
 10
804.70000359999995
 20
443.25000760000029
 30
0.0
 11
802.29999539999994
 21
443.25000760000029
 31
0.0
  0
LINE
  5
13230
  8
SU
 10
804.82000349999998
 20
443.45000740000029
 30
0.0
 11
802.17999550000002
 21
443.45000740000029
 31
0.0
  0
LINE
  5
13231
  8
SU
 10
804.58000370000013
 20
443.05000780000029
 30
0.0
 11
802.41999529999998
 21
443.05000780000029
 31
0.0
  0
LINE
  5
13232
  8
SU
 10
804.46000385000002
 20
442.85000800000029
 30
0.0
 11
802.53999519000001
 21
442.85000800000029
 31
0.0
  0
LINE
  5
13233
  8
SU
 10
804.34000396999988
 20
442.65000820000029
 30
0.0
 11
802.65999508000004
 21
442.65000820000029
 31
0.0
  0
LINE
  5
13234
  8
SU
 10
804.22000503999993
 20
442.45000840000029
 30
0.0
 11
802.77999495999995
 21
442.45000840000029
 31
0.0
  0
LINE
  5
13235
  8
SU
 10
804.10000515000013
 20
442.25000860000029
 30
0.0
 11
802.89999484999987
 21
442.25000860000029
 31
0.0
  0
LINE
  5
13236
  8
SU
 10
803.86000251999985
 20
441.8500089600002
 30
0.0
 11
803.13999462000004
 21
441.85000896000031
 31
0.0
  0
LINE
  5
13237
  8
SU
 10
803.98000525999998
 20
442.05000877000032
 30
0.0
 11
803.0199947399999
 21
442.05000877000037
 31
0.0
  0
LINE
  5
13238
  8
SU
 10
803.74000263000005
 20
441.65000916000031
 30
0.0
 11
803.25999450999996
 21
441.65000916000042
 31
0.0
  0
LINE
  5
13239
  8
SU
 10
803.5000020224893
 20
441.24999581902671
 30
0.0
 11
797.50000009999985
 21
451.24999960000031
 31
0.0
  0
LINE
  5
1323A
  8
SU
 10
803.62000751000005
 20
441.4500122100003
 30
0.0
 11
803.37999248999995
 21
441.4500122100003
 31
0.0
  0
LINE
  5
1323B
  8
SU
 10
803.49999993819199
 20
441.24999981984939
 30
0.0
 11
809.4999957
 21
451.24999990000032
 31
0.0
  0
LINE
  5
1323C
  8
SU
 10
807.1000004
 20
447.25000380000029
 30
0.0
 11
799.89999769999986
 21
447.25000380000029
 31
0.0
  0
LINE
  5
1323D
  8
SU
 10
807.22000030000004
 20
447.45000360000029
 30
0.0
 11
799.77999780000005
 21
447.45000360000029
 31
0.0
  0
LINE
  5
1323E
  8
SU
 10
807.33999919999997
 20
447.65000340000029
 30
0.0
 11
799.65999789999989
 21
447.65000340000029
 31
0.0
  0
LINE
  5
1323F
  8
SU
 10
807.45999909999989
 20
447.85000320000029
 30
0.0
 11
799.53999810000005
 21
447.85000320000029
 31
0.0
  0
LINE
  5
13240
  8
SU
 10
807.57999900000004
 20
448.05000310000031
 30
0.0
 11
799.41999820000001
 21
448.05000310000031
 31
0.0
  0
LINE
  5
13241
  8
SU
 10
769.5
 20
429.25000000000028
 30
0.0
 11
806.49999999999989
 21
429.25000000000028
 31
0.0
  0
LINE
  5
13242
  8
SU
 10
803.5
 20
441.25000000000028
 30
0.0
 11
803.5
 21
429.25000000000028
 31
0.0
  0
ARC
  5
13243
  8
SU
 10
803.5
 20
429.25000000000028
 30
0.0
 40
0.6
 50
90.0
 51
270.0
  0
ARC
  5
13244
  8
SU
 10
803.5
 20
429.25000000000028
 30
0.0
 40
0.6
 50
270.0
 51
90.0
  0
TEXT
  5
13245
  8
SU
 10
802.20000000000005
 20
429.30166666666702
 30
0.0
 40
7.0
  1
12
 50
90.0
 41
0.8299999999999999
  0
LINE
  5
13246
  8
SU
 10
452.99999999999972
 20
428.25000000000011
 30
0.0
 11
452.99999999999972
 21
406.25
 31
0.0
  0
LINE
  5
13247
  8
SU
 10
477.99999999999972
 20
428.25000000000011
 30
0.0
 11
477.99999999999972
 21
406.25
 31
0.0
  0
LINE
  5
13248
  8
SU
 10
452.99999999999972
 20
409.25000000000011
 30
0.0
 11
477.99999999999972
 21
409.25000000000011
 31
0.0
  0
ARC
  5
13249
  8
SU
 10
452.99999999999972
 20
409.25000000000011
 30
0.0
 40
0.6
 50
0.0
 51
180.0
  0
ARC
  5
1324A
  8
SU
 10
452.99999999999972
 20
409.25000000000011
 30
0.0
 40
0.6
 50
180.0
 51
0.0
  0
ARC
  5
1324B
  8
SU
 10
477.99999999999972
 20
409.25000000000011
 30
0.0
 40
0.6
 50
180.0
 51
0.0
  0
ARC
  5
1324C
  8
SU
 10
477.99999999999972
 20
409.25000000000011
 30
0.0
 40
0.6
 50
0.0
 51
180.0
  0
TEXT
  5
1324D
  8
SU
 10
459.96666666666653
 20
410.55000000000013
 30
0.0
 40
7.0
  1
25
 41
0.8299999999999999
  0
LINE
  5
1324E
  8
SU
 10
488.49999999999977
 20
428.25000000000028
 30
0.0
 11
488.49999999999977
 21
406.25000000000023
 31
0.0
  0
LINE
  5
1324F
  8
SU
 10
477.99999999999972
 20
409.25000000000023
 30
0.0
 11
488.49999999999977
 21
409.25000000000023
 31
0.0
  0
LINE
  5
13250
  8
SU
 10
488.49999999999977
 20
409.25000000000023
 30
0.0
 11
512.77666666666653
 21
409.25000000000023
 31
0.0
  0
ARC
  5
13251
  8
SU
 10
488.49999999999977
 20
409.25000000000023
 30
0.0
 40
0.6
 50
180.0
 51
0.0
  0
ARC
  5
13252
  8
SU
 10
488.49999999999977
 20
409.25000000000023
 30
0.0
 40
0.6
 50
0.0
 51
180.0
  0
TEXT
  5
13253
  8
SU
 10
492.93999999999988
 20
410.55000000000018
 30
0.0
 40
7.0
  1
10.5
 41
0.8299999999999999
  0
LINE
  5
13254
  8
SU
 10
584.49999999999989
 20
428.25000000000841
 30
0.0
 11
584.49999999999989
 21
406.25000000000023
 31
0.0
  0
LINE
  5
13255
  8
SU
 10
745.5
 20
428.25000000000028
 30
0.0
 11
745.5
 21
406.25000000000023
 31
0.0
  0
LINE
  5
13256
  8
SU
 10
584.49999999999989
 20
409.25000000000023
 30
0.0
 11
745.5
 21
409.25000000000023
 31
0.0
  0
ARC
  5
13257
  8
SU
 10
584.49999999999989
 20
409.25000000000023
 30
0.0
 40
0.6
 50
0.0
 51
180.0
  0
ARC
  5
13258
  8
SU
 10
584.49999999999989
 20
409.25000000000023
 30
0.0
 40
0.6
 50
180.0
 51
0.0
  0
ARC
  5
13259
  8
SU
 10
745.5
 20
409.25000000000023
 30
0.0
 40
0.6
 50
180.0
 51
0.0
  0
ARC
  5
1325A
  8
SU
 10
745.5
 20
409.25000000000023
 30
0.0
 40
0.6
 50
0.0
 51
180.0
  0
TEXT
  5
1325B
  8
SU
 10
656.28499999999997
 20
410.55000000000018
 30
0.0
 40
7.0
  1
161
 41
0.8299999999999999
  0
LINE
  5
1325C
  8
SU
 10
581.5
 20
428.25000000000841
 30
0.0
 11
581.5
 21
406.24999999999989
 31
0.0
  0
LINE
  5
1325D
  8
SU
 10
584.49999999999989
 20
409.24999999999989
 30
0.0
 11
581.5
 21
409.24999999999989
 31
0.0
  0
LINE
  5
1325E
  8
SU
 10
581.5
 20
409.24999999999989
 30
0.0
 11
570.22666666666657
 21
409.24999999999989
 31
0.0
  0
ARC
  5
1325F
  8
SU
 10
581.5
 20
409.24999999999989
 30
0.0
 40
0.6
 50
0.0
 51
180.0
  0
ARC
  5
13260
  8
SU
 10
581.5
 20
409.24999999999989
 30
0.0
 40
0.6
 50
180.0
 51
0.0
  0
TEXT
  5
13261
  8
SU
 10
570.69666666666672
 20
410.5499999999999
 30
0.0
 40
7.0
  1
3
 41
0.8299999999999999
  0
LINE
  5
13262
  8
SU
 10
748.5
 20
428.25000000000841
 30
0.0
 11
748.5
 21
406.25
 31
0.0
  0
LINE
  5
13263
  8
SU
 10
745.5
 20
409.25
 30
0.0
 11
748.5
 21
409.25
 31
0.0
  0
LINE
  5
13264
  8
SU
 10
748.5
 20
409.25
 30
0.0
 11
759.77333333333331
 21
409.25
 31
0.0
  0
ARC
  5
13265
  8
SU
 10
748.5
 20
409.25
 30
0.0
 40
0.6
 50
180.0
 51
0.0
  0
ARC
  5
13266
  8
SU
 10
748.5
 20
409.25
 30
0.0
 40
0.6
 50
0.0
 51
180.0
  0
TEXT
  5
13267
  8
SU
 10
753.76999999999998
 20
410.55000000000013
 30
0.0
 40
7.0
  1
3
 41
0.8299999999999999
  0
TEXT
  5
13268
  8
MJ
 10
321.5
 20
546.25000000000034
 30
0.0
 40
7.0
  1
伸ばし枠
 41
0.8299999999999999
  0
LINE
  5
13269
  8
SU
 10
92.162121764816206
 20
248.25000000000051
 30
0.0
 11
168.94586558246959
 21
248.25000000000051
 31
0.0
  0
TEXT
  5
1326A
  8
SU
 10
93.137931560213914
 20
250.52500000000049
 30
0.0
 40
7.0
  1
埋込沓摺（床先張り用）
 41
0.8299999999999999
  0
TEXT
  5
1326B
  8
SU
 10
93.137931560213914
 20
238.97500000000039
 30
0.0
 40
7.0
  1
［オプション］
 41
0.8299999999999999
  0
LINE
  5
1326C
  8
SU
 10
168.94586558246959
 20
248.25000000000051
 30
0.0
 11
187.17501986870599
 21
216.6761785972264
 31
0.0
  0
LINE
  5
1326D
  8
SU
 10
187.17501986870599
 20
216.6761785972264
 30
0.0
 11
185.7020355797944
 21
218.59573730467761
 31
0.0
  0
LINE
  5
1326E
  8
SU
 10
187.17501986870599
 20
216.6761785972264
 30
0.0
 11
186.2487905332334
 21
218.9121797854198
 31
0.0
  0
LINE
  5
1326F
  8
SU
 10
56.148529397468742
 20
88.250000000000568
 30
0.0
 11
139.82661606296369
 21
88.250000000000554
 31
0.0
  0
TEXT
  5
13270
  8
SU
 10
57.124339192866451
 20
90.525000000000574
 30
0.0
 40
7.0
  1
直張り沓摺（床先張り用）
 41
0.8299999999999999
  0
TEXT
  5
13271
  8
SU
 10
57.124339192866451
 20
78.975000000000577
 30
0.0
 40
7.0
  1
［オプション］
 41
0.8299999999999999
  0
LINE
  5
13272
  8
SU
 10
139.82661606296369
 20
88.250000000000554
 30
0.0
 11
157.1039238185387
 21
58.324825149340107
 31
0.0
  0
LINE
  5
13273
  8
SU
 10
157.1039238185387
 20
58.324825149340107
 30
0.0
 11
155.63093952962711
 21
60.244383856791359
 31
0.0
  0
LINE
  5
13274
  8
SU
 10
157.1039238185387
 20
58.324825149340107
 30
0.0
 11
156.1776944830662
 21
60.560826337533548
 31
0.0
  0
LINE
  5
13275
  8
SU
 10
352.38380983652161
 20
474.25000000000841
 30
0.0
 11
428.94586558246971
 21
474.25000000000841
 31
0.0
  0
TEXT
  5
13276
  8
SU
 10
353.35961963191932
 20
476.52500000000862
 30
0.0
 40
7.0
  1
埋込沓摺（床先張り用）
 41
0.8299999999999999
  0
TEXT
  5
13277
  8
SU
 10
353.35961963191932
 20
464.97500000000849
 30
0.0
 40
7.0
  1
［オプション］
 41
0.8299999999999999
  0
LINE
  5
13278
  8
SU
 10
428.94586558246971
 20
474.25000000000841
 30
0.0
 11
447.17501986870587
 21
442.67617859723441
 31
0.0
  0
LINE
  5
13279
  8
SU
 10
447.17501986870587
 20
442.67617859723441
 30
0.0
 11
445.70203557979431
 21
444.5957373046856
 31
0.0
  0
LINE
  5
1327A
  8
SU
 10
447.17501986870587
 20
442.67617859723441
 30
0.0
 11
446.24879053323338
 21
444.91217978542778
 31
0.0
  0
LINE
  5
1327B
  8
SU
 10
606.14415759718065
 20
474.25000000000858
 30
0.0
 11
674.50084985663864
 21
474.25000000000858
 31
0.0
  0
TEXT
  5
1327C
  8
SU
 10
607.11996739257825
 20
476.52500000000862
 30
0.0
 40
7.0
  1
薄沓摺（床後張り用）
 41
0.8299999999999999
  0
TEXT
  5
1327D
  8
SU
 10
607.11996739257825
 20
464.97500000000872
 30
0.0
 40
7.0
  1
［オプション］
 41
0.8299999999999999
  0
LINE
  5
1327E
  8
SU
 10
674.50084985663841
 20
474.25000000000858
 30
0.0
 11
694.2135028479388
 21
440.10668346710162
 31
0.0
  0
LINE
  5
1327F
  8
SU
 10
694.2135028479388
 20
440.10668346710162
 30
0.0
 11
692.74051855902724
 21
442.02624217455292
 31
0.0
  0
LINE
  5
13280
  8
SU
 10
694.2135028479388
 20
440.10668346710162
 30
0.0
 11
693.2872735124663
 21
442.3426846552951
 31
0.0
  0
LINE
  5
13281
  8
KI1
 10
168.0000009999998
 20
421.24999999999221
 30
0.0
 11
67.0
 21
421.24999999999233
 31
0.0
  0
LINE
  5
13282
  8
KI1
 10
64.5
 20
445.24999999999221
 30
0.0
 11
225.5
 21
445.24999999999221
 31
0.0
  0
LINE
  5
13283
  8
KI1
 10
64.5
 20
423.74999999999221
 30
0.0
 11
67.0
 21
421.24999999999233
 31
0.0
1001
GENIUS_GENFIL_13
1070
     0
1040
2.5
1040
2.5
1040
20.0
1040
0.0
1002
{
1002
}
1001
GENIUS_GENOBJ-N-CHA_13
1002
{
1000
OWNER
1000
GEN
1002
}
1001
GENIUS_GENODEF_13
1002
{
1000
HIER
1070
     0
1002
}
1002
{
1000
MANEDIT
1070
     0
1002
}
1002
{
1000
NOSEL
1070
     0
1002
}
1002
{
1000
BEHIND
1070
     0
1002
}
1002
{
1000
OTHER
1070
     0
1002
}
1002
{
1000
REACTOR
1002
}
  0
LINE
  5
13284
  8
KI1
 10
64.5
 20
423.74999999999221
 30
0.0
 11
64.5
 21
445.24999999999221
 31
0.0
  0
LINE
  5
13285
  8
KI1
 10
223.0
 20
421.24999999999233
 30
0.0
 11
183.99999900000009
 21
421.24999999999233
 31
0.0
  0
LINE
  5
13286
  8
KI1
 10
225.5
 20
423.74999999999221
 30
0.0
 11
223.0
 21
421.24999999999233
 31
0.0
1001
GENIUS_GENFIL_13
1070
     0
1040
2.5
1040
2.5
1040
20.0
1040
0.0
1002
{
1002
}
1001
GENIUS_GENOBJ-N-CHA_13
1002
{
1000
OWNER
1000
GEN
1002
}
1001
GENIUS_GENODEF_13
1002
{
1000
HIER
1070
     0
1002
}
1002
{
1000
MANEDIT
1070
     0
1002
}
1002
{
1000
NOSEL
1070
     0
1002
}
1002
{
1000
BEHIND
1070
     0
1002
}
1002
{
1000
OTHER
1070
     0
1002
}
1002
{
1000
REACTOR
1002
}
  0
LINE
  5
13287
  8
KI1
 10
225.5
 20
445.24999999999221
 30
0.0
 11
225.5
 21
423.74999999999221
 31
0.0
  0
LINE
  5
13288
  8
OS
 10
64.5
 20
427.22474683057521
 30
0.0
 11
82.525253169416857
 21
445.24999999999233
 31
0.0
1001
GENIUS_GENODEF_13
1002
{
1000
HIER
1070
     0
1002
}
1002
{
1000
MANEDIT
1070
     0
1002
}
1002
{
1000
NOSEL
1070
     0
1002
}
1002
{
1000
BEHIND
1070
     0
1002
}
1002
{
1000
OTHER
1070
     0
1002
}
1002
{
1000
REACTOR
1002
}
1001
GENIUS_GENOBJ-N-HTC_13
1002
{
1000
OWNER
1000
GEN
1002
}
1001
GENIUS_GENHATCH_13
1002
{
1000
DATA
1040
45.0
1042
2.5
1000
_U
1070
     0
1011
145.1058400677411
1021
0.0
1031
0.0
1021
433.29051750791461
1031
0.0
1002
}
1002
{
1000
UCS
1010
0.0
1020
0.0
1030
0.0
1010
1.0
1020
0.0
1030
0.0
1010
0.0
1020
1.0
1030
0.0
1002
}
1001
ACAD
1010
0.0
1020
0.0
1030
0.0
  0
LINE
  5
13289
  8
OS
 10
68.424748106028389
 20
421.2499999999921
 30
0.0
 11
92.424748106028503
 21
445.24999999999221
 31
0.0
1001
GENIUS_GENODEF_13
1002
{
1000
HIER
1070
     0
1002
}
1002
{
1000
MANEDIT
1070
     0
1002
}
1002
{
1000
NOSEL
1070
     0
1002
}
1002
{
1000
BEHIND
1070
     0
1002
}
1002
{
1000
OTHER
1070
     0
1002
}
1002
{
1000
REACTOR
1002
}
1001
GENIUS_GENOBJ-N-HTC_13
1002
{
1000
OWNER
1000
GEN
1002
}
1001
GENIUS_GENHATCH_13
1002
{
1000
DATA
1040
45.0
1042
2.5
1000
_U
1070
     0
1011
145.1058400677411
1021
0.0
1031
0.0
1021
433.29051750791461
1031
0.0
1002
}
1002
{
1000
UCS
1010
0.0
1020
0.0
1030
0.0
1010
1.0
1020
0.0
1030
0.0
1010
0.0
1020
1.0
1030
0.0
1002
}
1001
ACAD
1010
0.0
1020
0.0
1030
0.0
  0
LINE
  5
1328A
  8
OS
 10
78.324243042640262
 20
421.24999999999221
 30
0.0
 11
102.32424304264021
 21
445.24999999999221
 31
0.0
1001
GENIUS_GENODEF_13
1002
{
1000
HIER
1070
     0
1002
}
1002
{
1000
MANEDIT
1070
     0
1002
}
1002
{
1000
NOSEL
1070
     0
1002
}
1002
{
1000
BEHIND
1070
     0
1002
}
1002
{
1000
OTHER
1070
     0
1002
}
1002
{
1000
REACTOR
1002
}
1001
GENIUS_GENOBJ-N-HTC_13
1002
{
1000
OWNER
1000
GEN
1002
}
1001
GENIUS_GENHATCH_13
1002
{
1000
DATA
1040
45.0
1042
2.5
1000
_U
1070
     0
1011
145.1058400677411
1021
0.0
1031
0.0
1021
433.29051750791461
1031
0.0
1002
}
1002
{
1000
UCS
1010
0.0
1020
0.0
1030
0.0
1010
1.0
1020
0.0
1030
0.0
1010
0.0
1020
1.0
1030
0.0
1002
}
1001
ACAD
1010
0.0
1020
0.0
1030
0.0
  0
LINE
  5
1328B
  8
OS
 10
88.223737979251894
 20
421.24999999999233
 30
0.0
 11
112.22373797925179
 21
445.24999999999221
 31
0.0
1001
GENIUS_GENODEF_13
1002
{
1000
HIER
1070
     0
1002
}
1002
{
1000
MANEDIT
1070
     0
1002
}
1002
{
1000
NOSEL
1070
     0
1002
}
1002
{
1000
BEHIND
1070
     0
1002
}
1002
{
1000
OTHER
1070
     0
1002
}
1002
{
1000
REACTOR
1002
}
1001
GENIUS_GENOBJ-N-HTC_13
1002
{
1000
OWNER
1000
GEN
1002
}
1001
GENIUS_GENHATCH_13
1002
{
1000
DATA
1040
45.0
1042
2.5
1000
_U
1070
     0
1011
145.1058400677411
1021
0.0
1031
0.0
1021
433.29051750791461
1031
0.0
1002
}
1002
{
1000
UCS
1010
0.0
1020
0.0
1030
0.0
1010
1.0
1020
0.0
1030
0.0
1010
0.0
1020
1.0
1030
0.0
1002
}
1001
ACAD
1010
0.0
1020
0.0
1030
0.0
  0
LINE
  5
1328C
  8
OS
 10
98.123232915863554
 20
421.24999999999233
 30
0.0
 11
122.1232329158635
 21
445.24999999999221
 31
0.0
1001
GENIUS_GENODEF_13
1002
{
1000
HIER
1070
     0
1002
}
1002
{
1000
MANEDIT
1070
     0
1002
}
1002
{
1000
NOSEL
1070
     0
1002
}
1002
{
1000
BEHIND
1070
     0
1002
}
1002
{
1000
OTHER
1070
     0
1002
}
1002
{
1000
REACTOR
1002
}
1001
GENIUS_GENOBJ-N-HTC_13
1002
{
1000
OWNER
1000
GEN
1002
}
1001
GENIUS_GENHATCH_13
1002
{
1000
DATA
1040
45.0
1042
2.5
1000
_U
1070
     0
1011
145.1058400677411
1021
0.0
1031
0.0
1021
433.29051750791461
1031
0.0
1002
}
1002
{
1000
UCS
1010
0.0
1020
0.0
1030
0.0
1010
1.0
1020
0.0
1030
0.0
1010
0.0
1020
1.0
1030
0.0
1002
}
1001
ACAD
1010
0.0
1020
0.0
1030
0.0
  0
LINE
  5
1328D
  8
OS
 10
108.0227278524752
 20
421.24999999999221
 30
0.0
 11
132.02272785247521
 21
445.24999999999221
 31
0.0
1001
GENIUS_GENODEF_13
1002
{
1000
HIER
1070
     0
1002
}
1002
{
1000
MANEDIT
1070
     0
1002
}
1002
{
1000
NOSEL
1070
     0
1002
}
1002
{
1000
BEHIND
1070
     0
1002
}
1002
{
1000
OTHER
1070
     0
1002
}
1002
{
1000
REACTOR
1002
}
1001
GENIUS_GENOBJ-N-HTC_13
1002
{
1000
OWNER
1000
GEN
1002
}
1001
GENIUS_GENHATCH_13
1002
{
1000
DATA
1040
45.0
1042
2.5
1000
_U
1070
     0
1011
145.1058400677411
1021
0.0
1031
0.0
1021
433.29051750791461
1031
0.0
1002
}
1002
{
1000
UCS
1010
0.0
1020
0.0
1030
0.0
1010
1.0
1020
0.0
1030
0.0
1010
0.0
1020
1.0
1030
0.0
1002
}
1001
ACAD
1010
0.0
1020
0.0
1030
0.0
  0
LINE
  5
1328E
  8
OS
 10
117.9222227890868
 20
421.24999999999233
 30
0.0
 11
141.92222278908679
 21
445.24999999999233
 31
0.0
1001
GENIUS_GENODEF_13
1002
{
1000
HIER
1070
     0
1002
}
1002
{
1000
MANEDIT
1070
     0
1002
}
1002
{
1000
NOSEL
1070
     0
1002
}
1002
{
1000
BEHIND
1070
     0
1002
}
1002
{
1000
OTHER
1070
     0
1002
}
1002
{
1000
REACTOR
1002
}
1001
GENIUS_GENOBJ-N-HTC_13
1002
{
1000
OWNER
1000
GEN
1002
}
1001
GENIUS_GENHATCH_13
1002
{
1000
DATA
1040
45.0
1042
2.5
1000
_U
1070
     0
1011
145.1058400677411
1021
0.0
1031
0.0
1021
433.29051750791461
1031
0.0
1002
}
1002
{
1000
UCS
1010
0.0
1020
0.0
1030
0.0
1010
1.0
1020
0.0
1030
0.0
1010
0.0
1020
1.0
1030
0.0
1002
}
1001
ACAD
1010
0.0
1020
0.0
1030
0.0
  0
LINE
  5
1328F
  8
OS
 10
127.82171772569851
 20
421.24999999999233
 30
0.0
 11
151.82171772569851
 21
445.24999999999221
 31
0.0
1001
GENIUS_GENODEF_13
1002
{
1000
HIER
1070
     0
1002
}
1002
{
1000
MANEDIT
1070
     0
1002
}
1002
{
1000
NOSEL
1070
     0
1002
}
1002
{
1000
BEHIND
1070
     0
1002
}
1002
{
1000
OTHER
1070
     0
1002
}
1002
{
1000
REACTOR
1002
}
1001
GENIUS_GENOBJ-N-HTC_13
1002
{
1000
OWNER
1000
GEN
1002
}
1001
GENIUS_GENHATCH_13
1002
{
1000
DATA
1040
45.0
1042
2.5
1000
_U
1070
     0
1011
145.1058400677411
1021
0.0
1031
0.0
1021
433.29051750791461
1031
0.0
1002
}
1002
{
1000
UCS
1010
0.0
1020
0.0
1030
0.0
1010
1.0
1020
0.0
1030
0.0
1010
0.0
1020
1.0
1030
0.0
1002
}
1001
ACAD
1010
0.0
1020
0.0
1030
0.0
  0
LINE
  5
13290
  8
OS
 10
137.72121266231011
 20
421.2499999999921
 30
0.0
 11
161.72121266231019
 21
445.24999999999221
 31
0.0
1001
GENIUS_GENODEF_13
1002
{
1000
HIER
1070
     0
1002
}
1002
{
1000
MANEDIT
1070
     0
1002
}
1002
{
1000
NOSEL
1070
     0
1002
}
1002
{
1000
BEHIND
1070
     0
1002
}
1002
{
1000
OTHER
1070
     0
1002
}
1002
{
1000
REACTOR
1002
}
1001
GENIUS_GENOBJ-N-HTC_13
1002
{
1000
OWNER
1000
GEN
1002
}
1001
GENIUS_GENHATCH_13
1002
{
1000
DATA
1040
45.0
1042
2.5
1000
_U
1070
     0
1011
145.1058400677411
1021
0.0
1031
0.0
1021
433.29051750791461
1031
0.0
1002
}
1002
{
1000
UCS
1010
0.0
1020
0.0
1030
0.0
1010
1.0
1020
0.0
1030
0.0
1010
0.0
1020
1.0
1030
0.0
1002
}
1001
ACAD
1010
0.0
1020
0.0
1030
0.0
  0
LINE
  5
13291
  8
OS
 10
147.6207075989218
 20
421.24999999999233
 30
0.0
 11
171.6207075989218
 21
445.24999999999233
 31
0.0
1001
GENIUS_GENODEF_13
1002
{
1000
HIER
1070
     0
1002
}
1002
{
1000
MANEDIT
1070
     0
1002
}
1002
{
1000
NOSEL
1070
     0
1002
}
1002
{
1000
BEHIND
1070
     0
1002
}
1002
{
1000
OTHER
1070
     0
1002
}
1002
{
1000
REACTOR
1002
}
1001
GENIUS_GENOBJ-N-HTC_13
1002
{
1000
OWNER
1000
GEN
1002
}
1001
GENIUS_GENHATCH_13
1002
{
1000
DATA
1040
45.0
1042
2.5
1000
_U
1070
     0
1011
145.1058400677411
1021
0.0
1031
0.0
1021
433.29051750791461
1031
0.0
1002
}
1002
{
1000
UCS
1010
0.0
1020
0.0
1030
0.0
1010
1.0
1020
0.0
1030
0.0
1010
0.0
1020
1.0
1030
0.0
1002
}
1001
ACAD
1010
0.0
1020
0.0
1030
0.0
  0
LINE
  5
13292
  8
OS
 10
157.5202025355334
 20
421.2499999999921
 30
0.0
 11
181.52020253553351
 21
445.24999999999221
 31
0.0
1001
GENIUS_GENODEF_13
1002
{
1000
HIER
1070
     0
1002
}
1002
{
1000
MANEDIT
1070
     0
1002
}
1002
{
1000
NOSEL
1070
     0
1002
}
1002
{
1000
BEHIND
1070
     0
1002
}
1002
{
1000
OTHER
1070
     0
1002
}
1002
{
1000
REACTOR
1002
}
1001
GENIUS_GENOBJ-N-HTC_13
1002
{
1000
OWNER
1000
GEN
1002
}
1001
GENIUS_GENHATCH_13
1002
{
1000
DATA
1040
45.0
1042
2.5
1000
_U
1070
     0
1011
145.1058400677411
1021
0.0
1031
0.0
1021
433.29051750791461
1031
0.0
1002
}
1002
{
1000
UCS
1010
0.0
1020
0.0
1030
0.0
1010
1.0
1020
0.0
1030
0.0
1010
0.0
1020
1.0
1030
0.0
1002
}
1001
ACAD
1010
0.0
1020
0.0
1030
0.0
  0
LINE
  5
13293
  8
OS
 10
167.41969747214509
 20
421.24999999999221
 30
0.0
 11
168.0000009999998
 21
421.83030352784692
 31
0.0
1001
GENIUS_GENODEF_13
1002
{
1000
HIER
1070
     0
1002
}
1002
{
1000
MANEDIT
1070
     0
1002
}
1002
{
1000
NOSEL
1070
     0
1002
}
1002
{
1000
BEHIND
1070
     0
1002
}
1002
{
1000
OTHER
1070
     0
1002
}
1002
{
1000
REACTOR
1002
}
1001
GENIUS_GENOBJ-N-HTC_13
1002
{
1000
OWNER
1000
GEN
1002
}
1001
GENIUS_GENHATCH_13
1002
{
1000
DATA
1040
45.0
1042
2.5
1000
_U
1070
     0
1011
145.1058400677411
1021
0.0
1031
0.0
1021
433.29051750791461
1031
0.0
1002
}
1002
{
1000
UCS
1010
0.0
1020
0.0
1030
0.0
1010
1.0
1020
0.0
1030
0.0
1010
0.0
1020
1.0
1030
0.0
1002
}
1001
ACAD
1010
0.0
1020
0.0
1030
0.0
  0
LINE
  5
13294
  8
OS
 10
171.40000000000009
 20
425.23030252784719
 30
0.0
 11
191.4196974721452
 21
445.24999999999221
 31
0.0
1001
GENIUS_GENODEF_13
1002
{
1000
HIER
1070
     0
1002
}
1002
{
1000
MANEDIT
1070
     0
1002
}
1002
{
1000
NOSEL
1070
     0
1002
}
1002
{
1000
BEHIND
1070
     0
1002
}
1002
{
1000
OTHER
1070
     0
1002
}
1002
{
1000
REACTOR
1002
}
1001
GENIUS_GENOBJ-N-HTC_13
1002
{
1000
OWNER
1000
GEN
1002
}
1001
GENIUS_GENHATCH_13
1002
{
1000
DATA
1040
45.0
1042
2.5
1000
_U
1070
     0
1011
145.1058400677411
1021
0.0
1031
0.0
1021
433.29051750791461
1031
0.0
1002
}
1002
{
1000
UCS
1010
0.0
1020
0.0
1030
0.0
1010
1.0
1020
0.0
1030
0.0
1010
0.0
1020
1.0
1030
0.0
1002
}
1001
ACAD
1010
0.0
1020
0.0
1030
0.0
  0
LINE
  5
13295
  8
OS
 10
177.31919240875661
 20
421.2499999999921
 30
0.0
 11
180.60000000000011
 21
424.5308075912356
 31
0.0
1001
GENIUS_GENODEF_13
1002
{
1000
HIER
1070
     0
1002
}
1002
{
1000
MANEDIT
1070
     0
1002
}
1002
{
1000
NOSEL
1070
     0
1002
}
1002
{
1000
BEHIND
1070
     0
1002
}
1002
{
1000
OTHER
1070
     0
1002
}
1002
{
1000
REACTOR
1002
}
1001
GENIUS_GENOBJ-N-HTC_13
1002
{
1000
OWNER
1000
GEN
1002
}
1001
GENIUS_GENHATCH_13
1002
{
1000
DATA
1040
45.0
1042
2.5
1000
_U
1070
     0
1011
145.1058400677411
1021
0.0
1031
0.0
1021
433.29051750791461
1031
0.0
1002
}
1002
{
1000
UCS
1010
0.0
1020
0.0
1030
0.0
1010
1.0
1020
0.0
1030
0.0
1010
0.0
1020
1.0
1030
0.0
1002
}
1001
ACAD
1010
0.0
1020
0.0
1030
0.0
  0
LINE
  5
13296
  8
OS
 10
183.99999900000009
 20
427.93080659123558
 30
0.0
 11
201.31919240875689
 21
445.24999999999233
 31
0.0
1001
GENIUS_GENODEF_13
1002
{
1000
HIER
1070
     0
1002
}
1002
{
1000
MANEDIT
1070
     0
1002
}
1002
{
1000
NOSEL
1070
     0
1002
}
1002
{
1000
BEHIND
1070
     0
1002
}
1002
{
1000
OTHER
1070
     0
1002
}
1002
{
1000
REACTOR
1002
}
1001
GENIUS_GENOBJ-N-HTC_13
1002
{
1000
OWNER
1000
GEN
1002
}
1001
GENIUS_GENHATCH_13
1002
{
1000
DATA
1040
45.0
1042
2.5
1000
_U
1070
     0
1011
145.1058400677411
1021
0.0
1031
0.0
1021
433.29051750791461
1031
0.0
1002
}
1002
{
1000
UCS
1010
0.0
1020
0.0
1030
0.0
1010
1.0
1020
0.0
1030
0.0
1010
0.0
1020
1.0
1030
0.0
1002
}
1001
ACAD
1010
0.0
1020
0.0
1030
0.0
  0
LINE
  5
13297
  8
OS
 10
187.21868734536829
 20
421.2499999999921
 30
0.0
 11
211.21868734536861
 21
445.24999999999221
 31
0.0
1001
GENIUS_GENODEF_13
1002
{
1000
HIER
1070
     0
1002
}
1002
{
1000
MANEDIT
1070
     0
1002
}
1002
{
1000
NOSEL
1070
     0
1002
}
1002
{
1000
BEHIND
1070
     0
1002
}
1002
{
1000
OTHER
1070
     0
1002
}
1002
{
1000
REACTOR
1002
}
1001
GENIUS_GENOBJ-N-HTC_13
1002
{
1000
OWNER
1000
GEN
1002
}
1001
GENIUS_GENHATCH_13
1002
{
1000
DATA
1040
45.0
1042
2.5
1000
_U
1070
     0
1011
145.1058400677411
1021
0.0
1031
0.0
1021
433.29051750791461
1031
0.0
1002
}
1002
{
1000
UCS
1010
0.0
1020
0.0
1030
0.0
1010
1.0
1020
0.0
1030
0.0
1010
0.0
1020
1.0
1030
0.0
1002
}
1001
ACAD
1010
0.0
1020
0.0
1030
0.0
  0
LINE
  5
13298
  8
OS
 10
197.1181822819801
 20
421.2499999999921
 30
0.0
 11
221.11818228198021
 21
445.24999999999221
 31
0.0
1001
GENIUS_GENODEF_13
1002
{
1000
HIER
1070
     0
1002
}
1002
{
1000
MANEDIT
1070
     0
1002
}
1002
{
1000
NOSEL
1070
     0
1002
}
1002
{
1000
BEHIND
1070
     0
1002
}
1002
{
1000
OTHER
1070
     0
1002
}
1002
{
1000
REACTOR
1002
}
1001
GENIUS_GENOBJ-N-HTC_13
1002
{
1000
OWNER
1000
GEN
1002
}
1001
GENIUS_GENHATCH_13
1002
{
1000
DATA
1040
45.0
1042
2.5
1000
_U
1070
     0
1011
145.1058400677411
1021
0.0
1031
0.0
1021
433.29051750791461
1031
0.0
1002
}
1002
{
1000
UCS
1010
0.0
1020
0.0
1030
0.0
1010
1.0
1020
0.0
1030
0.0
1010
0.0
1020
1.0
1030
0.0
1002
}
1001
ACAD
1010
0.0
1020
0.0
1030
0.0
  0
LINE
  5
13299
  8
OS
 10
207.01767721859181
 20
421.24999999999233
 30
0.0
 11
225.5
 21
439.73232278140051
 31
0.0
1001
GENIUS_GENODEF_13
1002
{
1000
HIER
1070
     0
1002
}
1002
{
1000
MANEDIT
1070
     0
1002
}
1002
{
1000
NOSEL
1070
     0
1002
}
1002
{
1000
BEHIND
1070
     0
1002
}
1002
{
1000
OTHER
1070
     0
1002
}
1002
{
1000
REACTOR
1002
}
1001
GENIUS_GENOBJ-N-HTC_13
1002
{
1000
OWNER
1000
GEN
1002
}
1001
GENIUS_GENHATCH_13
1002
{
1000
DATA
1040
45.0
1042
2.5
1000
_U
1070
     0
1011
145.1058400677411
1021
0.0
1031
0.0
1021
433.29051750791461
1031
0.0
1002
}
1002
{
1000
UCS
1010
0.0
1020
0.0
1030
0.0
1010
1.0
1020
0.0
1030
0.0
1010
0.0
1020
1.0
1030
0.0
1002
}
1001
ACAD
1010
0.0
1020
0.0
1030
0.0
  0
LINE
  5
1329A
  8
OS
 10
216.9171721552035
 20
421.24999999999233
 30
0.0
 11
225.5
 21
429.83282784478871
 31
0.0
1001
GENIUS_GENODEF_13
1002
{
1000
HIER
1070
     0
1002
}
1002
{
1000
MANEDIT
1070
     0
1002
}
1002
{
1000
NOSEL
1070
     0
1002
}
1002
{
1000
BEHIND
1070
     0
1002
}
1002
{
1000
OTHER
1070
     0
1002
}
1002
{
1000
REACTOR
1002
}
1001
GENIUS_GENOBJ-N-HTC_13
1002
{
1000
OWNER
1000
GEN
1002
}
1001
GENIUS_GENHATCH_13
1002
{
1000
DATA
1040
45.0
1042
2.5
1000
_U
1070
     0
1011
145.1058400677411
1021
0.0
1031
0.0
1021
433.29051750791461
1031
0.0
1002
}
1002
{
1000
UCS
1010
0.0
1020
0.0
1030
0.0
1010
1.0
1020
0.0
1030
0.0
1010
0.0
1020
1.0
1030
0.0
1002
}
1001
ACAD
1010
0.0
1020
0.0
1030
0.0
  0
LINE
  5
1329B
  8
SU
 10
64.5
 20
420.24999999999221
 30
0.0
 11
64.5
 21
358.74999999999233
 31
0.0
  0
LINE
  5
1329C
  8
SU
 10
61.5
 20
444.24999999999221
 30
0.0
 11
61.5
 21
358.74999999999233
 31
0.0
  0
LINE
  5
1329D
  8
SU
 10
64.5
 20
361.74999999999233
 30
0.0
 11
61.5
 21
361.74999999999233
 31
0.0
  0
LINE
  5
1329E
  8
SU
 10
61.5
 20
361.74999999999233
 30
0.0
 11
50.226666666666652
 21
361.74999999999233
 31
0.0
  0
ARC
  5
1329F
  8
SU
 10
64.5
 20
361.74999999999233
 30
0.0
 40
0.6
 50
180.0
 51
0.0
  0
ARC
  5
132A0
  8
SU
 10
64.5
 20
361.74999999999233
 30
0.0
 40
0.6
 50
0.0
 51
180.0
  0
ARC
  5
132A1
  8
SU
 10
61.5
 20
361.74999999999233
 30
0.0
 40
0.6
 50
0.0
 51
180.0
  0
ARC
  5
132A2
  8
SU
 10
61.5
 20
361.74999999999233
 30
0.0
 40
0.6
 50
180.0
 51
0.0
  0
TEXT
  5
132A3
  8
SU
 10
50.696666666666658
 20
363.04999999999228
 30
0.0
 40
7.0
  1
3
 41
0.8299999999999999
  0
LINE
  5
132A4
  8
SU
 10
225.5
 20
420.24999999999221
 30
0.0
 11
225.5
 21
358.74999999999233
 31
0.0
  0
LINE
  5
132A5
  8
SU
 10
64.5
 20
361.74999999999233
 30
0.0
 11
225.5
 21
361.74999999999233
 31
0.0
  0
ARC
  5
132A6
  8
SU
 10
225.5
 20
361.74999999999233
 30
0.0
 40
0.6
 50
180.0
 51
0.0
  0
ARC
  5
132A7
  8
SU
 10
225.5
 20
361.74999999999233
 30
0.0
 40
0.6
 50
0.0
 51
180.0
  0
TEXT
  5
132A8
  8
SU
 10
133.5158946353294
 20
363.04999999999228
 30
0.0
 40
7.0
  1
161
 41
0.8299999999999999
  0
LINE
  5
132A9
  8
SU
 10
228.5
 20
444.24999999999221
 30
0.0
 11
228.5
 21
358.74999999999238
 31
0.0
  0
LINE
  5
132AA
  8
SU
 10
225.5
 20
361.74999999999238
 30
0.0
 11
228.5
 21
361.74999999999238
 31
0.0
  0
LINE
  5
132AB
  8
SU
 10
228.5
 20
361.74999999999238
 30
0.0
 11
239.77333333333331
 21
361.74999999999238
 31
0.0
  0
ARC
  5
132AC
  8
SU
 10
228.5
 20
361.74999999999238
 30
0.0
 40
0.6
 50
180.0
 51
0.0
  0
ARC
  5
132AD
  8
SU
 10
228.5
 20
361.74999999999238
 30
0.0
 40
0.6
 50
0.0
 51
180.0
  0
TEXT
  5
132AE
  8
SU
 10
233.77000000000001
 20
363.04999999999239
 30
0.0
 40
7.0
  1
3
 41
0.8299999999999999
  0
LINE
  5
132AF
  8
SU
 10
167.0
 20
410.74999999999221
 30
0.0
 11
167.0
 21
388.74999999999233
 31
0.0
  0
LINE
  5
132B0
  8
SU
 10
64.5
 20
391.74999999999233
 30
0.0
 11
167.0
 21
391.74999999999233
 31
0.0
  0
ARC
  5
132B1
  8
SU
 10
64.5
 20
391.74999999999233
 30
0.0
 40
0.6
 50
0.0
 51
180.0
  0
ARC
  5
132B2
  8
SU
 10
64.5
 20
391.74999999999233
 30
0.0
 40
0.6
 50
180.0
 51
0.0
  0
ARC
  5
132B3
  8
SU
 10
167.0
 20
391.74999999999233
 30
0.0
 40
0.6
 50
180.0
 51
0.0
  0
ARC
  5
132B4
  8
SU
 10
167.0
 20
391.74999999999233
 30
0.0
 40
0.6
 50
0.0
 51
180.0
  0
TEXT
  5
132B5
  8
SU
 10
106.06666666666671
 20
393.04999999999228
 30
0.0
 40
7.0
  1
102.5
 41
0.8299999999999999
  0
LINE
  5
132B6
  8
SU
 10
185.0
 20
410.7499999999921
 30
0.0
 11
185.0
 21
388.74999999999233
 31
0.0
  0
LINE
  5
132B7
  8
SU
 10
167.0
 20
391.74999999999233
 30
0.0
 11
185.0
 21
391.74999999999233
 31
0.0
  0
ARC
  5
132B8
  8
SU
 10
185.0
 20
391.74999999999233
 30
0.0
 40
0.6
 50
180.0
 51
0.0
  0
ARC
  5
132B9
  8
SU
 10
185.0
 20
391.74999999999233
 30
0.0
 40
0.6
 50
0.0
 51
180.0
  0
TEXT
  5
132BA
  8
SU
 10
170.82833333333329
 20
393.04999999999228
 30
0.0
 40
7.0
  1
18
 41
0.8299999999999999
  0
LINE
  5
132BB
  8
SU
 10
187.9999999999998
 20
417.24999999999233
 30
0.0
 11
187.9999999999998
 21
388.7499999999925
 31
0.0
  0
LINE
  5
132BC
  8
SU
 10
185.0
 20
391.74999999999238
 30
0.0
 11
187.9999999999998
 21
391.74999999999238
 31
0.0
  0
LINE
  5
132BD
  8
SU
 10
186.99999999999989
 20
391.74999999999238
 30
0.0
 11
179.6397459621553
 21
376.74999999999233
 31
0.0
  0
LINE
  5
132BE
  8
SU
 10
179.6397459621553
 20
376.74999999999233
 30
0.0
 11
172.8897459621553
 21
376.74999999999233
 31
0.0
  0
TEXT
  5
132BF
  8
SU
 10
173.3597459621553
 20
378.04999999999228
 30
0.0
 40
7.0
  1
3
 41
0.8299999999999999
  0
ARC
  5
132C0
  8
SU
 10
187.9999999999998
 20
391.74999999999238
 30
0.0
 40
0.6
 50
180.0
 51
0.0
  0
ARC
  5
132C1
  8
SU
 10
187.9999999999998
 20
391.74999999999238
 30
0.0
 40
0.6
 50
0.0
 51
180.0
  0
LINE
  5
132C2
  8
SU
 10
221.0
 20
417.24999999999233
 30
0.0
 11
221.0
 21
388.74999999999233
 31
0.0
  0
LINE
  5
132C3
  8
SU
 10
187.9999999999998
 20
391.74999999999233
 30
0.0
 11
221.0
 21
391.74999999999233
 31
0.0
  0
ARC
  5
132C4
  8
SU
 10
221.0
 20
391.74999999999233
 30
0.0
 40
0.6
 50
180.0
 51
0.0
  0
ARC
  5
132C5
  8
SU
 10
221.0
 20
391.74999999999233
 30
0.0
 40
0.6
 50
0.0
 51
180.0
  0
TEXT
  5
132C6
  8
SU
 10
198.96666666666661
 20
393.04999999999228
 30
0.0
 40
7.0
  1
33
 41
0.8299999999999999
  0
LINE
  5
132C7
  8
SU
 10
221.0
 20
391.74999999999238
 30
0.0
 11
225.5
 21
391.74999999999238
 31
0.0
  0
LINE
  5
132C8
  8
SU
 10
245.11659633914741
 20
391.74999999999238
 30
0.0
 11
225.5
 21
391.74999999999238
 31
0.0
  0
TEXT
  5
132C9
  8
SU
 10
230.81326300581401
 20
393.04999999999239
 30
0.0
 40
7.0
  1
4.5
 41
0.8299999999999999
  0
ARC
  5
132CA
  8
SU
 10
225.5
 20
391.74999999999238
 30
0.0
 40
0.6
 50
180.0
 51
0.0
  0
ARC
  5
132CB
  8
SU
 10
225.5
 20
391.74999999999238
 30
0.0
 40
0.6
 50
0.0
 51
180.0
  0
LINE
  5
132CC
  8
KI1
 10
586.99999523162717
 20
444.25000000000841
 30
0.0
 11
742.99999809265
 21
444.25000000000841
 31
0.0
  0
LINE
  5
132CD
  8
KI1
 10
745.5
 20
441.74999809265842
 30
0.0
 11
745.5
 21
429.2500000000083
 31
0.0
  0
LINE
  5
132CE
  8
KI1
 10
584.49999999999989
 20
441.7500057220563
 30
0.0
 11
584.49999999999989
 21
429.2500000000083
 31
0.0
  0
LINE
  5
132CF
  8
KI1
 10
584.49999999999989
 20
441.7500057220563
 30
0.0
 11
586.99999523162717
 21
444.25000000000841
 31
0.0
  0
LINE
  5
132D0
  8
KI1
 10
742.99999809265
 20
444.25000000000841
 30
0.0
 11
745.5
 21
441.74999809265842
 31
0.0
  0
LINE
  5
132D1
  8
KI1
 10
584.49999999999989
 20
429.2500000000083
 30
0.0
 11
745.5
 21
429.2500000000083
 31
0.0
  0
LINE
  5
132D2
  8
OS
 10
590.19848480983546
 20
429.25000000000028
 30
0.0
 11
605.19848480984342
 21
444.2500000000083
 31
0.0
1001
GENIUS_GENOBJ-N-HTC_13
1002
{
1000
OWNER
1000
GEN
1002
}
1001
GENIUS_GENODEF_13
1002
{
1000
HIER
1070
     0
1002
}
1002
{
1000
MANEDIT
1070
     0
1002
}
1002
{
1000
NOSEL
1070
     0
1002
}
1002
{
1000
BEHIND
1070
     0
1002
}
1002
{
1000
OTHER
1070
     0
1002
}
1002
{
1000
REACTOR
1002
}
1001
GENIUS_GENHATCH_13
1002
{
1000
DATA
1040
0.0
1042
0.5
1000
ANSI31
1070
     0
1011
710.05343783821161
1021
0.0
1031
0.0
1021
438.58428874806191
1031
0.0
1002
}
1002
{
1000
UCS
1010
0.0
1020
0.0
1030
0.0
1010
1.0
1020
0.0
1030
0.0
1010
0.0
1020
1.0
1030
0.0
1002
}
1001
ACAD
1010
0.0
1020
0.0
1030
0.0
  0
LINE
  5
132D3
  8
OS
 10
600.09797974645517
 20
429.2500000000083
 30
0.0
 11
615.09797974645505
 21
444.25000000000841
 31
0.0
1001
GENIUS_GENOBJ-N-HTC_13
1002
{
1000
OWNER
1000
GEN
1002
}
1001
GENIUS_GENODEF_13
1002
{
1000
HIER
1070
     0
1002
}
1002
{
1000
MANEDIT
1070
     0
1002
}
1002
{
1000
NOSEL
1070
     0
1002
}
1002
{
1000
BEHIND
1070
     0
1002
}
1002
{
1000
OTHER
1070
     0
1002
}
1002
{
1000
REACTOR
1002
}
1001
GENIUS_GENHATCH_13
1002
{
1000
DATA
1040
0.0
1042
0.5
1000
ANSI31
1070
     0
1011
710.05343783821161
1021
0.0
1031
0.0
1021
438.58428874806191
1031
0.0
1002
}
1002
{
1000
UCS
1010
0.0
1020
0.0
1030
0.0
1010
1.0
1020
0.0
1030
0.0
1010
0.0
1020
1.0
1030
0.0
1002
}
1001
ACAD
1010
0.0
1020
0.0
1030
0.0
  0
LINE
  5
132D4
  8
OS
 10
609.99747468306668
 20
429.2500000000083
 30
0.0
 11
624.9974746830668
 21
444.25000000000841
 31
0.0
1001
GENIUS_GENOBJ-N-HTC_13
1002
{
1000
OWNER
1000
GEN
1002
}
1001
GENIUS_GENODEF_13
1002
{
1000
HIER
1070
     0
1002
}
1002
{
1000
MANEDIT
1070
     0
1002
}
1002
{
1000
NOSEL
1070
     0
1002
}
1002
{
1000
BEHIND
1070
     0
1002
}
1002
{
1000
OTHER
1070
     0
1002
}
1002
{
1000
REACTOR
1002
}
1001
GENIUS_GENHATCH_13
1002
{
1000
DATA
1040
0.0
1042
0.5
1000
ANSI31
1070
     0
1011
710.05343783821161
1021
0.0
1031
0.0
1021
438.58428874806191
1031
0.0
1002
}
1002
{
1000
UCS
1010
0.0
1020
0.0
1030
0.0
1010
1.0
1020
0.0
1030
0.0
1010
0.0
1020
1.0
1030
0.0
1002
}
1001
ACAD
1010
0.0
1020
0.0
1030
0.0
  0
LINE
  5
132D5
  8
OS
 10
619.89696961967854
 20
429.2500000000083
 30
0.0
 11
634.89696961967843
 21
444.2500000000083
 31
0.0
1001
GENIUS_GENOBJ-N-HTC_13
1002
{
1000
OWNER
1000
GEN
1002
}
1001
GENIUS_GENODEF_13
1002
{
1000
HIER
1070
     0
1002
}
1002
{
1000
MANEDIT
1070
     0
1002
}
1002
{
1000
NOSEL
1070
     0
1002
}
1002
{
1000
BEHIND
1070
     0
1002
}
1002
{
1000
OTHER
1070
     0
1002
}
1002
{
1000
REACTOR
1002
}
1001
GENIUS_GENHATCH_13
1002
{
1000
DATA
1040
0.0
1042
0.5
1000
ANSI31
1070
     0
1011
710.05343783821161
1021
0.0
1031
0.0
1021
438.58428874806191
1031
0.0
1002
}
1002
{
1000
UCS
1010
0.0
1020
0.0
1030
0.0
1010
1.0
1020
0.0
1030
0.0
1010
0.0
1020
1.0
1030
0.0
1002
}
1001
ACAD
1010
0.0
1020
0.0
1030
0.0
  0
LINE
  5
132D6
  8
OS
 10
629.79646455629018
 20
429.2500000000083
 30
0.0
 11
644.79646455629006
 21
444.25000000000841
 31
0.0
1001
GENIUS_GENOBJ-N-HTC_13
1002
{
1000
OWNER
1000
GEN
1002
}
1001
GENIUS_GENODEF_13
1002
{
1000
HIER
1070
     0
1002
}
1002
{
1000
MANEDIT
1070
     0
1002
}
1002
{
1000
NOSEL
1070
     0
1002
}
1002
{
1000
BEHIND
1070
     0
1002
}
1002
{
1000
OTHER
1070
     0
1002
}
1002
{
1000
REACTOR
1002
}
1001
GENIUS_GENHATCH_13
1002
{
1000
DATA
1040
0.0
1042
0.5
1000
ANSI31
1070
     0
1011
710.05343783821161
1021
0.0
1031
0.0
1021
438.58428874806191
1031
0.0
1002
}
1002
{
1000
UCS
1010
0.0
1020
0.0
1030
0.0
1010
1.0
1020
0.0
1030
0.0
1010
0.0
1020
1.0
1030
0.0
1002
}
1001
ACAD
1010
0.0
1020
0.0
1030
0.0
  0
LINE
  5
132D7
  8
OS
 10
639.69595949290169
 20
429.2500000000083
 30
0.0
 11
654.69595949290181
 21
444.25000000000841
 31
0.0
1001
GENIUS_GENOBJ-N-HTC_13
1002
{
1000
OWNER
1000
GEN
1002
}
1001
GENIUS_GENODEF_13
1002
{
1000
HIER
1070
     0
1002
}
1002
{
1000
MANEDIT
1070
     0
1002
}
1002
{
1000
NOSEL
1070
     0
1002
}
1002
{
1000
BEHIND
1070
     0
1002
}
1002
{
1000
OTHER
1070
     0
1002
}
1002
{
1000
REACTOR
1002
}
1001
GENIUS_GENHATCH_13
1002
{
1000
DATA
1040
0.0
1042
0.5
1000
ANSI31
1070
     0
1011
710.05343783821161
1021
0.0
1031
0.0
1021
438.58428874806191
1031
0.0
1002
}
1002
{
1000
UCS
1010
0.0
1020
0.0
1030
0.0
1010
1.0
1020
0.0
1030
0.0
1010
0.0
1020
1.0
1030
0.0
1002
}
1001
ACAD
1010
0.0
1020
0.0
1030
0.0
  0
LINE
  5
132D8
  8
OS
 10
649.59545442950537
 20
429.25000000000028
 30
0.0
 11
664.59545442951344
 21
444.25000000000841
 31
0.0
1001
GENIUS_GENOBJ-N-HTC_13
1002
{
1000
OWNER
1000
GEN
1002
}
1001
GENIUS_GENODEF_13
1002
{
1000
HIER
1070
     0
1002
}
1002
{
1000
MANEDIT
1070
     0
1002
}
1002
{
1000
NOSEL
1070
     0
1002
}
1002
{
1000
BEHIND
1070
     0
1002
}
1002
{
1000
OTHER
1070
     0
1002
}
1002
{
1000
REACTOR
1002
}
1001
GENIUS_GENHATCH_13
1002
{
1000
DATA
1040
0.0
1042
0.5
1000
ANSI31
1070
     0
1011
710.05343783821161
1021
0.0
1031
0.0
1021
438.58428874806191
1031
0.0
1002
}
1002
{
1000
UCS
1010
0.0
1020
0.0
1030
0.0
1010
1.0
1020
0.0
1030
0.0
1010
0.0
1020
1.0
1030
0.0
1002
}
1001
ACAD
1010
0.0
1020
0.0
1030
0.0
  0
LINE
  5
132D9
  8
OS
 10
659.494949366117
 20
429.25000000000028
 30
0.0
 11
674.49494936612518
 21
444.25000000000841
 31
0.0
1001
GENIUS_GENOBJ-N-HTC_13
1002
{
1000
OWNER
1000
GEN
1002
}
1001
GENIUS_GENODEF_13
1002
{
1000
HIER
1070
     0
1002
}
1002
{
1000
MANEDIT
1070
     0
1002
}
1002
{
1000
NOSEL
1070
     0
1002
}
1002
{
1000
BEHIND
1070
     0
1002
}
1002
{
1000
OTHER
1070
     0
1002
}
1002
{
1000
REACTOR
1002
}
1001
GENIUS_GENHATCH_13
1002
{
1000
DATA
1040
0.0
1042
0.5
1000
ANSI31
1070
     0
1011
710.05343783821161
1021
0.0
1031
0.0
1021
438.58428874806191
1031
0.0
1002
}
1002
{
1000
UCS
1010
0.0
1020
0.0
1030
0.0
1010
1.0
1020
0.0
1030
0.0
1010
0.0
1020
1.0
1030
0.0
1002
}
1001
ACAD
1010
0.0
1020
0.0
1030
0.0
  0
LINE
  5
132DA
  8
OS
 10
669.39444430272874
 20
429.25000000000028
 30
0.0
 11
684.39444430273682
 21
444.25000000000841
 31
0.0
1001
GENIUS_GENOBJ-N-HTC_13
1002
{
1000
OWNER
1000
GEN
1002
}
1001
GENIUS_GENODEF_13
1002
{
1000
HIER
1070
     0
1002
}
1002
{
1000
MANEDIT
1070
     0
1002
}
1002
{
1000
NOSEL
1070
     0
1002
}
1002
{
1000
BEHIND
1070
     0
1002
}
1002
{
1000
OTHER
1070
     0
1002
}
1002
{
1000
REACTOR
1002
}
1001
GENIUS_GENHATCH_13
1002
{
1000
DATA
1040
0.0
1042
0.5
1000
ANSI31
1070
     0
1011
710.05343783821161
1021
0.0
1031
0.0
1021
438.58428874806191
1031
0.0
1002
}
1002
{
1000
UCS
1010
0.0
1020
0.0
1030
0.0
1010
1.0
1020
0.0
1030
0.0
1010
0.0
1020
1.0
1030
0.0
1002
}
1001
ACAD
1010
0.0
1020
0.0
1030
0.0
  0
LINE
  5
132DB
  8
OS
 10
679.29393923934026
 20
429.25000000000028
 30
0.0
 11
694.29393923934845
 21
444.25000000000841
 31
0.0
1001
GENIUS_GENOBJ-N-HTC_13
1002
{
1000
OWNER
1000
GEN
1002
}
1001
GENIUS_GENODEF_13
1002
{
1000
HIER
1070
     0
1002
}
1002
{
1000
MANEDIT
1070
     0
1002
}
1002
{
1000
NOSEL
1070
     0
1002
}
1002
{
1000
BEHIND
1070
     0
1002
}
1002
{
1000
OTHER
1070
     0
1002
}
1002
{
1000
REACTOR
1002
}
1001
GENIUS_GENHATCH_13
1002
{
1000
DATA
1040
0.0
1042
0.5
1000
ANSI31
1070
     0
1011
710.05343783821161
1021
0.0
1031
0.0
1021
438.58428874806191
1031
0.0
1002
}
1002
{
1000
UCS
1010
0.0
1020
0.0
1030
0.0
1010
1.0
1020
0.0
1030
0.0
1010
0.0
1020
1.0
1030
0.0
1002
}
1001
ACAD
1010
0.0
1020
0.0
1030
0.0
  0
LINE
  5
132DC
  8
OS
 10
689.19343417595201
 20
429.25000000000028
 30
0.0
 11
704.19343417596019
 21
444.25000000000841
 31
0.0
1001
GENIUS_GENOBJ-N-HTC_13
1002
{
1000
OWNER
1000
GEN
1002
}
1001
GENIUS_GENODEF_13
1002
{
1000
HIER
1070
     0
1002
}
1002
{
1000
MANEDIT
1070
     0
1002
}
1002
{
1000
NOSEL
1070
     0
1002
}
1002
{
1000
BEHIND
1070
     0
1002
}
1002
{
1000
OTHER
1070
     0
1002
}
1002
{
1000
REACTOR
1002
}
1001
GENIUS_GENHATCH_13
1002
{
1000
DATA
1040
0.0
1042
0.5
1000
ANSI31
1070
     0
1011
710.05343783821161
1021
0.0
1031
0.0
1021
438.58428874806191
1031
0.0
1002
}
1002
{
1000
UCS
1010
0.0
1020
0.0
1030
0.0
1010
1.0
1020
0.0
1030
0.0
1010
0.0
1020
1.0
1030
0.0
1002
}
1001
ACAD
1010
0.0
1020
0.0
1030
0.0
  0
LINE
  5
132DD
  8
OS
 10
699.09292911257182
 20
429.2500000000083
 30
0.0
 11
714.09292911257182
 21
444.25000000000841
 31
0.0
1001
GENIUS_GENOBJ-N-HTC_13
1002
{
1000
OWNER
1000
GEN
1002
}
1001
GENIUS_GENODEF_13
1002
{
1000
HIER
1070
     0
1002
}
1002
{
1000
MANEDIT
1070
     0
1002
}
1002
{
1000
NOSEL
1070
     0
1002
}
1002
{
1000
BEHIND
1070
     0
1002
}
1002
{
1000
OTHER
1070
     0
1002
}
1002
{
1000
REACTOR
1002
}
1001
GENIUS_GENHATCH_13
1002
{
1000
DATA
1040
0.0
1042
0.5
1000
ANSI31
1070
     0
1011
710.05343783821161
1021
0.0
1031
0.0
1021
438.58428874806191
1031
0.0
1002
}
1002
{
1000
UCS
1010
0.0
1020
0.0
1030
0.0
1010
1.0
1020
0.0
1030
0.0
1010
0.0
1020
1.0
1030
0.0
1002
}
1001
ACAD
1010
0.0
1020
0.0
1030
0.0
  0
LINE
  5
132DE
  8
OS
 10
708.99242404918346
 20
429.2500000000083
 30
0.0
 11
723.99242404918346
 21
444.25000000000841
 31
0.0
1001
GENIUS_GENOBJ-N-HTC_13
1002
{
1000
OWNER
1000
GEN
1002
}
1001
GENIUS_GENODEF_13
1002
{
1000
HIER
1070
     0
1002
}
1002
{
1000
MANEDIT
1070
     0
1002
}
1002
{
1000
NOSEL
1070
     0
1002
}
1002
{
1000
BEHIND
1070
     0
1002
}
1002
{
1000
OTHER
1070
     0
1002
}
1002
{
1000
REACTOR
1002
}
1001
GENIUS_GENHATCH_13
1002
{
1000
DATA
1040
0.0
1042
0.5
1000
ANSI31
1070
     0
1011
710.05343783821161
1021
0.0
1031
0.0
1021
438.58428874806191
1031
0.0
1002
}
1002
{
1000
UCS
1010
0.0
1020
0.0
1030
0.0
1010
1.0
1020
0.0
1030
0.0
1010
0.0
1020
1.0
1030
0.0
1002
}
1001
ACAD
1010
0.0
1020
0.0
1030
0.0
  0
LINE
  5
132DF
  8
OS
 10
718.89191898579509
 20
429.2500000000083
 30
0.0
 11
733.8919189857952
 21
444.25000000000841
 31
0.0
1001
GENIUS_GENOBJ-N-HTC_13
1002
{
1000
OWNER
1000
GEN
1002
}
1001
GENIUS_GENODEF_13
1002
{
1000
HIER
1070
     0
1002
}
1002
{
1000
MANEDIT
1070
     0
1002
}
1002
{
1000
NOSEL
1070
     0
1002
}
1002
{
1000
BEHIND
1070
     0
1002
}
1002
{
1000
OTHER
1070
     0
1002
}
1002
{
1000
REACTOR
1002
}
1001
GENIUS_GENHATCH_13
1002
{
1000
DATA
1040
0.0
1042
0.5
1000
ANSI31
1070
     0
1011
710.05343783821161
1021
0.0
1031
0.0
1021
438.58428874806191
1031
0.0
1002
}
1002
{
1000
UCS
1010
0.0
1020
0.0
1030
0.0
1010
1.0
1020
0.0
1030
0.0
1010
0.0
1020
1.0
1030
0.0
1002
}
1001
ACAD
1010
0.0
1020
0.0
1030
0.0
  0
LINE
  5
132E0
  8
OS
 10
728.79141392240683
 20
429.2500000000083
 30
0.0
 11
743.39570600752825
 21
443.85429208512988
 31
0.0
1001
GENIUS_GENOBJ-N-HTC_13
1002
{
1000
OWNER
1000
GEN
1002
}
1001
GENIUS_GENODEF_13
1002
{
1000
HIER
1070
     0
1002
}
1002
{
1000
MANEDIT
1070
     0
1002
}
1002
{
1000
NOSEL
1070
     0
1002
}
1002
{
1000
BEHIND
1070
     0
1002
}
1002
{
1000
OTHER
1070
     0
1002
}
1002
{
1000
REACTOR
1002
}
1001
GENIUS_GENHATCH_13
1002
{
1000
DATA
1040
0.0
1042
0.5
1000
ANSI31
1070
     0
1011
710.05343783821161
1021
0.0
1031
0.0
1021
438.58428874806191
1031
0.0
1002
}
1002
{
1000
UCS
1010
0.0
1020
0.0
1030
0.0
1010
1.0
1020
0.0
1030
0.0
1010
0.0
1020
1.0
1030
0.0
1002
}
1001
ACAD
1010
0.0
1020
0.0
1030
0.0
  0
LINE
  5
132E1
  8
OS
 10
738.69090885901846
 20
429.2500000000083
 30
0.0
 11
745.5
 21
436.05909114098989
 31
0.0
1001
GENIUS_GENOBJ-N-HTC_13
1002
{
1000
OWNER
1000
GEN
1002
}
1001
GENIUS_GENODEF_13
1002
{
1000
HIER
1070
     0
1002
}
1002
{
1000
MANEDIT
1070
     0
1002
}
1002
{
1000
NOSEL
1070
     0
1002
}
1002
{
1000
BEHIND
1070
     0
1002
}
1002
{
1000
OTHER
1070
     0
1002
}
1002
{
1000
REACTOR
1002
}
1001
GENIUS_GENHATCH_13
1002
{
1000
DATA
1040
0.0
1042
0.5
1000
ANSI31
1070
     0
1011
710.05343783821161
1021
0.0
1031
0.0
1021
438.58428874806191
1031
0.0
1002
}
1002
{
1000
UCS
1010
0.0
1020
0.0
1030
0.0
1010
1.0
1020
0.0
1030
0.0
1010
0.0
1020
1.0
1030
0.0
1002
}
1001
ACAD
1010
0.0
1020
0.0
1030
0.0
  0
LINE
  5
132E2
  8
TE
 10
239.1066017179628
 20
434.64339828235842
 30
0.0
 11
217.8933982820372
 21
455.85660171762601
 31
0.0
  0
LINE
  5
132E3
  8
TE
 10
217.89531974592839
 20
434.64147577363877
 30
0.0
 11
239.10468025407161
 21
455.85852422634571
 31
0.0
  0
LINE
  5
132E4
  8
TE
 10
239.1066017179628
 20
204.6433982823585
 30
0.0
 11
217.8933982820372
 21
225.85660171762601
 31
0.0
  0
LINE
  5
132E5
  8
TE
 10
217.89531974592839
 20
204.6414757736388
 30
0.0
 11
239.10468025407161
 21
225.85852422634571
 31
0.0
  0
LINE
  5
132E6
  8
TE
 10
239.1066017179628
 20
44.643398282358469
 30
0.0
 11
217.8933982820372
 21
65.856601717626063
 31
0.0
  0
LINE
  5
132E7
  8
TE
 10
217.89531974592839
 20
44.641475773638831
 30
0.0
 11
239.10468025407161
 21
65.858524226345693
 31
0.0
  0
LINE
  5
132E8
  8
TE
 10
499.1066017179628
 20
430.64339828236649
 30
0.0
 11
477.8933982820372
 21
451.85660171763408
 31
0.0
  0
LINE
  5
132E9
  8
TE
 10
477.89531974592842
 20
430.6414757736469
 30
0.0
 11
499.10468025407152
 21
451.85852422635372
 31
0.0
  0
LINE
  5
132EA
  8
TE
 10
759.1066017179628
 20
430.64339828236649
 30
0.0
 11
737.89339828203708
 21
451.85660171763408
 31
0.0
  0
LINE
  5
132EB
  8
TE
 10
737.89531974592842
 20
430.6414757736469
 30
0.0
 11
759.10468025407158
 21
451.85852422635372
 31
0.0
  0
LINE
  5
132EC
  8
KI1
 10
185.0
 20
215.2499999999923
 30
0.0
 11
185.0
 21
317.24999999999233
 31
0.0
  0
LINE
  5
132ED
  8
KI1
 10
185.0
 20
319.24999999999233
 30
0.0
 11
185.0
 21
409.74999999999289
 31
0.0
  0
LINE
  5
132EE
  8
KI1
 10
166.99999999999969
 20
409.74999999999289
 30
0.0
 11
166.9999999999998
 21
319.24999999999233
 31
0.0
  0
LINE
  5
132EF
  8
KI1
 10
166.9999999999998
 20
317.24999999999233
 30
0.0
 11
166.99999999999989
 21
260.25932748868371
 31
0.0
  0
LINE
  5
132F0
  8
KI1
 10
166.99999999999989
 20
236.95794637689471
 30
0.0
 11
166.99999999999989
 21
215.2499999999923
 31
0.0
  0
LINE
  5
132F1
  8
KI1
 10
180.59999999999991
 20
421.24999999999289
 30
0.0
 11
180.60000000000031
 21
429.24999999999289
 31
0.0
  0
LINE
  5
132F2
  8
KI1
 10
171.40000000000009
 20
421.24999999999289
 30
0.0
 11
171.40000000000009
 21
429.24999999999289
 31
0.0
  0
LINE
  5
132F3
  8
KI1
 10
168.0000009999998
 20
421.24999999999221
 30
0.0
 11
168.0000009999998
 21
429.24999999999289
 31
0.0
  0
LINE
  5
132F4
  8
KI1
 10
183.99999900000009
 20
421.24999999999233
 30
0.0
 11
183.99999900000009
 21
429.24999999999329
 31
0.0
  0
LINE
  5
132F5
  8
KI1
 10
166.99999999999969
 20
409.74999999999289
 30
0.0
 11
166.99999999999969
 21
421.24989999999298
 31
0.0
  0
LINE
  5
132F6
  8
KI1
 10
168.7999999999997
 20
411.04999999999279
 30
0.0
 11
168.7999999999997
 21
419.2526835830497
 31
0.0
  0
LINE
  5
132F7
  8
KI1
 10
169.50003999999981
 20
428.24987999999257
 30
0.0
 11
170.50003000000009
 21
428.24987999999257
 31
0.0
  0
LINE
  5
132F8
  8
KI1
 10
168.44997999999981
 20
426.24999999999301
 30
0.0
 11
169.10003999999981
 21
426.24999999999301
 31
0.0
  0
LINE
  5
132F9
  8
KI1
 10
168.44997999999981
 20
424.24993999999242
 30
0.0
 11
169.10003999999981
 21
424.24993999999242
 31
0.0
  0
LINE
  5
132FA
  8
KI1
 10
168.44997999999981
 20
422.24987999999252
 30
0.0
 11
169.10003999999981
 21
422.24987999999252
 31
0.0
  0
LINE
  5
132FB
  8
KI1
 10
168.44997999999981
 20
424.24993999999242
 30
0.0
 11
169.10003999999981
 21
426.24999999999301
 31
0.0
  0
LINE
  5
132FC
  8
KI1
 10
168.44997999999981
 20
422.24987999999252
 30
0.0
 11
169.10003999999981
 21
424.24993999999242
 31
0.0
  0
LINE
  5
132FD
  8
KI1
 10
168.44997999999981
 20
426.24999999999301
 30
0.0
 11
169.50003999999981
 21
428.24987999999257
 31
0.0
  0
LINE
  5
132FE
  8
KI1
 10
169.10003999999981
 20
421.0311699999927
 30
0.0
 11
169.10003999999981
 21
422.24987999999252
 31
0.0
  0
LINE
  5
132FF
  8
KI1
 10
166.99999999999969
 20
421.24989999999298
 30
0.0
 11
169.10003999999981
 21
421.0311699999927
 31
0.0
  0
LINE
  5
13300
  8
KI1
 10
170.90003999999971
 20
426.24999999999301
 30
0.0
 11
171.55004000000031
 21
426.24999999999301
 31
0.0
  0
LINE
  5
13301
  8
KI1
 10
170.90003999999971
 20
424.24993999999242
 30
0.0
 11
171.55004000000031
 21
424.24993999999242
 31
0.0
  0
LINE
  5
13302
  8
KI1
 10
170.90003999999971
 20
422.24987999999252
 30
0.0
 11
171.55004000000031
 21
422.24987999999252
 31
0.0
  0
LINE
  5
13303
  8
KI1
 10
170.90003999999971
 20
424.24993999999242
 30
0.0
 11
171.55004000000031
 21
422.24987999999252
 31
0.0
  0
LINE
  5
13304
  8
KI1
 10
170.90003999999971
 20
426.24999999999301
 30
0.0
 11
171.55004000000031
 21
424.24993999999242
 31
0.0
  0
LINE
  5
13305
  8
KI1
 10
170.50003000000009
 20
428.24987999999257
 30
0.0
 11
171.55004000000031
 21
426.24999999999301
 31
0.0
  0
LINE
  5
13306
  8
KI1
 10
170.90003999999971
 20
422.24987999999252
 30
0.0
 11
170.90003999999971
 21
427.48800916181102
 31
0.0
  0
LINE
  5
13307
  8
KI1
 10
168.7999999999997
 20
419.2526835830497
 30
0.0
 11
170.90003999999971
 21
419.03395358304942
 31
0.0
  0
LINE
  5
13308
  8
KI2
 10
170.90003999999971
 20
426.0839070677834
 30
0.0
 11
170.9407788534356
 21
426.12464592121933
 31
0.0
  0
LINE
  5
13309
  8
KI2
 10
170.90003999999971
 20
425.769598103546
 30
0.0
 11
171.01787175954129
 21
425.88742986308762
 31
0.0
  0
LINE
  5
1330A
  8
KI2
 10
170.90003999999971
 20
425.4552891393086
 30
0.0
 11
171.0949646656469
 21
425.6502138049558
 31
0.0
  0
LINE
  5
1330B
  8
KI2
 10
170.90003999999971
 20
425.14098017507121
 30
0.0
 11
171.17205757175259
 21
425.41299774682409
 31
0.0
  0
LINE
  5
1330C
  8
KI2
 10
170.90003999999971
 20
424.82667121083369
 30
0.0
 11
171.24915047785831
 21
425.17578168869233
 31
0.0
  0
LINE
  5
1330D
  8
KI2
 10
170.90003999999971
 20
424.51236224659641
 30
0.0
 11
171.326243383964
 21
424.93856563056062
 31
0.0
  0
LINE
  5
1330E
  8
KI2
 10
170.9519267176332
 20
424.24993999999242
 30
0.0
 11
171.4033362900696
 21
424.7013495724288
 31
0.0
  0
LINE
  5
1330F
  8
KI2
 10
171.2662356818706
 20
424.24993999999242
 30
0.0
 11
171.48042919617529
 21
424.46413351429709
 31
0.0
  0
LINE
  5
13310
  8
KI2
 10
170.90003999999979
 20
427.34114292473322
 30
0.0
 11
170.95060281295179
 21
427.39170573768507
 31
0.0
  0
LINE
  5
13311
  8
KI2
 10
170.90003999999971
 20
427.02683396049582
 30
0.0
 11
171.05881247150961
 21
427.18560643200561
 31
0.0
  0
LINE
  5
13312
  8
KI2
 10
170.90003999999971
 20
426.71252499625831
 30
0.0
 11
171.16702213006741
 21
426.97950712632598
 31
0.0
  0
LINE
  5
13313
  8
KI2
 10
170.90003999999971
 20
426.39821603202091
 30
0.0
 11
171.27523178862529
 21
426.77340782064653
 31
0.0
  0
LINE
  5
13314
  8
KI2
 10
171.0661329322092
 20
426.24999999999301
 30
0.0
 11
171.3834414471832
 21
426.5673085149669
 31
0.0
  0
LINE
  5
13315
  8
KI2
 10
171.3804418964466
 20
426.24999999999301
 30
0.0
 11
171.491651105741
 21
426.36120920928732
 31
0.0
  0
LINE
  5
13316
  8
KI2
 10
170.90003999999979
 20
424.19805328235901
 30
0.0
 11
170.9127666425897
 21
424.21077992494878
 31
0.0
  0
LINE
  5
13317
  8
KI2
 10
170.90003999999971
 20
423.8837443181215
 30
0.0
 11
170.98985954869531
 21
423.97356386681707
 31
0.0
  0
LINE
  5
13318
  8
KI2
 10
170.90003999999971
 20
423.5694353538841
 30
0.0
 11
171.066952454801
 21
423.73634780868531
 31
0.0
  0
LINE
  5
13319
  8
KI2
 10
170.90003999999971
 20
423.2551263896467
 30
0.0
 11
171.14404536090669
 21
423.4991317505536
 31
0.0
  0
LINE
  5
1331A
  8
KI2
 10
170.90003999999971
 20
422.94081742540931
 30
0.0
 11
171.22113826701241
 21
423.26191569242189
 31
0.0
  0
LINE
  5
1331B
  8
KI2
 10
170.90003999999971
 20
422.6265084611718
 30
0.0
 11
171.2982311731181
 21
423.02469963429019
 31
0.0
  0
LINE
  5
1331C
  8
KI2
 10
170.90003999999971
 20
422.31219949693451
 30
0.0
 11
171.37532407922379
 21
422.78748357615848
 31
0.0
  0
LINE
  5
1331D
  8
KI2
 10
171.15202946729531
 20
422.24987999999257
 30
0.0
 11
171.45241698532951
 21
422.55026751802683
 31
0.0
  0
LINE
  5
1331E
  8
KI2
 10
171.46633843153271
 20
422.24987999999252
 30
0.0
 11
171.5295098914352
 21
422.31305145989501
 31
0.0
  0
LINE
  5
1331F
  8
KI1
 10
170.90003999999971
 20
419.03395358304942
 30
0.0
 11
170.90003999999971
 21
422.24987999999252
 31
0.0
  0
LINE
  5
13320
  8
KI1
 10
181.09996000000001
 20
419.03395358304942
 30
0.0
 11
181.09996000000001
 21
422.24987999999252
 31
0.0
  0
LINE
  5
13321
  8
KI2
 10
180.5336615684671
 20
422.2498799999924
 30
0.0
 11
180.47049010856449
 21
422.31305145989512
 31
0.0
  0
LINE
  5
13322
  8
KI2
 10
180.84797053270449
 20
422.24987999999252
 30
0.0
 11
180.54758301467021
 21
422.55026751802683
 31
0.0
  0
LINE
  5
13323
  8
KI2
 10
181.09996000000001
 20
422.31219949693451
 30
0.0
 11
180.6246759207759
 21
422.78748357615859
 31
0.0
  0
LINE
  5
13324
  8
KI2
 10
181.09996000000001
 20
422.62650846117191
 30
0.0
 11
180.70176882688159
 21
423.0246996342903
 31
0.0
  0
LINE
  5
13325
  8
KI2
 10
181.09996000000001
 20
422.94081742540931
 30
0.0
 11
180.77886173298731
 21
423.26191569242189
 31
0.0
  0
LINE
  5
13326
  8
KI2
 10
181.09996000000001
 20
423.2551263896467
 30
0.0
 11
180.855954639093
 21
423.49913175055372
 31
0.0
  0
LINE
  5
13327
  8
KI2
 10
181.09996000000001
 20
423.5694353538841
 30
0.0
 11
180.93304754519869
 21
423.73634780868531
 31
0.0
  0
LINE
  5
13328
  8
KI2
 10
181.09996000000001
 20
423.8837443181215
 30
0.0
 11
181.01014045130441
 21
423.97356386681707
 31
0.0
  0
LINE
  5
13329
  8
KI2
 10
181.09996000000001
 20
424.19805328235901
 30
0.0
 11
181.0872333574101
 21
424.21077992494878
 31
0.0
  0
LINE
  5
1332A
  8
KI2
 10
180.6195581035532
 20
426.24999999999289
 30
0.0
 11
180.50834889425869
 21
426.36120920928732
 31
0.0
  0
LINE
  5
1332B
  8
KI2
 10
180.9338670677906
 20
426.24999999999289
 30
0.0
 11
180.6165585528166
 21
426.5673085149669
 31
0.0
  0
LINE
  5
1332C
  8
KI2
 10
181.09996000000001
 20
426.39821603202091
 30
0.0
 11
180.7247682113744
 21
426.77340782064653
 31
0.0
  0
LINE
  5
1332D
  8
KI2
 10
181.09996000000001
 20
426.71252499625842
 30
0.0
 11
180.83297786993231
 21
426.9795071263261
 31
0.0
  0
LINE
  5
1332E
  8
KI2
 10
181.09996000000001
 20
427.02683396049582
 30
0.0
 11
180.9411875284901
 21
427.18560643200561
 31
0.0
  0
LINE
  5
1332F
  8
KI2
 10
181.09996000000001
 20
427.34114292473322
 30
0.0
 11
181.04939718704799
 21
427.39170573768507
 31
0.0
  0
LINE
  5
13330
  8
KI2
 10
180.7337643181292
 20
424.24993999999242
 30
0.0
 11
180.51957080382439
 21
424.46413351429709
 31
0.0
  0
LINE
  5
13331
  8
KI2
 10
181.0480732823666
 20
424.24993999999242
 30
0.0
 11
180.59666370993011
 21
424.70134957242891
 31
0.0
  0
LINE
  5
13332
  8
KI2
 10
181.09996000000001
 20
424.51236224659641
 30
0.0
 11
180.67375661603569
 21
424.93856563056062
 31
0.0
  0
LINE
  5
13333
  8
KI2
 10
181.09996000000001
 20
424.82667121083369
 30
0.0
 11
180.75084952214141
 21
425.17578168869233
 31
0.0
  0
LINE
  5
13334
  8
KI2
 10
181.09996000000001
 20
425.14098017507121
 30
0.0
 11
180.8279424282471
 21
425.41299774682409
 31
0.0
  0
LINE
  5
13335
  8
KI2
 10
181.09996000000001
 20
425.45528913930872
 30
0.0
 11
180.90503533435279
 21
425.65021380495591
 31
0.0
  0
LINE
  5
13336
  8
KI2
 10
181.09996000000001
 20
425.769598103546
 30
0.0
 11
180.98212824045839
 21
425.88742986308762
 31
0.0
  0
LINE
  5
13337
  8
KI2
 10
181.09996000000001
 20
426.0839070677834
 30
0.0
 11
181.05922114656411
 21
426.12464592121933
 31
0.0
  0
LINE
  5
13338
  8
KI1
 10
183.19999999999999
 20
419.2526835830497
 30
0.0
 11
181.09996000000001
 21
419.03395358304942
 31
0.0
  0
ARC
  5
13339
  8
KI1
 10
167.4999999999998
 20
409.74999999999289
 30
0.0
 40
0.5
 50
180.0
 51
270.0
  0
ARC
  5
1333A
  8
KI1
 10
167.4999999999998
 20
409.74999999999289
 30
0.0
 40
0.5
 50
270.0
 51
270.0
  0
ARC
  5
1333B
  8
KI1
 10
184.5
 20
409.74999999999289
 30
0.0
 40
0.5
 50
270.0
 51
0.0
  0
LINE
  5
1333C
  8
KI1
 10
183.19999999999999
 20
411.04999999999291
 30
0.0
 11
183.19999999999999
 21
419.2526835830497
 31
0.0
  0
LINE
  5
1333D
  8
KI1
 10
183.19999999999999
 20
411.04999999999291
 30
0.0
 11
168.7999999999997
 21
411.04999999999279
 31
0.0
  0
LINE
  5
1333E
  8
KI1
 10
181.09996000000001
 20
422.24987999999252
 30
0.0
 11
181.09996000000001
 21
427.48800916181102
 31
0.0
  0
LINE
  5
1333F
  8
KI1
 10
181.49996999999959
 20
428.24987999999257
 30
0.0
 11
180.44995999999941
 21
426.24999999999301
 31
0.0
  0
LINE
  5
13340
  8
KI1
 10
181.09996000000001
 20
426.24999999999301
 30
0.0
 11
180.44995999999941
 21
424.24993999999242
 31
0.0
  0
LINE
  5
13341
  8
KI1
 10
181.09996000000001
 20
424.24993999999242
 30
0.0
 11
180.44995999999941
 21
422.24987999999252
 31
0.0
  0
LINE
  5
13342
  8
KI1
 10
181.09996000000001
 20
422.24987999999252
 30
0.0
 11
180.44995999999941
 21
422.24987999999252
 31
0.0
  0
LINE
  5
13343
  8
KI1
 10
181.09996000000001
 20
424.24993999999242
 30
0.0
 11
180.44995999999941
 21
424.24993999999242
 31
0.0
  0
LINE
  5
13344
  8
KI1
 10
181.09996000000001
 20
426.24999999999301
 30
0.0
 11
180.44995999999941
 21
426.24999999999301
 31
0.0
  0
LINE
  5
13345
  8
KI1
 10
185.0
 20
421.24989999999298
 30
0.0
 11
182.89995999999991
 21
421.0311699999927
 31
0.0
  0
LINE
  5
13346
  8
KI1
 10
182.89995999999991
 20
421.0311699999927
 30
0.0
 11
182.89995999999991
 21
422.24987999999252
 31
0.0
  0
LINE
  5
13347
  8
KI1
 10
183.55001999999999
 20
426.24999999999301
 30
0.0
 11
182.49995999999999
 21
428.24987999999257
 31
0.0
  0
LINE
  5
13348
  8
KI1
 10
183.55001999999999
 20
422.24987999999252
 30
0.0
 11
182.89995999999991
 21
424.24993999999242
 31
0.0
  0
LINE
  5
13349
  8
KI1
 10
183.55001999999999
 20
424.24993999999242
 30
0.0
 11
182.89995999999991
 21
426.24999999999301
 31
0.0
  0
LINE
  5
1334A
  8
KI1
 10
183.55001999999999
 20
422.24987999999252
 30
0.0
 11
182.89995999999991
 21
422.24987999999252
 31
0.0
  0
LINE
  5
1334B
  8
KI1
 10
183.55001999999999
 20
424.24993999999242
 30
0.0
 11
182.89995999999991
 21
424.24993999999242
 31
0.0
  0
LINE
  5
1334C
  8
KI1
 10
183.55001999999999
 20
426.24999999999301
 30
0.0
 11
182.89995999999991
 21
426.24999999999301
 31
0.0
  0
LINE
  5
1334D
  8
KI1
 10
182.49995999999999
 20
428.24987999999257
 30
0.0
 11
181.49996999999959
 21
428.24987999999257
 31
0.0
  0
LINE
  5
1334E
  8
KI1
 10
185.0
 20
409.74999999999289
 30
0.0
 11
185.0
 21
421.24989999999298
 31
0.0
  0
LINE
  5
1334F
  8
KI1
 10
184.5
 20
409.24999999999289
 30
0.0
 11
167.4999999999998
 21
409.24999999999289
 31
0.0
  0
LINE
  5
13350
  8
KI1
 10
180.59999999999991
 20
421.24999999999289
 30
0.0
 11
171.40000000000009
 21
421.24999999999289
 31
0.0
  0
LINE
  5
13351
  8
KI1
 10
180.60000000000031
 20
429.24999999999289
 30
0.0
 11
183.99999900000009
 21
429.24999999999289
 31
0.0
  0
LINE
  5
13352
  8
KI1
 10
168.0000009999998
 20
429.24999999999289
 30
0.0
 11
171.40000000000009
 21
429.24999999999289
 31
0.0
  0
LINE
  5
13353
  8
KI1
 10
184.99999999999989
 20
60.049999999992217
 30
0.0
 11
184.99999999999989
 21
165.2499999999923
 31
0.0
  0
LINE
  5
13354
  8
KI1
 10
166.9999999999998
 20
165.2499999999923
 30
0.0
 11
166.9999999999998
 21
60.04999999999221
 31
0.0
  0
TEXT
  5
13358
  8
SU
 10
282.19999999999999
 20
218.6145929224684
 30
0.0
 40
7.0
  1
8
 50
90.0
 41
0.8299999999999999
  0
LINE
  5
13359
  8
KI1
 10
444.99999999999989
 20
441.25000000000028
 30
0.0
 11
444.99999999999989
 21
521.25000000000034
 31
0.0
  0
LINE
  5
1335A
  8
KI1
 10
426.99999999999972
 20
521.25000000000034
 30
0.0
 11
426.99999999999972
 21
486.25932748869172
 31
0.0
  0
LINE
  5
1335B
  8
KI1
 10
426.99999999999972
 20
462.95794637690278
 30
0.0
 11
426.99999999999972
 21
441.25000000000028
 31
0.0
  0
TEXT
  5
1335D
  8
SU
 10
542.1999999999997
 20
444.75682442043433
 30
0.0
 40
7.0
  1
8
 50
90.0
 41
0.8299999999999999
  0
TEXT
  5
1335E
  8
SU
 10
787.1999999999997
 20
445.0177339610903
 30
0.0
 40
7.0
  1
7
 50
90.0
 41
0.8299999999999999
  0
LINE
  5
13361
  8
KI1
 10
705.0
 20
444.25000000000841
 30
0.0
 11
705.0
 21
521.25000000000034
 31
0.0
  0
LINE
  5
13362
  8
KI1
 10
686.99999999999989
 20
521.25000000000034
 30
0.0
 11
686.99999999999989
 21
444.25000000000841
 31
0.0
  0
LINE
  5
13363
  8
OS
 10
64.5
 20
437.12424176718707
 30
0.0
 11
72.625758232805211
 21
445.24999999999238
 31
0.0
1001
ACAD
1010
0.0
1020
0.0
1030
0.0
1001
GENIUS_GENODEF_13
1002
{
1000
HIER
1070
     0
1002
}
1002
{
1000
MANEDIT
1070
     0
1002
}
1002
{
1000
NOSEL
1070
     0
1002
}
1002
{
1000
BEHIND
1070
     0
1002
}
1002
{
1000
OTHER
1070
     0
1002
}
1002
{
1000
REACTOR
1002
}
1001
GENIUS_GENOBJ-N-HTC_13
1002
{
1000
OWNER
1000
GEN
1002
}
1001
GENIUS_GENHATCH_13
1002
{
1000
DATA
1040
45.0
1042
2.5
1000
_U
1070
     0
1011
135.2063451311295
1021
0.0
1031
0.0
1021
433.29051750791461
1031
0.0
1002
}
1002
{
1000
UCS
1010
0.0
1020
0.0
1030
0.0
1010
1.0
1020
0.0
1030
0.0
1010
0.0
1020
1.0
1030
0.0
1002
}
  0
LINE
  5
13364
  8
SU
 10
72.5
 20
487.25000000000028
 30
0.0
 11
72.5
 21
524.25000000000034
 31
0.0
  0
LINE
  5
13365
  8
SU
 10
61.5
 20
446.24999999999233
 30
0.0
 11
61.5
 21
524.25000000000034
 31
0.0
  0
LINE
  5
13366
  8
SU
 10
72.5
 20
521.25000000000034
 30
0.0
 11
61.5
 21
521.25000000000034
 31
0.0
  0
ARC
  5
13367
  8
SU
 10
72.5
 20
521.25000000000034
 30
0.0
 40
0.6
 50
180.0
 51
0.0
  0
ARC
  5
13368
  8
SU
 10
72.5
 20
521.25000000000034
 30
0.0
 40
0.6
 50
0.0
 51
180.0
  0
ARC
  5
13369
  8
SU
 10
61.5
 20
521.25000000000034
 30
0.0
 40
0.6
 50
0.0
 51
180.0
  0
ARC
  5
1336A
  8
SU
 10
61.5
 20
521.25000000000034
 30
0.0
 40
0.6
 50
180.0
 51
0.0
  0
TEXT
  5
1336B
  8
SU
 10
61.881666666666661
 20
522.55000000000018
 30
0.0
 40
7.0
  1
11
 41
0.8299999999999999
  0
LINE
  5
1336C
  8
SU
 10
217.49999999999969
 20
487.25000000000028
 30
0.0
 11
217.49999999999969
 21
524.25000000000034
 31
0.0
  0
LINE
  5
1336D
  8
SU
 10
72.5
 20
521.25000000000034
 30
0.0
 11
217.49999999999969
 21
521.25000000000034
 31
0.0
  0
ARC
  5
1336E
  8
SU
 10
217.49999999999969
 20
521.25000000000034
 30
0.0
 40
0.6
 50
180.0
 51
0.0
  0
ARC
  5
1336F
  8
SU
 10
217.49999999999969
 20
521.25000000000034
 30
0.0
 40
0.6
 50
0.0
 51
180.0
  0
TEXT
  5
13370
  8
SU
 10
136.2849999999998
 20
522.55000000000018
 30
0.0
 40
7.0
  1
145
 41
0.8299999999999999
  0
LINE
  5
13371
  8
SU
 10
228.5
 20
446.24999999999233
 30
0.0
 11
228.5
 21
524.25000000000045
 31
0.0
  0
LINE
  5
13372
  8
SU
 10
217.49999999999969
 20
521.25000000000045
 30
0.0
 11
228.5
 21
521.25000000000045
 31
0.0
  0
ARC
  5
13373
  8
SU
 10
228.5
 20
521.25000000000045
 30
0.0
 40
0.6
 50
180.0
 51
0.0
  0
ARC
  5
13374
  8
SU
 10
228.5
 20
521.25000000000045
 30
0.0
 40
0.6
 50
0.0
 51
180.0
  0
TEXT
  5
13375
  8
SU
 10
217.88166666666649
 20
522.5500000000003
 30
0.0
 40
7.0
  1
11
 41
0.8299999999999999
  0
LINE
  5
13376
  8
SU
 10
85.0
 20
487.25000000000028
 30
0.0
 11
85.0
 21
509.25000000000028
 31
0.0
  0
LINE
  5
13377
  8
SU
 10
204.99999999999969
 20
487.25000000000028
 30
0.0
 11
204.99999999999969
 21
509.25000000000028
 31
0.0
  0
LINE
  5
13378
  8
SU
 10
85.0
 20
506.25000000000028
 30
0.0
 11
204.99999999999969
 21
506.25000000000028
 31
0.0
  0
ARC
  5
13379
  8
SU
 10
85.0
 20
506.25000000000028
 30
0.0
 40
0.6
 50
0.0
 51
180.0
  0
ARC
  5
1337A
  8
SU
 10
85.0
 20
506.25000000000028
 30
0.0
 40
0.6
 50
180.0
 51
0.0
  0
ARC
  5
1337B
  8
SU
 10
204.99999999999969
 20
506.25000000000028
 30
0.0
 40
0.6
 50
180.0
 51
0.0
  0
ARC
  5
1337C
  8
SU
 10
204.99999999999969
 20
506.25000000000028
 30
0.0
 40
0.6
 50
0.0
 51
180.0
  0
TEXT
  5
1337D
  8
SU
 10
136.2849999999998
 20
507.55000000000041
 30
0.0
 40
7.0
  1
120
 41
0.8299999999999999
  0
LINE
  5
1337E
  8
SU
 10
85.0
 20
506.2500000000004
 30
0.0
 11
72.5
 21
506.2500000000004
 31
0.0
  0
LINE
  5
1337F
  8
SU
 10
40.495113612111368
 20
506.2500000000004
 30
0.0
 11
72.5
 21
506.2500000000004
 31
0.0
  0
TEXT
  5
13380
  8
SU
 10
40.135113612111383
 20
507.55000000000052
 30
0.0
 40
7.0
  1
12.5
 41
0.8299999999999999
  0
ARC
  5
13381
  8
SU
 10
72.5
 20
506.2500000000004
 30
0.0
 40
0.6
 50
0.0
 51
180.0
  0
ARC
  5
13382
  8
SU
 10
72.5
 20
506.2500000000004
 30
0.0
 40
0.6
 50
180.0
 51
0.0
  0
LINE
  5
13383
  8
SU
 10
204.99999999999969
 20
506.2500000000004
 30
0.0
 11
217.49999999999969
 21
506.2500000000004
 31
0.0
  0
LINE
  5
13384
  8
SU
 10
249.5394439712681
 20
506.2500000000004
 30
0.0
 11
217.49999999999969
 21
506.2500000000004
 31
0.0
  0
TEXT
  5
13385
  8
SU
 10
229.7027773046014
 20
507.55000000000052
 30
0.0
 40
7.0
  1
12.5
 41
0.8299999999999999
  0
ARC
  5
13386
  8
SU
 10
217.49999999999969
 20
506.2500000000004
 30
0.0
 40
0.6
 50
180.0
 51
0.0
  0
ARC
  5
13387
  8
SU
 10
217.49999999999969
 20
506.2500000000004
 30
0.0
 40
0.6
 50
0.0
 51
180.0
  0
LINE
  5
13388
  8
OS
 10
171.400107558927
 20
486.25000000000028
 30
0.0
 11
85.000053405761946
 21
450.24986219405349
 31
0.0
  0
LINE
  5
13389
  8
OS
 10
215.5
 20
486.25000000000028
 30
0.0
 11
215.5
 21
445.24999999999221
 31
0.0
  0
LINE
  5
1338A
  8
OS
 10
207.0
 20
486.25000000000028
 30
0.0
 11
207.0
 21
445.24999999999221
 31
0.0
  0
LINE
  5
1338B
  8
OS
 10
217.5
 20
486.25000000000028
 30
0.0
 11
217.5
 21
445.24999999999221
 31
0.0
  0
LINE
  5
1338C
  8
OS
 10
205.0
 20
486.25000000000028
 30
0.0
 11
205.0
 21
445.24999999999221
 31
0.0
  0
LINE
  5
1338D
  8
OS
 10
72.5
 20
486.25000000000028
 30
0.0
 11
72.5
 21
445.24999999999221
 31
0.0
  0
LINE
  5
1338E
  8
OS
 10
83.0
 20
486.25000000000028
 30
0.0
 11
83.0
 21
445.24999999999221
 31
0.0
  0
LINE
  5
1338F
  8
OS
 10
74.5
 20
486.25000000000028
 30
0.0
 11
74.5
 21
445.24999999999221
 31
0.0
  0
LINE
  5
13390
  8
OS
 10
85.0
 20
486.25000000000028
 30
0.0
 11
85.0
 21
445.24999999999221
 31
0.0
  0
LINE
  5
13391
  8
OS
 10
205.0
 20
450.24999999999233
 30
0.0
 11
85.0
 21
450.24999999999233
 31
0.0
  0
LINE
  5
13392
  8
OS
 10
217.5
 20
445.24999999999221
 30
0.0
 11
72.5
 21
445.24999999999221
 31
0.0
  0
LINE
  5
13393
  8
OS
 10
205.00000762939399
 20
445.25004438841597
 30
0.0
 11
85.0
 21
450.25004482268508
 31
0.0
  0
LINE
  5
13394
  8
OS
 10
584.49999999999989
 20
433.45101012677662
 30
0.0
 11
595.29898987323156
 21
444.2500000000083
 31
0.0
1001
ACAD
1010
0.0
1020
0.0
1030
0.0
1001
GENIUS_GENOBJ-N-HTC_13
1002
{
1000
OWNER
1000
GEN
1002
}
1001
GENIUS_GENODEF_13
1002
{
1000
HIER
1070
     0
1002
}
1002
{
1000
MANEDIT
1070
     0
1002
}
1002
{
1000
NOSEL
1070
     0
1002
}
1002
{
1000
BEHIND
1070
     0
1002
}
1002
{
1000
OTHER
1070
     0
1002
}
1002
{
1000
REACTOR
1002
}
1001
GENIUS_GENHATCH_13
1002
{
1000
DATA
1040
0.0
1042
0.5
1000
ANSI31
1070
     0
1011
700.15394290159975
1021
0.0
1031
0.0
1021
438.58428874806191
1031
0.0
1002
}
1002
{
1000
UCS
1010
0.0
1020
0.0
1030
0.0
1010
1.0
1020
0.0
1030
0.0
1010
0.0
1020
1.0
1030
0.0
1002
}
  0
LINE
  5
13649
  8
KI1
 10
708.49999999999989
 20
254.75004891630491
 30
0.0
 11
708.49999999999989
 21
358.74999999999869
 31
0.0
  0
LINE
  5
1364A
  8
KI1
 10
708.49999999999989
 20
196.74999999999861
 30
0.0
 11
708.49999999999989
 21
238.7500509163047
 31
0.0
  0
LINE
  5
1364B
  8
KI1
 10
711.0
 20
361.24999999999858
 30
0.0
 11
732.5
 21
361.24999999999858
 31
0.0
  0
LINE
  5
1364C
  8
KI1
 10
711.0
 20
361.24999999999858
 30
0.0
 11
708.49999999999989
 21
358.74999999999869
 31
0.0
1001
GENIUS_GENFIL_13
1070
     0
1040
2.5
1040
2.5
1040
20.0
1040
0.0
1002
{
1002
}
1001
GENIUS_GENOBJ-N-CHA_13
1002
{
1000
OWNER
1000
GEN
1002
}
1001
GENIUS_GENODEF_13
1002
{
1000
HIER
1070
     0
1002
}
1002
{
1000
MANEDIT
1070
     0
1002
}
1002
{
1000
NOSEL
1070
     0
1002
}
1002
{
1000
BEHIND
1070
     0
1002
}
1002
{
1000
OTHER
1070
     0
1002
}
1002
{
1000
REACTOR
1002
}
  0
LINE
  5
1364D
  8
KI1
 10
732.5
 20
361.25
 30
0.0
 11
732.49999999999989
 21
194.24999999999861
 31
0.0
  0
LINE
  5
1364E
  8
KI1
 10
732.49999999999989
 20
194.24999999999861
 30
0.0
 11
710.99999999999989
 21
194.24999999999861
 31
0.0
  0
LINE
  5
1364F
  8
KI1
 10
710.99999999999989
 20
194.24999999999861
 30
0.0
 11
708.49999999999989
 21
196.74999999999861
 31
0.0
1001
GENIUS_GENFIL_13
1070
     0
1040
2.5
1040
2.5
1040
20.0
1040
0.0
1002
{
1002
}
1001
GENIUS_GENOBJ-N-CHA_13
1002
{
1000
OWNER
1000
GEN
1002
}
1001
GENIUS_GENODEF_13
1002
{
1000
HIER
1070
     0
1002
}
1002
{
1000
MANEDIT
1070
     0
1002
}
1002
{
1000
NOSEL
1070
     0
1002
}
1002
{
1000
BEHIND
1070
     0
1002
}
1002
{
1000
OTHER
1070
     0
1002
}
1002
{
1000
REACTOR
1002
}
  0
LINE
  5
13650
  8
OS
 10
719.10808101421321
 20
194.24999999999861
 30
0.0
 11
708.49999999999989
 21
204.8580810142119
 31
0.0
1001
ACAD
1010
0.0
1020
0.0
1030
0.0
  0
LINE
  5
13651
  8
OS
 10
729.00757595082473
 20
194.24999999999861
 30
0.0
 11
708.49999999999989
 21
214.75757595082359
 31
0.0
1001
ACAD
1010
0.0
1020
0.0
1030
0.0
  0
LINE
  5
13652
  8
OS
 10
732.5
 20
200.65707088743511
 30
0.0
 11
708.49999999999989
 21
224.6570708874352
 31
0.0
1001
ACAD
1010
0.0
1020
0.0
1030
0.0
  0
LINE
  5
13653
  8
OS
 10
732.5
 20
210.5565658240468
 30
0.0
 11
708.49999999999989
 21
234.55656582404691
 31
0.0
1001
ACAD
1010
0.0
1020
0.0
1030
0.0
  0
LINE
  5
13654
  8
OS
 10
732.5
 20
220.4560607606584
 30
0.0
 11
714.20600984435384
 21
238.7500509163047
 31
0.0
1001
ACAD
1010
0.0
1020
0.0
1030
0.0
  0
LINE
  5
13655
  8
OS
 10
710.80601084435375
 20
242.15004991630471
 30
0.0
 11
708.49999999999977
 21
244.4560607606586
 31
0.0
1001
ACAD
1010
0.0
1020
0.0
1030
0.0
  0
LINE
  5
13656
  8
OS
 10
732.5
 20
230.35555569727009
 30
0.0
 11
711.50550578096545
 21
251.3500499163047
 31
0.0
1001
ACAD
1010
0.0
1020
0.0
1030
0.0
  0
LINE
  5
13657
  8
OS
 10
732.5
 20
240.25505063388181
 30
0.0
 11
708.49999999999977
 21
264.25505063388192
 31
0.0
1001
ACAD
1010
0.0
1020
0.0
1030
0.0
  0
LINE
  5
13658
  8
OS
 10
732.5
 20
250.15454557049341
 30
0.0
 11
708.49999999999989
 21
274.1545455704935
 31
0.0
1001
ACAD
1010
0.0
1020
0.0
1030
0.0
  0
LINE
  5
13659
  8
OS
 10
732.5
 20
260.05404050710501
 30
0.0
 11
708.49999999999989
 21
284.05404050710519
 31
0.0
1001
ACAD
1010
0.0
1020
0.0
1030
0.0
  0
LINE
  5
1365A
  8
OS
 10
732.5
 20
269.95353544371682
 30
0.0
 11
708.49999999999989
 21
293.95353544371687
 31
0.0
1001
ACAD
1010
0.0
1020
0.0
1030
0.0
  0
LINE
  5
1365B
  8
OS
 10
732.5
 20
279.85303038032839
 30
0.0
 11
708.49999999999989
 21
303.85303038032851
 31
0.0
1001
ACAD
1010
0.0
1020
0.0
1030
0.0
  0
LINE
  5
1365C
  8
OS
 10
732.5
 20
289.75252531694008
 30
0.0
 11
708.49999999999989
 21
313.75252531694019
 31
0.0
1001
ACAD
1010
0.0
1020
0.0
1030
0.0
  0
LINE
  5
1365D
  8
OS
 10
732.5
 20
299.65202025355171
 30
0.0
 11
708.49999999999989
 21
323.65202025355188
 31
0.0
1001
ACAD
1010
0.0
1020
0.0
1030
0.0
  0
LINE
  5
1365E
  8
OS
 10
732.5
 20
309.5515151901634
 30
0.0
 11
708.49999999999989
 21
333.55151519016351
 31
0.0
1001
ACAD
1010
0.0
1020
0.0
1030
0.0
  0
LINE
  5
1365F
  8
OS
 10
732.5
 20
319.45101012677497
 30
0.0
 11
708.49999999999989
 21
343.45101012677509
 31
0.0
1001
ACAD
1010
0.0
1020
0.0
1030
0.0
  0
LINE
  5
13660
  8
OS
 10
732.5
 20
329.35050506338678
 30
0.0
 11
708.49999999999989
 21
353.35050506338689
 31
0.0
1001
ACAD
1010
0.0
1020
0.0
1030
0.0
  0
LINE
  5
13661
  8
OS
 10
732.5
 20
339.24999999999841
 30
0.0
 11
710.74999999999989
 21
360.99999999999858
 31
0.0
1001
ACAD
1010
0.0
1020
0.0
1030
0.0
  0
LINE
  5
13662
  8
KI1
 10
456.49999999999989
 20
254.75004891630491
 30
0.0
 11
456.49999999999977
 21
358.75
 31
0.0
  0
LINE
  5
13663
  8
KI1
 10
456.49999999999977
 20
196.75
 30
0.0
 11
456.49999999999977
 21
238.7500509163047
 31
0.0
  0
LINE
  5
13664
  8
KI1
 10
453.99999999999989
 20
361.25
 30
0.0
 11
432.49999999999989
 21
361.25
 31
0.0
  0
LINE
  5
13665
  8
KI1
 10
453.99999999999989
 20
361.25
 30
0.0
 11
456.49999999999977
 21
358.75
 31
0.0
1001
GENIUS_GENFIL_13
1070
     0
1040
2.5
1040
2.5
1040
20.0
1040
0.0
1002
{
1002
}
1001
GENIUS_GENOBJ-N-CHA_13
1002
{
1000
OWNER
1000
GEN
1002
}
1001
GENIUS_GENODEF_13
1002
{
1000
HIER
1070
     0
1002
}
1002
{
1000
MANEDIT
1070
     0
1002
}
1002
{
1000
NOSEL
1070
     0
1002
}
1002
{
1000
BEHIND
1070
     0
1002
}
1002
{
1000
OTHER
1070
     0
1002
}
1002
{
1000
REACTOR
1002
}
  0
LINE
  5
13666
  8
KI1
 10
432.49999999999989
 20
361.25000000000142
 30
0.0
 11
432.49999999999989
 21
194.25
 31
0.0
  0
LINE
  5
13667
  8
KI1
 10
432.49999999999989
 20
194.25
 30
0.0
 11
453.99999999999989
 21
194.25
 31
0.0
  0
LINE
  5
13668
  8
KI1
 10
453.99999999999989
 20
194.25
 30
0.0
 11
456.49999999999977
 21
196.75
 31
0.0
1001
GENIUS_GENFIL_13
1070
     0
1040
2.5
1040
2.5
1040
20.0
1040
0.0
1002
{
1002
}
1001
GENIUS_GENOBJ-N-CHA_13
1002
{
1000
OWNER
1000
GEN
1002
}
1001
GENIUS_GENODEF_13
1002
{
1000
HIER
1070
     0
1002
}
1002
{
1000
MANEDIT
1070
     0
1002
}
1002
{
1000
NOSEL
1070
     0
1002
}
1002
{
1000
BEHIND
1070
     0
1002
}
1002
{
1000
OTHER
1070
     0
1002
}
1002
{
1000
REACTOR
1002
}
  0
LINE
  5
13669
  8
OS
 10
432.49999999999989
 20
339.24999999999989
 30
0.0
 11
454.24999999999989
 21
360.99999999999989
 31
0.0
1001
ACAD
1010
0.0
1020
0.0
1030
0.0
  0
LINE
  5
1366A
  8
OS
 10
432.49999999999989
 20
329.3505050633882
 30
0.0
 11
456.49999999999977
 21
353.3505050633882
 31
0.0
1001
ACAD
1010
0.0
1020
0.0
1030
0.0
  0
LINE
  5
1366B
  8
OS
 10
432.49999999999989
 20
319.45101012677651
 30
0.0
 11
456.49999999999989
 21
343.45101012677651
 31
0.0
1001
ACAD
1010
0.0
1020
0.0
1030
0.0
  0
LINE
  5
1366C
  8
OS
 10
432.49999999999989
 20
309.55151519016482
 30
0.0
 11
456.49999999999989
 21
333.55151519016488
 31
0.0
1001
ACAD
1010
0.0
1020
0.0
1030
0.0
  0
LINE
  5
1366D
  8
OS
 10
432.49999999999989
 20
299.65202025355319
 30
0.0
 11
456.49999999999977
 21
323.65202025355319
 31
0.0
1001
ACAD
1010
0.0
1020
0.0
1030
0.0
  0
LINE
  5
1366E
  8
OS
 10
432.49999999999989
 20
289.75252531694161
 30
0.0
 11
456.49999999999989
 21
313.75252531694161
 31
0.0
1001
ACAD
1010
0.0
1020
0.0
1030
0.0
  0
LINE
  5
1366F
  8
OS
 10
432.49999999999989
 20
279.85303038032993
 30
0.0
 11
456.49999999999989
 21
303.85303038032993
 31
0.0
1001
ACAD
1010
0.0
1020
0.0
1030
0.0
  0
LINE
  5
13670
  8
OS
 10
432.49999999999989
 20
269.95353544371818
 30
0.0
 11
456.49999999999977
 21
293.95353544371818
 31
0.0
1001
ACAD
1010
0.0
1020
0.0
1030
0.0
  0
LINE
  5
13671
  8
OS
 10
432.49999999999989
 20
260.05404050710661
 30
0.0
 11
456.49999999999977
 21
284.05404050710649
 31
0.0
1001
ACAD
1010
0.0
1020
0.0
1030
0.0
  0
LINE
  5
13672
  8
OS
 10
432.5
 20
250.15454557049489
 30
0.0
 11
456.49999999999989
 21
274.15454557049492
 31
0.0
1001
ACAD
1010
0.0
1020
0.0
1030
0.0
  0
LINE
  5
13673
  8
OS
 10
432.49999999999989
 20
240.2550506338832
 30
0.0
 11
456.5
 21
264.25505063388317
 31
0.0
1001
ACAD
1010
0.0
1020
0.0
1030
0.0
  0
LINE
  5
13674
  8
OS
 10
432.49999999999989
 20
230.3555556972716
 30
0.0
 11
453.49449421903302
 21
251.3500499163047
 31
0.0
1001
ACAD
1010
0.0
1020
0.0
1030
0.0
  0
LINE
  5
13675
  8
OS
 10
432.49999999999989
 20
220.45606076065991
 30
0.0
 11
450.79399015564462
 21
238.7500509163047
 31
0.0
1001
ACAD
1010
0.0
1020
0.0
1030
0.0
  0
LINE
  5
13676
  8
OS
 10
454.19398915564472
 20
242.15004991630471
 30
0.0
 11
456.49999999999989
 21
244.45606076065999
 31
0.0
1001
ACAD
1010
0.0
1020
0.0
1030
0.0
  0
LINE
  5
13677
  8
OS
 10
432.49999999999989
 20
210.55656582404819
 30
0.0
 11
456.49999999999989
 21
234.55656582404819
 31
0.0
1001
ACAD
1010
0.0
1020
0.0
1030
0.0
  0
LINE
  5
13678
  8
OS
 10
432.49999999999989
 20
200.65707088743659
 30
0.0
 11
456.49999999999977
 21
224.65707088743659
 31
0.0
1001
ACAD
1010
0.0
1020
0.0
1030
0.0
  0
LINE
  5
13679
  8
OS
 10
435.99242404917487
 20
194.25
 30
0.0
 11
456.49999999999977
 21
214.7575759508249
 31
0.0
1001
ACAD
1010
0.0
1020
0.0
1030
0.0
  0
LINE
  5
1367A
  8
OS
 10
445.89191898578667
 20
194.25
 30
0.0
 11
456.49999999999989
 21
204.85808101421321
 31
0.0
1001
ACAD
1010
0.0
1020
0.0
1030
0.0
  0
LINE
  5
1367B
  8
SU
 10
432.49999999999989
 20
362.25000000000142
 30
0.0
 11
432.49999999999989
 21
384.25
 31
0.0
  0
LINE
  5
1367C
  8
SU
 10
456.49999999999977
 20
362.25
 30
0.0
 11
456.49999999999977
 21
384.25
 31
0.0
  0
LINE
  5
1367D
  8
SU
 10
432.49999999999989
 20
381.25
 30
0.0
 11
456.49999999999977
 21
381.25
 31
0.0
  0
ARC
  5
1367E
  8
SU
 10
432.49999999999989
 20
381.25
 30
0.0
 40
0.6
 50
0.0
 51
180.0
  0
ARC
  5
1367F
  8
SU
 10
432.49999999999989
 20
381.25
 30
0.0
 40
0.6
 50
180.0
 51
0.0
  0
ARC
  5
13680
  8
SU
 10
456.49999999999977
 20
381.25
 30
0.0
 40
0.6
 50
180.0
 51
0.0
  0
ARC
  5
13681
  8
SU
 10
456.49999999999977
 20
381.25
 30
0.0
 40
0.6
 50
0.0
 51
180.0
  0
TEXT
  5
13682
  8
SU
 10
438.82833333333321
 20
382.55000000000001
 30
0.0
 40
7.0
  1
24
 41
0.8299999999999999
  0
LINE
  5
13683
  8
SU
 10
732.5
 20
362.24999999999858
 30
0.0
 11
732.5
 21
384.25
 31
0.0
  0
LINE
  5
13684
  8
SU
 10
708.49999999999989
 20
362.25
 30
0.0
 11
708.49999999999989
 21
384.25
 31
0.0
  0
LINE
  5
13685
  8
SU
 10
732.5
 20
381.25
 30
0.0
 11
708.49999999999989
 21
381.25
 31
0.0
  0
ARC
  5
13686
  8
SU
 10
732.5
 20
381.25
 30
0.0
 40
0.6
 50
180.0
 51
0.0
  0
ARC
  5
13687
  8
SU
 10
732.5
 20
381.25
 30
0.0
 40
0.6
 50
0.0
 51
180.0
  0
ARC
  5
13688
  8
SU
 10
708.49999999999989
 20
381.25
 30
0.0
 40
0.6
 50
0.0
 51
180.0
  0
ARC
  5
13689
  8
SU
 10
708.49999999999989
 20
381.25
 30
0.0
 40
0.6
 50
180.0
 51
0.0
  0
TEXT
  5
1368A
  8
SU
 10
714.82833333333315
 20
382.55000000000001
 30
0.0
 40
7.0
  1
24
 41
0.8299999999999999
  0
LINE
  5
1368B
  8
SU
 10
457.49999999999989
 20
361.25
 30
0.0
 11
526.49999999787781
 21
361.25
 31
0.0
  0
LINE
  5
1368C
  8
SU
 10
457.49999999999989
 20
194.25
 30
0.0
 11
526.49999999787758
 21
194.25
 31
0.0
  0
LINE
  5
1368D
  8
SU
 10
523.49999999787781
 20
361.25
 30
0.0
 11
523.49999999787769
 21
194.25
 31
0.0
  0
ARC
  5
1368E
  8
SU
 10
523.49999999787781
 20
361.25
 30
0.0
 40
0.6
 50
270.0
 51
90.0
  0
ARC
  5
1368F
  8
SU
 10
523.49999999787781
 20
361.25
 30
0.0
 40
0.6
 50
90.0
 51
270.0
  0
ARC
  5
13690
  8
SU
 10
523.49999999787769
 20
194.25
 30
0.0
 40
0.6
 50
90.0
 51
270.0
  0
ARC
  5
13691
  8
SU
 10
523.49999999787769
 20
194.25
 30
0.0
 40
0.6
 50
270.0
 51
90.0
  0
TEXT
  5
13692
  8
SU
 10
522.19999999787774
 20
269.03500000000003
 30
0.0
 40
7.0
  1
167
 50
90.0
 41
0.8299999999999999
  0
LINE
  5
13693
  8
SU
 10
461.49999999999989
 20
234.75000000000799
 30
0.0
 11
511.49999999787769
 21
234.75000000000799
 31
0.0
  0
ARC
  5
13694
  8
SU
 10
508.49999999787758
 20
234.75000000000799
 30
0.0
 40
0.6
 50
90.0
 51
270.0
  0
ARC
  5
13695
  8
SU
 10
508.49999999787758
 20
234.75000000000799
 30
0.0
 40
0.6
 50
270.0
 51
90.0
  0
LINE
  5
13696
  8
SU
 10
461.49999999999989
 20
201.7500000000241
 30
0.0
 11
511.49999999787769
 21
201.7500000000241
 31
0.0
  0
LINE
  5
13697
  8
SU
 10
508.49999999787758
 20
234.75000000000799
 30
0.0
 11
508.49999999787758
 21
201.7500000000241
 31
0.0
  0
ARC
  5
13698
  8
SU
 10
508.49999999787758
 20
201.7500000000241
 30
0.0
 40
0.6
 50
90.0
 51
270.0
  0
ARC
  5
13699
  8
SU
 10
508.49999999787758
 20
201.7500000000241
 30
0.0
 40
0.6
 50
270.0
 51
90.0
  0
TEXT
  5
1369A
  8
SU
 10
507.19999999787763
 20
212.71666666668281
 30
0.0
 40
7.0
  1
33
 50
90.0
 41
0.8299999999999999
  0
LINE
  5
1369B
  8
SU
 10
508.49999999787792
 20
201.7500000000241
 30
0.0
 11
508.49999999787792
 21
194.25
 31
0.0
  0
LINE
  5
1369C
  8
SU
 10
508.49999999787792
 20
198.00000000001199
 30
0.0
 11
493.49999999787769
 21
205.36025403785649
 31
0.0
  0
LINE
  5
1369D
  8
SU
 10
493.49999999787769
 20
205.36025403785649
 30
0.0
 11
493.49999999787769
 21
220.13358737118989
 31
0.0
  0
TEXT
  5
1369E
  8
SU
 10
492.19999999787763
 20
205.83025403785661
 30
0.0
 40
7.0
  1
7.5
 50
90.0
 41
0.8299999999999999
  0
ARC
  5
1369F
  8
SU
 10
508.49999999787792
 20
194.25
 30
0.0
 40
0.6
 50
90.0
 51
270.0
  0
ARC
  5
136A0
  8
SU
 10
508.49999999787792
 20
194.25
 30
0.0
 40
0.6
 50
270.0
 51
90.0
  0
LINE
  5
136A1
  8
SU
 10
432.49999999999989
 20
193.25
 30
0.0
 11
432.49999999999989
 21
86.250000000016186
 31
0.0
  0
LINE
  5
136A2
  8
SU
 10
732.49999999999989
 20
193.24999999999861
 30
0.0
 11
732.49999999999989
 21
86.250000000016186
 31
0.0
  0
LINE
  5
136A3
  8
SU
 10
432.49999999999989
 20
89.250000000016172
 30
0.0
 11
732.49999999999989
 21
89.250000000016172
 31
0.0
  0
TEXT
  5
136A4
  8
SU
 10
579.17999999999995
 20
90.550000000016169
 30
0.0
 40
7.0
  1
W
 41
0.8299999999999999
  0
LINE
  5
136A5
  8
SU
 10
722.49999999999977
 20
95.249996200016227
 30
0.0
 11
722.49999999999977
 21
83.250000000016172
 31
0.0
  0
LINE
  5
136A6
  8
SU
 10
722.69999979999989
 20
95.129996300016188
 30
0.0
 11
722.69999979999989
 21
83.369999900016197
 31
0.0
  0
LINE
  5
136A7
  8
SU
 10
722.89999959999977
 20
95.009996400016135
 30
0.0
 11
722.89999959999977
 21
83.489999800016136
 31
0.0
  0
LINE
  5
136A8
  8
SU
 10
723.09999939999989
 20
94.889996500016224
 30
0.0
 11
723.09999939999989
 21
83.609999700016175
 31
0.0
  0
LINE
  5
136A9
  8
SU
 10
723.29999919999977
 20
94.769996600016185
 30
0.0
 11
723.29999919999977
 21
83.729999500016135
 31
0.0
  0
LINE
  5
136AA
  8
SU
 10
723.49999899999978
 20
94.649996800016226
 30
0.0
 11
723.49999899999978
 21
83.849999400016173
 31
0.0
  0
LINE
  5
136AB
  8
SU
 10
723.69999889999985
 20
94.529996900016187
 30
0.0
 11
723.69999889999985
 21
83.969999300016212
 31
0.0
  0
LINE
  5
136AC
  8
SU
 10
723.89999869999986
 20
94.409997900016165
 30
0.0
 11
723.89999869999986
 21
84.089999200016138
 31
0.0
  0
LINE
  5
136AD
  8
SU
 10
724.09999849999986
 20
94.28999810001622
 30
0.0
 11
724.09999849999986
 21
84.209999100016176
 31
0.0
  0
LINE
  5
136AE
  8
SU
 10
724.29999829999986
 20
94.169998200016195
 30
0.0
 11
724.29999829999986
 21
84.329999000016215
 31
0.0
  0
LINE
  5
136AF
  8
SU
 10
724.49999809999974
 20
94.049998300016142
 30
0.0
 11
724.49999809999974
 21
84.449998900016141
 31
0.0
  0
LINE
  5
136B0
  8
SU
 10
724.69999789999986
 20
93.929998400016217
 30
0.0
 11
724.69999789999986
 21
84.569998700016214
 31
0.0
  0
LINE
  5
136B1
  8
SU
 10
724.89999769999974
 20
93.809998500016178
 30
0.0
 11
724.89999769999974
 21
84.689998600016139
 31
0.0
  0
LINE
  5
136B2
  8
SU
 10
725.09999749999986
 20
93.689998600016125
 30
0.0
 11
725.09999749999986
 21
84.809998500016178
 31
0.0
  0
LINE
  5
136B3
  8
SU
 10
725.49999709999975
 20
93.449998900016155
 30
0.0
 11
725.49999709999975
 21
85.049998300016128
 31
0.0
  0
LINE
  5
136B4
  8
SU
 10
725.29999729999975
 20
93.569998700016214
 30
0.0
 11
725.29999729999975
 21
84.929998400016217
 31
0.0
  0
LINE
  5
136B5
  8
SU
 10
726.69999599999983
 20
92.729999500016135
 30
0.0
 11
726.69999599999983
 21
85.769997600016168
 31
0.0
  0
LINE
  5
136B6
  8
SU
 10
726.89999579999994
 20
92.610000600016207
 30
0.0
 11
726.89999579999994
 21
85.889997500016221
 31
0.0
  0
LINE
  5
136B7
  8
SU
 10
727.09999559999983
 20
92.490000700016168
 30
0.0
 11
727.09999559999983
 21
86.009997400016147
 31
0.0
  0
LINE
  5
136B8
  8
SU
 10
727.29999539999994
 20
92.370000800016115
 30
0.0
 11
727.29999539999994
 21
86.129997300016186
 31
0.0
  0
LINE
  5
136B9
  8
SU
 10
727.49999519999983
 20
92.250001000016169
 30
0.0
 11
727.49999519999983
 21
86.249997100016145
 31
0.0
  0
LINE
  5
136BA
  8
SU
 10
727.69999499999994
 20
92.130001100016145
 30
0.0
 11
727.69999499999994
 21
86.369997000016184
 31
0.0
  0
LINE
  5
136BB
  8
SU
 10
727.89999489999991
 20
92.010001200016205
 30
0.0
 11
727.89999489999991
 21
86.489996900016209
 31
0.0
  0
LINE
  5
136BC
  8
SU
 10
728.0999946999998
 20
91.890001300016166
 30
0.0
 11
728.0999946999998
 21
86.609996800016134
 31
0.0
  0
LINE
  5
136BD
  8
SU
 10
728.29999449999991
 20
91.770001400016127
 30
0.0
 11
728.29999449999991
 21
86.729996700016187
 31
0.0
  0
LINE
  5
136BE
  8
SU
 10
728.4999942999998
 20
91.650001500016202
 30
0.0
 11
728.4999942999998
 21
86.849996600016226
 31
0.0
  0
LINE
  5
136BF
  8
SU
 10
728.69999409999991
 20
91.530001600016149
 30
0.0
 11
728.69999409999991
 21
86.969996500016151
 31
0.0
  0
LINE
  5
136C0
  8
SU
 10
728.89999389999991
 20
91.410002700016122
 30
0.0
 11
728.89999389999991
 21
87.089996300016224
 31
0.0
  0
LINE
  5
136C1
  8
SU
 10
729.09999369999991
 20
91.290002800016197
 30
0.0
 11
729.09999369999991
 21
87.20999620001615
 31
0.0
  0
LINE
  5
136C2
  8
SU
 10
729.29999349999991
 20
91.170002900016158
 30
0.0
 11
729.29999349999991
 21
87.329996100016174
 31
0.0
  0
LINE
  5
136C3
  8
SU
 10
729.49999329999991
 20
91.050003100016184
 30
0.0
 11
729.49999329999991
 21
87.449996000016228
 31
0.0
  0
LINE
  5
136C4
  8
SU
 10
729.69999309999992
 20
90.930003200016159
 30
0.0
 11
729.69999309999992
 21
87.569995900016153
 31
0.0
  0
LINE
  5
136C5
  8
SU
 10
729.8999928999998
 20
90.810003300016135
 30
0.0
 11
729.8999928999998
 21
87.689995800016192
 31
0.0
  0
LINE
  5
136C6
  8
SU
 10
730.09999279999977
 20
90.690003400016195
 30
0.0
 11
730.09999279999977
 21
87.809995700016117
 31
0.0
  0
LINE
  5
136C7
  8
SU
 10
730.49999239999977
 20
90.450003600016117
 30
0.0
 11
730.49999239999977
 21
88.049995400016115
 31
0.0
  0
LINE
  5
136C8
  8
SU
 10
730.29999259999988
 20
90.570003500016156
 30
0.0
 11
730.29999259999988
 21
87.92999550001619
 31
0.0
  0
LINE
  5
136C9
  8
SU
 10
730.69999219999988
 20
90.330003700016192
 30
0.0
 11
730.69999219999988
 21
88.169995300016154
 31
0.0
  0
LINE
  5
136CA
  8
SU
 10
730.89999199999977
 20
90.210003850016179
 30
0.0
 11
730.89999199999977
 21
88.289995190016185
 31
0.0
  0
LINE
  5
136CB
  8
SU
 10
731.09999179999988
 20
90.09000397001617
 30
0.0
 11
731.09999179999988
 21
88.409995080016216
 31
0.0
  0
LINE
  5
136CC
  8
SU
 10
731.29999159999977
 20
89.970005040016218
 30
0.0
 11
731.29999159999977
 21
88.529994960016126
 31
0.0
  0
LINE
  5
136CD
  8
SU
 10
731.49999139999977
 20
89.850005150016187
 30
0.0
 11
731.49999139999977
 21
88.649994850016157
 31
0.0
  0
LINE
  5
136CE
  8
SU
 10
731.89999103999992
 20
89.610002520016138
 30
0.0
 11
731.89999103999992
 21
88.889994620016211
 31
0.0
  0
LINE
  5
136CF
  8
SU
 10
731.69999122999991
 20
89.730005260016156
 30
0.0
 11
731.69999122999991
 21
88.769994740016188
 31
0.0
  0
LINE
  5
136D0
  8
SU
 10
732.09999083999992
 20
89.490002630016221
 30
0.0
 11
732.09999083999992
 21
89.009994510016128
 31
0.0
  0
LINE
  5
136D1
  8
SU
 10
732.50000418097341
 20
89.25000202250547
 30
0.0
 11
722.50000039999986
 21
83.250000100016138
 31
0.0
  0
LINE
  5
136D2
  8
SU
 10
732.29998778999993
 20
89.370007510016222
 30
0.0
 11
732.29998778999993
 21
89.129992490016136
 31
0.0
  0
LINE
  5
136D3
  8
SU
 10
732.50000018015055
 20
89.249999938208177
 30
0.0
 11
722.50000009999985
 21
95.249995700016157
 31
0.0
  0
LINE
  5
136D4
  8
SU
 10
726.49999619999994
 20
92.850000400016185
 30
0.0
 11
726.49999619999994
 21
85.649997700016144
 31
0.0
  0
LINE
  5
136D5
  8
SU
 10
726.29999639999983
 20
92.97000030001621
 30
0.0
 11
726.29999639999983
 21
85.529997800016218
 31
0.0
  0
LINE
  5
136D6
  8
SU
 10
726.09999659999994
 20
93.089999200016138
 30
0.0
 11
726.09999659999994
 21
85.409997900016194
 31
0.0
  0
LINE
  5
136D7
  8
SU
 10
725.89999679999983
 20
93.209999100016176
 30
0.0
 11
725.89999679999983
 21
85.289998100016206
 31
0.0
  0
LINE
  5
136D8
  8
SU
 10
725.69999689999975
 20
93.329999000016215
 30
0.0
 11
725.69999689999975
 21
85.169998200016181
 31
0.0
  0
LINE
  5
136D9
  8
SU
 10
442.49999999999989
 20
95.249996200016227
 30
0.0
 11
442.49999999999989
 21
83.250000000016172
 31
0.0
  0
LINE
  5
136DA
  8
SU
 10
442.30000019999989
 20
95.129996300016188
 30
0.0
 11
442.30000019999989
 21
83.369999900016197
 31
0.0
  0
LINE
  5
136DB
  8
SU
 10
442.10000039999989
 20
95.009996400016135
 30
0.0
 11
442.10000039999989
 21
83.489999800016136
 31
0.0
  0
LINE
  5
136DC
  8
SU
 10
441.90000059999988
 20
94.889996500016224
 30
0.0
 11
441.90000059999988
 21
83.609999700016175
 31
0.0
  0
LINE
  5
136DD
  8
SU
 10
441.70000079999988
 20
94.769996600016185
 30
0.0
 11
441.70000079999988
 21
83.729999500016135
 31
0.0
  0
LINE
  5
136DE
  8
SU
 10
441.50000099999988
 20
94.649996800016226
 30
0.0
 11
441.50000099999988
 21
83.849999400016173
 31
0.0
  0
LINE
  5
136DF
  8
SU
 10
441.30000109999992
 20
94.529996900016187
 30
0.0
 11
441.30000109999992
 21
83.969999300016212
 31
0.0
  0
LINE
  5
136E0
  8
SU
 10
441.1000012999998
 20
94.409997900016165
 30
0.0
 11
441.1000012999998
 21
84.089999200016138
 31
0.0
  0
LINE
  5
136E1
  8
SU
 10
440.90000149999992
 20
94.28999810001622
 30
0.0
 11
440.90000149999992
 21
84.209999100016176
 31
0.0
  0
LINE
  5
136E2
  8
SU
 10
440.70000169999992
 20
94.169998200016195
 30
0.0
 11
440.70000169999992
 21
84.329999000016215
 31
0.0
  0
LINE
  5
136E3
  8
SU
 10
440.50000189999992
 20
94.049998300016142
 30
0.0
 11
440.50000189999992
 21
84.449998900016141
 31
0.0
  0
LINE
  5
136E4
  8
SU
 10
440.30000209999992
 20
93.929998400016217
 30
0.0
 11
440.30000209999992
 21
84.569998700016214
 31
0.0
  0
LINE
  5
136E5
  8
SU
 10
440.10000229999991
 20
93.809998500016178
 30
0.0
 11
440.10000229999991
 21
84.689998600016139
 31
0.0
  0
LINE
  5
136E6
  8
SU
 10
439.90000249999991
 20
93.689998600016125
 30
0.0
 11
439.90000249999991
 21
84.809998500016178
 31
0.0
  0
LINE
  5
136E7
  8
SU
 10
439.50000289999991
 20
93.449998900016155
 30
0.0
 11
439.50000289999991
 21
85.049998300016128
 31
0.0
  0
LINE
  5
136E8
  8
SU
 10
439.7000026999998
 20
93.569998700016214
 30
0.0
 11
439.7000026999998
 21
84.929998400016217
 31
0.0
  0
LINE
  5
136E9
  8
SU
 10
438.30000399999989
 20
92.729999500016135
 30
0.0
 11
438.30000399999989
 21
85.769997600016168
 31
0.0
  0
LINE
  5
136EA
  8
SU
 10
438.10000419999989
 20
92.610000600016207
 30
0.0
 11
438.10000419999989
 21
85.889997500016221
 31
0.0
  0
LINE
  5
136EB
  8
SU
 10
437.90000439999989
 20
92.490000700016168
 30
0.0
 11
437.90000439999989
 21
86.009997400016147
 31
0.0
  0
LINE
  5
136EC
  8
SU
 10
437.70000459999989
 20
92.370000800016115
 30
0.0
 11
437.70000459999989
 21
86.129997300016186
 31
0.0
  0
LINE
  5
136ED
  8
SU
 10
437.50000479999989
 20
92.250001000016169
 30
0.0
 11
437.50000479999989
 21
86.249997100016145
 31
0.0
  0
LINE
  5
136EE
  8
SU
 10
437.30000499999989
 20
92.130001100016145
 30
0.0
 11
437.30000499999989
 21
86.369997000016184
 31
0.0
  0
LINE
  5
136EF
  8
SU
 10
437.10000509999998
 20
92.010001200016205
 30
0.0
 11
437.10000509999998
 21
86.489996900016209
 31
0.0
  0
LINE
  5
136F0
  8
SU
 10
436.90000529999992
 20
91.890001300016166
 30
0.0
 11
436.90000529999992
 21
86.609996800016134
 31
0.0
  0
LINE
  5
136F1
  8
SU
 10
436.70000549999997
 20
91.770001400016127
 30
0.0
 11
436.70000549999997
 21
86.729996700016187
 31
0.0
  0
LINE
  5
136F2
  8
SU
 10
436.50000569999992
 20
91.650001500016202
 30
0.0
 11
436.50000569999992
 21
86.849996600016226
 31
0.0
  0
LINE
  5
136F3
  8
SU
 10
436.30000589999992
 20
91.530001600016149
 30
0.0
 11
436.30000589999992
 21
86.969996500016151
 31
0.0
  0
LINE
  5
136F4
  8
SU
 10
436.10000609999992
 20
91.410002700016122
 30
0.0
 11
436.10000609999992
 21
87.089996300016224
 31
0.0
  0
LINE
  5
136F5
  8
SU
 10
435.90000629999992
 20
91.290002800016197
 30
0.0
 11
435.90000629999992
 21
87.20999620001615
 31
0.0
  0
LINE
  5
136F6
  8
SU
 10
435.70000649999997
 20
91.170002900016158
 30
0.0
 11
435.70000649999997
 21
87.329996100016174
 31
0.0
  0
LINE
  5
136F7
  8
SU
 10
435.50000669999991
 20
91.050003100016184
 30
0.0
 11
435.50000669999991
 21
87.449996000016228
 31
0.0
  0
LINE
  5
136F8
  8
SU
 10
435.30000690000003
 20
90.930003200016159
 30
0.0
 11
435.30000690000003
 21
87.569995900016153
 31
0.0
  0
LINE
  5
136F9
  8
SU
 10
435.10000709999991
 20
90.810003300016135
 30
0.0
 11
435.10000709999991
 21
87.689995800016192
 31
0.0
  0
LINE
  5
136FA
  8
SU
 10
434.90000719999989
 20
90.690003400016195
 30
0.0
 11
434.90000719999989
 21
87.809995700016117
 31
0.0
  0
LINE
  5
136FB
  8
SU
 10
434.50000759999989
 20
90.450003600016117
 30
0.0
 11
434.50000759999989
 21
88.049995400016115
 31
0.0
  0
LINE
  5
136FC
  8
SU
 10
434.70000739999989
 20
90.570003500016156
 30
0.0
 11
434.70000739999989
 21
87.92999550001619
 31
0.0
  0
LINE
  5
136FD
  8
SU
 10
434.30000779999989
 20
90.330003700016192
 30
0.0
 11
434.30000779999989
 21
88.169995300016154
 31
0.0
  0
LINE
  5
136FE
  8
SU
 10
434.10000799999989
 20
90.210003850016179
 30
0.0
 11
434.10000799999989
 21
88.289995190016185
 31
0.0
  0
LINE
  5
136FF
  8
SU
 10
433.90000819999989
 20
90.09000397001617
 30
0.0
 11
433.90000819999989
 21
88.409995080016216
 31
0.0
  0
LINE
  5
13700
  8
SU
 10
433.70000839999989
 20
89.970005040016218
 30
0.0
 11
433.70000839999989
 21
88.529994960016126
 31
0.0
  0
LINE
  5
13701
  8
SU
 10
433.50000859999989
 20
89.850005150016187
 30
0.0
 11
433.50000859999989
 21
88.649994850016157
 31
0.0
  0
LINE
  5
13702
  8
SU
 10
433.10000895999991
 20
89.610002520016138
 30
0.0
 11
433.10000895999991
 21
88.889994620016211
 31
0.0
  0
LINE
  5
13703
  8
SU
 10
433.30000876999992
 20
89.730005260016156
 30
0.0
 11
433.30000876999992
 21
88.769994740016188
 31
0.0
  0
LINE
  5
13704
  8
SU
 10
432.90000916000002
 20
89.490002630016221
 30
0.0
 11
432.90000916000002
 21
89.009994510016128
 31
0.0
  0
LINE
  5
13705
  8
SU
 10
432.49999581902642
 20
89.25000202250547
 30
0.0
 11
442.49999959999991
 21
83.250000100016138
 31
0.0
  0
LINE
  5
13706
  8
SU
 10
432.7000122099999
 20
89.370007510016222
 30
0.0
 11
432.7000122099999
 21
89.129992490016136
 31
0.0
  0
LINE
  5
13707
  8
SU
 10
432.49999981984911
 20
89.249999938208177
 30
0.0
 11
442.49999989999992
 21
95.249995700016157
 31
0.0
  0
LINE
  5
13708
  8
SU
 10
438.50000379999989
 20
92.850000400016185
 30
0.0
 11
438.50000379999989
 21
85.649997700016144
 31
0.0
  0
LINE
  5
13709
  8
SU
 10
438.70000359999989
 20
92.97000030001621
 30
0.0
 11
438.70000359999989
 21
85.529997800016218
 31
0.0
  0
LINE
  5
1370A
  8
SU
 10
438.90000339999989
 20
93.089999200016138
 30
0.0
 11
438.90000339999989
 21
85.409997900016194
 31
0.0
  0
LINE
  5
1370B
  8
SU
 10
439.10000319999989
 20
93.209999100016176
 30
0.0
 11
439.10000319999989
 21
85.289998100016206
 31
0.0
  0
LINE
  5
1370C
  8
SU
 10
439.3000030999998
 20
93.329999000016215
 30
0.0
 11
439.3000030999998
 21
85.169998200016181
 31
0.0
  0
LINE
  5
1370D
  8
SU
 10
456.49999999787769
 20
179.2500061622026
 30
0.0
 11
456.49999999787769
 21
101.2500000000162
 31
0.0
  0
LINE
  5
1370E
  8
SU
 10
456.49999999787769
 20
104.2500000000161
 30
0.0
 11
432.49999999999989
 21
104.2500000000161
 31
0.0
  0
ARC
  5
1370F
  8
SU
 10
456.49999999787769
 20
104.2500000000161
 30
0.0
 40
0.6
 50
180.0
 51
0.0
  0
ARC
  5
13710
  8
SU
 10
456.49999999787769
 20
104.2500000000161
 30
0.0
 40
0.6
 50
0.0
 51
180.0
  0
ARC
  5
13711
  8
SU
 10
432.49999999999989
 20
104.2500000000161
 30
0.0
 40
0.6
 50
0.0
 51
180.0
  0
ARC
  5
13712
  8
SU
 10
432.49999999999989
 20
104.2500000000161
 30
0.0
 40
0.6
 50
180.0
 51
0.0
  0
TEXT
  5
13713
  8
SU
 10
438.82833333227222
 20
105.5500000000161
 30
0.0
 40
7.0
  1
24
 41
0.8299999999999999
  0
LINE
  5
13714
  8
SU
 10
460.49999999999989
 20
200.7500000000241
 30
0.0
 11
460.49999999999989
 21
101.2500000000162
 31
0.0
  0
LINE
  5
13715
  8
SU
 10
456.49999999787769
 20
104.2500000000162
 30
0.0
 11
460.49999999999989
 21
104.2500000000162
 31
0.0
  0
LINE
  5
13716
  8
SU
 10
458.49999999893879
 20
104.2500000000162
 30
0.0
 11
465.86025403784407
 21
119.2500000000161
 31
0.0
  0
LINE
  5
13717
  8
SU
 10
465.86025403784407
 20
119.2500000000161
 30
0.0
 11
472.61025403784407
 21
119.2500000000161
 31
0.0
  0
TEXT
  5
13718
  8
SU
 10
466.33025403784421
 20
120.5500000000162
 30
0.0
 40
7.0
  1
4
 41
0.8299999999999999
  0
ARC
  5
13719
  8
SU
 10
460.49999999999989
 20
104.2500000000162
 30
0.0
 40
0.6
 50
0.0
 51
180.0
  0
ARC
  5
1371A
  8
SU
 10
460.49999999999989
 20
104.2500000000162
 30
0.0
 40
0.6
 50
180.0
 51
0.0
  0
LINE
  5
1371B
  8
SU
 10
565.4999999978761
 20
200.7500061622026
 30
0.0
 11
565.4999999978761
 21
101.2500000000162
 31
0.0
  0
LINE
  5
1371C
  8
SU
 10
704.49999999999784
 20
200.7500000000241
 30
0.0
 11
704.49999999999784
 21
101.2500000000162
 31
0.0
  0
LINE
  5
1371D
  8
SU
 10
565.4999999978761
 20
104.2500000000161
 30
0.0
 11
704.49999999999784
 21
104.2500000000161
 31
0.0
  0
ARC
  5
1371E
  8
SU
 10
565.4999999978761
 20
104.2500000000161
 30
0.0
 40
0.6
 50
0.0
 51
180.0
  0
ARC
  5
1371F
  8
SU
 10
565.4999999978761
 20
104.2500000000161
 30
0.0
 40
0.6
 50
180.0
 51
0.0
  0
ARC
  5
13720
  8
SU
 10
704.49999999999784
 20
104.2500000000161
 30
0.0
 40
0.6
 50
180.0
 51
0.0
  0
ARC
  5
13721
  8
SU
 10
704.49999999999784
 20
104.2500000000161
 30
0.0
 40
0.6
 50
0.0
 51
180.0
  0
TEXT
  5
13722
  8
SU
 10
576.92766666560374
 20
105.5500000000161
 30
0.0
 40
7.0
  1
ドアW（DW）=W-（KDW+61）
 41
0.8299999999999999
  0
LINE
  5
13723
  8
SU
 10
708.49999999999784
 20
179.2500000000162
 30
0.0
 11
708.49999999999784
 21
101.250000000016
 31
0.0
  0
LINE
  5
13724
  8
SU
 10
704.49999999999784
 20
104.250000000016
 30
0.0
 11
708.49999999999784
 21
104.250000000016
 31
0.0
  0
LINE
  5
13725
  8
SU
 10
706.49999999999784
 20
104.250000000016
 30
0.0
 11
699.13974596215337
 21
119.2500000000161
 31
0.0
  0
LINE
  5
13726
  8
SU
 10
699.13974596215337
 20
119.2500000000161
 30
0.0
 11
692.38974596215337
 21
119.2500000000161
 31
0.0
  0
TEXT
  5
13727
  8
SU
 10
692.8597459621534
 20
120.5500000000162
 30
0.0
 40
7.0
  1
4
 41
0.8299999999999999
  0
ARC
  5
13728
  8
SU
 10
708.49999999999784
 20
104.250000000016
 30
0.0
 40
0.6
 50
180.0
 51
0.0
  0
ARC
  5
13729
  8
SU
 10
708.49999999999784
 20
104.250000000016
 30
0.0
 40
0.6
 50
0.0
 51
180.0
  0
LINE
  5
1372A
  8
SU
 10
708.49999999999784
 20
104.2500000000161
 30
0.0
 11
732.49999999999989
 21
104.2500000000161
 31
0.0
  0
ARC
  5
1372B
  8
SU
 10
732.49999999999989
 20
104.2500000000161
 30
0.0
 40
0.6
 50
180.0
 51
0.0
  0
ARC
  5
1372C
  8
SU
 10
732.49999999999989
 20
104.2500000000161
 30
0.0
 40
0.6
 50
0.0
 51
180.0
  0
TEXT
  5
1372D
  8
SU
 10
714.82833333333213
 20
105.5500000000161
 30
0.0
 40
7.0
  1
24
 41
0.8299999999999999
  0
LINE
  5
1372E
  8
SU
 10
518.99999999787769
 20
153.2500061622026
 30
0.0
 11
518.99999999787769
 21
131.25000000001609
 31
0.0
  0
LINE
  5
1372F
  8
SU
 10
645.99999999999784
 20
153.2500000000162
 30
0.0
 11
645.99999999999784
 21
131.25000000001609
 31
0.0
  0
LINE
  5
13730
  8
SU
 10
518.99999999787769
 20
134.25000000001609
 30
0.0
 11
645.99999999999784
 21
134.25000000001609
 31
0.0
  0
ARC
  5
13731
  8
SU
 10
518.99999999787769
 20
134.25000000001609
 30
0.0
 40
0.6
 50
0.0
 51
180.0
  0
ARC
  5
13732
  8
SU
 10
518.99999999787769
 20
134.25000000001609
 30
0.0
 40
0.6
 50
180.0
 51
0.0
  0
ARC
  5
13733
  8
SU
 10
645.99999999999784
 20
134.25000000001609
 30
0.0
 40
0.6
 50
180.0
 51
0.0
  0
ARC
  5
13734
  8
SU
 10
645.99999999999784
 20
134.25000000001609
 30
0.0
 40
0.6
 50
0.0
 51
180.0
  0
TEXT
  5
13735
  8
SU
 10
568.17733396822427
 20
135.5500000000161
 30
0.0
 40
7.0
  1
有効開口2=W-173
 41
0.8299999999999999
  0
LINE
  5
13736
  8
SU
 10
645.99999999999784
 20
134.25000000001609
 30
0.0
 11
732.49999999999989
 21
134.25000000001609
 31
0.0
  0
ARC
  5
13737
  8
SU
 10
732.49999999999989
 20
134.25000000001609
 30
0.0
 40
0.6
 50
180.0
 51
0.0
  0
ARC
  5
13738
  8
SU
 10
732.49999999999989
 20
134.25000000001609
 30
0.0
 40
0.6
 50
0.0
 51
180.0
  0
TEXT
  5
13739
  8
SU
 10
679.56666666666536
 20
135.55000000001621
 30
0.0
 40
7.0
  1
86.5
 41
0.8299999999999999
  0
LINE
  5
1373A
  8
PH
 10
516.99999999787758
 20
182.2500061622026
 30
0.0
 11
485.99999999787769
 21
182.2500061622026
 31
0.0
  0
LINE
  5
1373B
  8
PH
 10
485.99999999787769
 20
184.2500061622026
 30
0.0
 11
518.99999999787769
 21
184.2500061622026
 31
0.0
  0
LINE
  5
1373C
  8
PH
 10
488.74999999787769
 20
178.2500061622026
 30
0.0
 11
485.99999999787769
 21
178.2500061622026
 31
0.0
  0
LINE
  5
1373D
  8
KI2
 10
458.80000304963539
 20
234.7500061622026
 30
0.0
 11
458.80000304963539
 21
188.2500061622026
 31
0.0
  0
LINE
  5
1373E
  8
KI2
 10
456.49999999787769
 20
188.2500061622026
 30
0.0
 11
456.49999999787769
 21
234.7500061622026
 31
0.0
  0
LINE
  5
1373F
  8
PH
 10
485.99999999787769
 20
178.2500061622026
 30
0.0
 11
485.99999999787769
 21
184.2500061622026
 31
0.0
  0
LINE
  5
13740
  8
KI2
 10
464.49999999787769
 20
189.7500061622026
 30
0.0
 11
458.80000304963539
 21
189.7500061622026
 31
0.0
  0
ARC
  5
13741
  8
KI2
 10
464.49999999787769
 20
180.2500061622026
 30
0.0
 40
9.5
 50
179.99998998208929
 51
89.999997495518272
  0
CIRCLE
  5
13742
  8
KI2
 10
464.99999999787769
 20
180.2500061622026
 30
0.0
 40
8.0
  0
CIRCLE
  5
13743
  8
KI2
 10
464.49999999787769
 20
180.2500061622026
 30
0.0
 40
8.0
  0
LINE
  5
13744
  8
PH
 10
472.9487495401147
 20
179.72554823068401
 30
0.0
 11
485.99999999787769
 21
179.1488442054156
 31
0.0
  0
ARC
  5
13745
  8
PH
 10
472.90302276399149
 20
182.5302948584916
 30
0.0
 40
0.5
 50
188.6630661080759
 51
267.46988437433191
  0
LINE
  5
13746
  8
PH
 10
485.99999999787769
 20
181.45109172967699
 30
0.0
 11
472.88095474030968
 21
182.03079124597329
 31
0.0
  0
LINE
  5
13747
  8
PH
 10
481.0346794107196
 20
181.67049738076949
 30
0.0
 11
480.93314742829762
 21
179.37273641732949
 31
0.0
  0
LINE
  5
13748
  8
KI2
 10
456.49999999787769
 20
180.2500061622026
 30
0.0
 11
456.49999999787769
 21
188.2500061622026
 31
0.0
  0
LINE
  5
13749
  8
KI2
 10
458.80000304963539
 20
188.2500061622026
 30
0.0
 11
458.80000304963539
 21
185.86338277963461
 31
0.0
  0
LINE
  5
1374A
  8
KI2
 10
456.49999999787769
 20
180.2500061622026
 30
0.0
 11
454.99999999787758
 21
180.2500061622026
 31
0.0
  0
LINE
  5
1374B
  8
KI2
 10
456.49999999787769
 20
188.2500061622026
 30
0.0
 11
458.80000304963539
 21
188.2500061622026
 31
0.0
  0
LINE
  5
1374C
  8
KI2
 10
458.80000304963539
 20
189.7500061622026
 30
0.0
 11
458.80000304963539
 21
187.8500046363246
 31
0.0
  0
LINE
  5
1374D
  8
PH
 10
518.99999999787769
 20
184.2500061622026
 30
0.0
 11
518.99999999787769
 21
178.2500061622026
 31
0.0
  0
LINE
  5
1374E
  8
PH
 10
514.49999999787769
 20
166.2500061622026
 30
0.0
 11
490.49999999787769
 21
166.2500061622026
 31
0.0
  0
LINE
  5
1374F
  8
PH
 10
490.49999999787769
 20
172.2500061622026
 30
0.0
 11
490.49999999787769
 21
166.2500061622026
 31
0.0
  0
LINE
  5
13750
  8
PH
 10
488.74999999787769
 20
172.2500061622026
 30
0.0
 11
490.49999999787769
 21
172.2500061622026
 31
0.0
  0
LINE
  5
13751
  8
PH
 10
488.74999999787769
 20
172.2500061622026
 30
0.0
 11
488.74999999787769
 21
178.2500061622026
 31
0.0
  0
LINE
  5
13752
  8
PH
 10
514.49999999787769
 20
172.2500061622026
 30
0.0
 11
514.49999999787769
 21
166.2500061622026
 31
0.0
  0
LINE
  5
13753
  8
PH
 10
516.99999999787758
 20
182.2500061622026
 30
0.0
 11
516.99999999787758
 21
178.2500061622026
 31
0.0
  0
LINE
  5
13754
  8
PH
 10
516.24999999787758
 20
178.2500061622026
 30
0.0
 11
516.24999999787758
 21
172.2500061622026
 31
0.0
  0
LINE
  5
13755
  8
PH
 10
516.24999999787758
 20
172.2500061622026
 30
0.0
 11
514.49999999787769
 21
172.2500061622026
 31
0.0
  0
LINE
  5
13756
  8
PH
 10
518.99999999787769
 20
178.2500061622026
 30
0.0
 11
516.24999999787758
 21
178.2500061622026
 31
0.0
  0
LINE
  5
13757
  8
KI2
 10
456.49999999787769
 20
234.7500061622026
 30
0.0
 11
458.80000304963539
 21
234.7500061622026
 31
0.0
  0
LINE
  5
13758
  8
TS
 10
462.49999999787758
 20
232.7500061622026
 30
0.0
 11
462.49999999787758
 21
201.7500061622026
 31
0.0
  0
LINE
  5
13759
  8
TS
 10
460.49999999787769
 20
201.7500061622026
 30
0.0
 11
460.49999999787769
 21
234.7500061622026
 31
0.0
  0
LINE
  5
1375A
  8
TS
 10
466.49999999787769
 20
204.5000061622026
 30
0.0
 11
466.49999999787769
 21
201.7500061622026
 31
0.0
  0
LINE
  5
1375B
  8
TS
 10
466.49999999787769
 20
201.7500061622026
 30
0.0
 11
460.49999999787769
 21
201.7500061622026
 31
0.0
  0
LINE
  5
1375C
  8
KI2
 10
465.02445792939619
 20
188.69875570443961
 30
0.0
 11
465.60116195466469
 21
201.7500061622026
 31
0.0
  0
ARC
  5
1375D
  8
KI2
 10
462.21971130158857
 20
188.65302892831659
 30
0.0
 40
0.5
 50
278.66306610807578
 51
357.46988437433021
  0
LINE
  5
1375E
  8
KI2
 10
463.29891443040322
 20
201.7500061622026
 30
0.0
 11
462.71921491410689
 21
188.63096090463461
 31
0.0
  0
LINE
  5
1375F
  8
KI2
 10
463.07950877931069
 20
196.78468557504459
 30
0.0
 11
465.37726974275068
 21
196.6831535926226
 31
0.0
  0
LINE
  5
13760
  8
TS
 10
460.49999999787769
 20
234.7500061622026
 30
0.0
 11
466.49999999787769
 21
234.7500061622026
 31
0.0
  0
LINE
  5
13761
  8
TS
 10
478.49999999787769
 20
230.2500061622026
 30
0.0
 11
478.49999999787769
 21
206.2500061622026
 31
0.0
  0
LINE
  5
13762
  8
TS
 10
472.49999999787758
 20
206.2500061622026
 30
0.0
 11
478.49999999787769
 21
206.2500061622026
 31
0.0
  0
LINE
  5
13763
  8
TS
 10
472.49999999787758
 20
204.5000061622026
 30
0.0
 11
472.49999999787758
 21
206.2500061622026
 31
0.0
  0
LINE
  5
13764
  8
TS
 10
472.49999999787758
 20
204.5000061622026
 30
0.0
 11
466.49999999787769
 21
204.5000061622026
 31
0.0
  0
LINE
  5
13765
  8
TS
 10
472.49999999787758
 20
230.2500061622026
 30
0.0
 11
478.49999999787769
 21
230.2500061622026
 31
0.0
  0
LINE
  5
13766
  8
TS
 10
462.49999999787758
 20
232.7500061622026
 30
0.0
 11
466.49999999787769
 21
232.7500061622026
 31
0.0
  0
LINE
  5
13767
  8
TS
 10
466.49999999787769
 20
232.0000061622026
 30
0.0
 11
472.49999999787758
 21
232.0000061622026
 31
0.0
  0
LINE
  5
13768
  8
TS
 10
472.49999999787758
 20
232.0000061622026
 30
0.0
 11
472.49999999787758
 21
230.2500061622026
 31
0.0
  0
LINE
  5
13769
  8
TS
 10
466.49999999787769
 20
234.7500061622026
 30
0.0
 11
466.49999999787769
 21
232.0000061622026
 31
0.0
  0
LINE
  5
1376A
  8
PH
 10
518.99999999787769
 20
184.2500061622026
 30
0.0
 11
518.99999999787769
 21
154.2500061622026
 31
0.0
  0
LINE
  5
1376B
  8
PH
 10
485.99999999787769
 20
154.2500061622026
 30
0.0
 11
485.99999999787769
 21
184.2500061622026
 31
0.0
  0
LINE
  5
1376C
  8
PH
 10
647.99999999786814
 20
182.2500061622026
 30
0.0
 11
678.99999999786814
 21
182.2500061622026
 31
0.0
  0
LINE
  5
1376D
  8
PH
 10
678.99999999786814
 20
184.2500061622026
 30
0.0
 11
645.99999999786814
 21
184.2500061622026
 31
0.0
  0
LINE
  5
1376E
  8
PH
 10
676.24999999786814
 20
178.2500061622026
 30
0.0
 11
678.99999999786814
 21
178.2500061622026
 31
0.0
  0
LINE
  5
1376F
  8
KI2
 10
706.19999694611033
 20
234.7500061622026
 30
0.0
 11
706.19999694611033
 21
188.2500061622026
 31
0.0
  0
LINE
  5
13770
  8
KI2
 10
708.49999999786814
 20
188.2500061622026
 30
0.0
 11
708.49999999786814
 21
234.7500061622026
 31
0.0
  0
LINE
  5
13771
  8
PH
 10
678.99999999786814
 20
178.2500061622026
 30
0.0
 11
678.99999999786814
 21
184.2500061622026
 31
0.0
  0
LINE
  5
13772
  8
KI2
 10
700.49999999786814
 20
189.7500061622026
 30
0.0
 11
706.19999694611033
 21
189.7500061622026
 31
0.0
  0
ARC
  5
13773
  8
KI2
 10
700.49999999786814
 20
180.2500061622026
 30
0.0
 40
9.5
 50
90.000002504481699
 51
0.0000100179106335
  0
CIRCLE
  5
13774
  8
KI2
 10
699.99999999786814
 20
180.2500061622026
 30
0.0
 40
8.0
  0
CIRCLE
  5
13775
  8
KI2
 10
700.49999999786814
 20
180.2500061622026
 30
0.0
 40
8.0
  0
LINE
  5
13776
  8
PH
 10
692.05125045563113
 20
179.72554823068401
 30
0.0
 11
678.99999999786814
 21
179.1488442054156
 31
0.0
  0
ARC
  5
13777
  8
PH
 10
692.09697723175418
 20
182.5302948584916
 30
0.0
 40
0.5
 50
272.53011562566809
 51
351.3369338919241
  0
LINE
  5
13778
  8
PH
 10
678.99999999786814
 20
181.45109172967699
 30
0.0
 11
692.11904525543616
 21
182.03079124597329
 31
0.0
  0
LINE
  5
13779
  8
PH
 10
683.96532058502623
 20
181.67049738076949
 30
0.0
 11
684.06685256744822
 21
179.37273641732949
 31
0.0
  0
LINE
  5
1377A
  8
KI2
 10
708.49999999786814
 20
180.2500061622026
 30
0.0
 11
708.49999999786814
 21
188.2500061622026
 31
0.0
  0
LINE
  5
1377B
  8
KI2
 10
706.19999694611033
 20
188.2500061622026
 30
0.0
 11
706.19999694611033
 21
185.86338277963461
 31
0.0
  0
LINE
  5
1377C
  8
KI2
 10
708.49999999786814
 20
180.2500061622026
 30
0.0
 11
709.99999999786814
 21
180.2500061622026
 31
0.0
  0
LINE
  5
1377D
  8
KI2
 10
708.49999999786814
 20
188.2500061622026
 30
0.0
 11
706.19999694611033
 21
188.2500061622026
 31
0.0
  0
LINE
  5
1377E
  8
KI2
 10
706.19999694611033
 20
189.7500061622026
 30
0.0
 11
706.19999694611033
 21
187.8500046363246
 31
0.0
  0
LINE
  5
1377F
  8
PH
 10
645.99999999786814
 20
184.2500061622026
 30
0.0
 11
645.99999999786814
 21
178.2500061622026
 31
0.0
  0
LINE
  5
13780
  8
PH
 10
650.49999999786814
 20
166.2500061622026
 30
0.0
 11
674.49999999786814
 21
166.2500061622026
 31
0.0
  0
LINE
  5
13781
  8
PH
 10
674.49999999786814
 20
172.2500061622026
 30
0.0
 11
674.49999999786814
 21
166.2500061622026
 31
0.0
  0
LINE
  5
13782
  8
PH
 10
676.24999999786814
 20
172.2500061622026
 30
0.0
 11
674.49999999786814
 21
172.2500061622026
 31
0.0
  0
LINE
  5
13783
  8
PH
 10
676.24999999786814
 20
172.2500061622026
 30
0.0
 11
676.24999999786814
 21
178.2500061622026
 31
0.0
  0
LINE
  5
13784
  8
PH
 10
650.49999999786814
 20
172.2500061622026
 30
0.0
 11
650.49999999786814
 21
166.2500061622026
 31
0.0
  0
LINE
  5
13785
  8
PH
 10
647.99999999786814
 20
182.2500061622026
 30
0.0
 11
647.99999999786814
 21
178.2500061622026
 31
0.0
  0
LINE
  5
13786
  8
PH
 10
648.74999999786814
 20
178.2500061622026
 30
0.0
 11
648.74999999786814
 21
172.2500061622026
 31
0.0
  0
LINE
  5
13787
  8
PH
 10
648.74999999786814
 20
172.2500061622026
 30
0.0
 11
650.49999999786814
 21
172.2500061622026
 31
0.0
  0
LINE
  5
13788
  8
PH
 10
645.99999999786814
 20
178.2500061622026
 30
0.0
 11
648.74999999786814
 21
178.2500061622026
 31
0.0
  0
LINE
  5
13789
  8
KI2
 10
708.49999999786814
 20
234.7500061622026
 30
0.0
 11
706.19999694611033
 21
234.7500061622026
 31
0.0
  0
LINE
  5
1378A
  8
TS
 10
702.49999999786814
 20
232.7500061622026
 30
0.0
 11
702.49999999786814
 21
201.7500061622026
 31
0.0
  0
LINE
  5
1378B
  8
TS
 10
704.49999999786814
 20
201.7500061622026
 30
0.0
 11
704.49999999786814
 21
234.7500061622026
 31
0.0
  0
LINE
  5
1378C
  8
TS
 10
698.49999999786814
 20
204.5000061622026
 30
0.0
 11
698.49999999786814
 21
201.7500061622026
 31
0.0
  0
LINE
  5
1378D
  8
TS
 10
698.49999999786814
 20
201.7500061622026
 30
0.0
 11
704.49999999786814
 21
201.7500061622026
 31
0.0
  0
LINE
  5
1378E
  8
KI2
 10
699.97554206634959
 20
188.69875570443961
 30
0.0
 11
699.39883804108115
 21
201.7500061622026
 31
0.0
  0
ARC
  5
1378F
  8
KI2
 10
702.78028869415721
 20
188.65302892831659
 30
0.0
 40
0.5
 50
182.53011562566971
 51
261.33693389192422
  0
LINE
  5
13790
  8
KI2
 10
701.70108556534251
 20
201.7500061622026
 30
0.0
 11
702.2807850816389
 21
188.63096090463461
 31
0.0
  0
LINE
  5
13791
  8
KI2
 10
701.92049121643504
 20
196.78468557504459
 30
0.0
 11
699.6227302529951
 21
196.6831535926226
 31
0.0
  0
LINE
  5
13792
  8
TS
 10
704.49999999786814
 20
234.7500061622026
 30
0.0
 11
698.49999999786814
 21
234.7500061622026
 31
0.0
  0
LINE
  5
13793
  8
TS
 10
686.49999999786814
 20
230.2500061622026
 30
0.0
 11
686.49999999786814
 21
206.2500061622026
 31
0.0
  0
LINE
  5
13794
  8
TS
 10
692.49999999786814
 20
206.2500061622026
 30
0.0
 11
686.49999999786814
 21
206.2500061622026
 31
0.0
  0
LINE
  5
13795
  8
TS
 10
692.49999999786814
 20
204.5000061622026
 30
0.0
 11
692.49999999786814
 21
206.2500061622026
 31
0.0
  0
LINE
  5
13796
  8
TS
 10
692.49999999786814
 20
204.5000061622026
 30
0.0
 11
698.49999999786814
 21
204.5000061622026
 31
0.0
  0
LINE
  5
13797
  8
TS
 10
692.49999999786814
 20
230.2500061622026
 30
0.0
 11
686.49999999786814
 21
230.2500061622026
 31
0.0
  0
LINE
  5
13798
  8
TS
 10
702.49999999786814
 20
232.7500061622026
 30
0.0
 11
698.49999999786814
 21
232.7500061622026
 31
0.0
  0
LINE
  5
13799
  8
TS
 10
698.49999999786814
 20
232.0000061622026
 30
0.0
 11
692.49999999786814
 21
232.0000061622026
 31
0.0
  0
LINE
  5
1379A
  8
TS
 10
692.49999999786814
 20
232.0000061622026
 30
0.0
 11
692.49999999786814
 21
230.2500061622026
 31
0.0
  0
LINE
  5
1379B
  8
TS
 10
698.49999999786814
 20
234.7500061622026
 30
0.0
 11
698.49999999786814
 21
232.0000061622026
 31
0.0
  0
LINE
  5
1379C
  8
PH
 10
645.99999999786814
 20
184.2500061622026
 30
0.0
 11
645.99999999786814
 21
154.2500061622026
 31
0.0
  0
LINE
  5
1379D
  8
PH
 10
678.99999999786814
 20
154.2500061622026
 30
0.0
 11
678.99999999786814
 21
184.2500061622026
 31
0.0
  0
LINE
  5
1379E
  8
KI1
 10
460.49999999787809
 20
234.75000616218639
 30
0.0
 11
460.49999999787809
 21
201.7500061622026
 31
0.0
  0
LINE
  5
1379F
  8
KI1
 10
565.4999999978761
 20
234.75000616218651
 30
0.0
 11
565.4999999978761
 21
201.7500061622026
 31
0.0
  0
LINE
  5
137A0
  8
KI1
 10
560.4999999978761
 20
234.75000616218639
 30
0.0
 11
560.4999999978761
 21
201.7500061622026
 31
0.0
  0
LINE
  5
137A1
  8
KI1
 10
704.49999999786814
 20
234.75000616218639
 30
0.0
 11
704.49999999786814
 21
201.7500061622026
 31
0.0
  0
LINE
  5
137A2
  8
SU
 10
560.4999999978761
 20
200.7500061622026
 30
0.0
 11
560.4999999978761
 21
101.2500000000162
 31
0.0
  0
LINE
  5
137A3
  8
SU
 10
460.49999999787809
 20
104.2500000000161
 30
0.0
 11
560.4999999978761
 21
104.2500000000161
 31
0.0
  0
ARC
  5
137A4
  8
SU
 10
560.4999999978761
 20
104.2500000000161
 30
0.0
 40
0.6
 50
180.0
 51
0.0
  0
ARC
  5
137A5
  8
SU
 10
560.4999999978761
 20
104.2500000000161
 30
0.0
 40
0.6
 50
0.0
 51
180.0
  0
TEXT
  5
137A6
  8
SU
 10
469.13833333121039
 20
105.5500000000161
 30
0.0
 40
7.0
  1
子ドアW（KDW）=405
 41
0.8299999999999999
  0
LINE
  5
137A7
  8
SU
 10
560.4999999978761
 20
104.250000000016
 30
0.0
 11
565.4999999978761
 21
104.250000000016
 31
0.0
  0
LINE
  5
137A8
  8
SU
 10
562.99999999787599
 20
104.250000000016
 30
0.0
 11
570.36025403572057
 21
119.2500000000161
 31
0.0
  0
LINE
  5
137A9
  8
SU
 10
570.36025403572057
 20
119.2500000000161
 30
0.0
 11
576.83358736905393
 21
119.2500000000161
 31
0.0
  0
TEXT
  5
137AA
  8
SU
 10
570.83025403572037
 20
120.5500000000162
 30
0.0
 40
7.0
  1
5
 41
0.8299999999999999
  0
LINE
  5
137AB
  8
SU
 10
518.99999999787769
 20
134.25000000001589
 30
0.0
 11
432.49999999787769
 21
134.25000000001589
 31
0.0
  0
ARC
  5
137AC
  8
SU
 10
432.49999999787769
 20
134.25000000001589
 30
0.0
 40
0.6
 50
0.0
 51
180.0
  0
ARC
  5
137AD
  8
SU
 10
432.49999999787769
 20
134.25000000001589
 30
0.0
 40
0.6
 50
180.0
 51
0.0
  0
TEXT
  5
137AE
  8
SU
 10
466.0666666645443
 20
135.5500000000159
 30
0.0
 40
7.0
  1
86.5
 41
0.8299999999999999
  0
LINE
  5
137AF
  8
SU
 10
645.99999999786814
 20
185.2500061622026
 30
0.0
 11
645.99999999786814
 21
282.75000616218722
 31
0.0
  0
LINE
  5
137B0
  8
SU
 10
570.49999999787656
 20
241.25000599349161
 30
0.0
 11
570.49999999787656
 21
282.75000616218722
 31
0.0
  0
LINE
  5
137B1
  8
SU
 10
645.99999999786814
 20
279.75000616218711
 30
0.0
 11
570.49999999787656
 21
279.75000616218711
 31
0.0
  0
ARC
  5
137B5
  8
SU
 10
645.99999999786814
 20
279.75000616218711
 30
0.0
 40
0.6
 50
180.0
 51
0.0
  0
ARC
  5
137B6
  8
SU
 10
645.99999999786814
 20
279.75000616218711
 30
0.0
 40
0.6
 50
0.0
 51
180.0
  0
ARC
  5
137B7
  8
SU
 10
570.49999999787656
 20
279.75000616218711
 30
0.0
 40
0.6
 50
0.0
 51
180.0
  0
ARC
  5
137B8
  8
SU
 10
570.49999999787656
 20
279.75000616218711
 30
0.0
 40
0.6
 50
180.0
 51
0.0
  0
LINE
  5
137B9
  8
SU
 10
545.49999999787644
 20
238.7500059934915
 30
0.0
 11
545.49999999787644
 21
282.75000616218711
 31
0.0
  0
LINE
  5
137BA
  8
SU
 10
570.49999999787656
 20
279.75000616218711
 30
0.0
 11
545.49999999787644
 21
279.75000616218711
 31
0.0
  0
ARC
  5
137BB
  8
SU
 10
545.49999999787644
 20
279.75000616218711
 30
0.0
 40
0.6
 50
0.0
 51
180.0
  0
ARC
  5
137BC
  8
SU
 10
545.49999999787644
 20
279.75000616218711
 30
0.0
 40
0.6
 50
180.0
 51
0.0
  0
TEXT
  5
137BD
  8
SU
 10
553.40499999787653
 20
281.05000616218712
 30
0.0
 40
7.0
  1
25
 41
0.8299999999999999
  0
LINE
  5
137BE
  8
SU
 10
560.4999999978761
 20
236.7500059934915
 30
0.0
 11
560.4999999978761
 21
267.75000616218722
 31
0.0
  0
LINE
  5
137BF
  8
SU
 10
593.56502133504955
 20
264.75000616218722
 30
0.0
 11
560.4999999978761
 21
264.75000616218722
 31
0.0
  0
ARC
  5
137C0
  8
SU
 10
570.49999999787656
 20
264.75000616218722
 30
0.0
 40
0.6
 50
180.0
 51
0.0
  0
ARC
  5
137C1
  8
SU
 10
570.49999999787656
 20
264.75000616218722
 30
0.0
 40
0.6
 50
0.0
 51
180.0
  0
ARC
  5
137C2
  8
SU
 10
560.4999999978761
 20
264.75000616218722
 30
0.0
 40
0.6
 50
0.0
 51
180.0
  0
ARC
  5
137C3
  8
SU
 10
560.4999999978761
 20
264.75000616218722
 30
0.0
 40
0.6
 50
180.0
 51
0.0
  0
TEXT
  5
137C4
  8
SU
 10
571.64559888382746
 20
266.05000616218717
 30
0.0
 40
7.0
  1
（10）
 41
0.8299999999999999
  0
LINE
  5
137C5
  8
KI1
 10
460.49999999787809
 20
234.75000616218639
 30
0.0
 11
514.99999999787769
 21
234.75000616218639
 31
0.0
  0
LINE
  5
137C6
  8
KI1
 10
516.99999999787758
 20
234.75000616218639
 30
0.0
 11
549.49999999787815
 21
234.75000616218651
 31
0.0
  0
LINE
  5
137C7
  8
KI1
 10
554.49999999787838
 20
234.75000616218639
 30
0.0
 11
560.4999999978761
 21
234.75000616218639
 31
0.0
  0
LINE
  5
137C8
  8
KI1
 10
460.49999999787809
 20
201.7500061622026
 30
0.0
 11
514.99999999787769
 21
201.7500061622026
 31
0.0
  0
LINE
  5
137C9
  8
KI1
 10
516.99999999787758
 20
201.7500061622026
 30
0.0
 11
560.4999999978761
 21
201.7500061622026
 31
0.0
  0
LINE
  5
137CA
  8
KI1
 10
565.4999999978761
 20
201.7500061622026
 30
0.0
 11
571.49999999787644
 21
201.7500061622026
 31
0.0
  0
LINE
  5
137CB
  8
KI1
 10
576.49999999787644
 20
201.7500061622026
 30
0.0
 11
633.99999999787212
 21
201.7500061622026
 31
0.0
  0
LINE
  5
137CC
  8
KI1
 10
635.99999999787212
 20
201.7500061622026
 30
0.0
 11
704.49999999786814
 21
201.7500061622026
 31
0.0
  0
LINE
  5
137CD
  8
KI1
 10
565.4999999978761
 20
234.75000616218651
 30
0.0
 11
633.99999999787212
 21
234.75000616218639
 31
0.0
  0
LINE
  5
137CE
  8
KI1
 10
635.99999999787212
 20
234.75000616218639
 30
0.0
 11
704.49999999786814
 21
234.75000616218639
 31
0.0
  0
LINE
  5
137CF
  8
TE
 10
443.10660171796269
 20
183.64339828236621
 30
0.0
 11
421.89339828203708
 21
204.85660171763379
 31
0.0
  0
LINE
  5
137D0
  8
TE
 10
421.8953197459283
 20
183.6414757736465
 30
0.0
 11
443.10468025407152
 21
204.85852422635341
 31
0.0
  0
LINE
  5
137D1
  8
TE
 10
743.10660171796269
 20
183.64339828236601
 30
0.0
 11
721.89339828203697
 21
204.85660171763359
 31
0.0
  0
LINE
  5
137D2
  8
TE
 10
721.8953197459283
 20
183.64147577364631
 30
0.0
 11
743.10468025407147
 21
204.85852422635321
 31
0.0
  0
LINE
  5
137D3
  8
KI2
 10
713.33390706991963
 20
251.8500099163048
 30
0.0
 11
713.37464592335527
 21
251.80927106286899
 31
0.0
  0
LINE
  5
137D4
  8
KI2
 10
713.01959810568212
 20
251.85000991630491
 30
0.0
 11
713.13742986522368
 21
251.7321781567633
 31
0.0
  0
LINE
  5
137D5
  8
KI2
 10
712.70528914144472
 20
251.85000991630491
 30
0.0
 11
712.90021380709186
 21
251.65508525065761
 31
0.0
  0
LINE
  5
137D6
  8
KI2
 10
712.39098017720733
 20
251.85000991630491
 30
0.0
 11
712.66299774896015
 21
251.57799234455189
 31
0.0
  0
LINE
  5
137D7
  8
KI2
 10
712.07667121296993
 20
251.85000991630491
 30
0.0
 11
712.42578169082844
 21
251.5008994384464
 31
0.0
  0
LINE
  5
137D8
  8
KI2
 10
711.76236224873253
 20
251.85000991630491
 30
0.0
 11
712.18856563269674
 21
251.42380653234071
 31
0.0
  0
LINE
  5
137D9
  8
KI2
 10
711.49994000212837
 20
251.79812319867139
 30
0.0
 11
711.95134957456492
 21
251.34671362623499
 31
0.0
  0
LINE
  5
137DA
  8
KI2
 10
711.49994000212837
 20
251.48381423443399
 30
0.0
 11
711.71413351643309
 21
251.26962072012941
 31
0.0
  0
LINE
  5
137DB
  8
KI2
 10
714.59114292686922
 20
251.85000991630491
 30
0.0
 11
714.64170573982108
 21
251.79944710335289
 31
0.0
  0
LINE
  5
137DC
  8
KI2
 10
714.27683396263183
 20
251.8500099163048
 30
0.0
 11
714.4356064341415
 21
251.69123744479501
 31
0.0
  0
LINE
  5
137DD
  8
KI2
 10
713.96252499839443
 20
251.8500099163048
 30
0.0
 11
714.22950712846205
 21
251.58302778623721
 31
0.0
  0
LINE
  5
137DE
  8
KI2
 10
713.64821603415703
 20
251.8500099163048
 30
0.0
 11
714.02340782278259
 21
251.47481812767921
 31
0.0
  0
LINE
  5
137DF
  8
KI2
 10
713.50000000212901
 20
251.68391698409539
 30
0.0
 11
713.81730851710302
 21
251.36660846912139
 31
0.0
  0
LINE
  5
137E0
  8
KI2
 10
713.50000000212901
 20
251.36960801985799
 30
0.0
 11
713.61120921142344
 21
251.25839881056359
 31
0.0
  0
LINE
  5
137E1
  8
KI2
 10
711.44805328449502
 20
251.85000991630491
 30
0.0
 11
711.46077992708479
 21
251.837283273715
 31
0.0
  0
LINE
  5
137E2
  8
KI2
 10
711.13374432025762
 20
251.85000991630491
 30
0.0
 11
711.22356386895319
 21
251.76019036760931
 31
0.0
  0
LINE
  5
137E3
  8
KI2
 10
710.81943535601999
 20
251.85000991630491
 30
0.0
 11
710.98634781082148
 21
251.68309746150351
 31
0.0
  0
LINE
  5
137E4
  8
KI2
 10
710.50512639178271
 20
251.85000991630491
 30
0.0
 11
710.74913175268966
 21
251.60600455539779
 31
0.0
  0
LINE
  5
137E5
  8
KI2
 10
710.19081742754531
 20
251.85000991630491
 30
0.0
 11
710.51191569455807
 21
251.5289116492921
 31
0.0
  0
LINE
  5
137E6
  8
KI2
 10
709.87650846330791
 20
251.85000991630491
 30
0.0
 11
710.27469963642625
 21
251.45181874318641
 31
0.0
  0
LINE
  5
137E7
  8
KI2
 10
709.56219949907052
 20
251.85000991630491
 30
0.0
 11
710.03748357829454
 21
251.37472583708089
 31
0.0
  0
LINE
  5
137E8
  8
KI2
 10
709.49988000212863
 20
251.5980204490094
 30
0.0
 11
709.80026752016295
 21
251.29763293097511
 31
0.0
  0
LINE
  5
137E9
  8
KI2
 10
709.49988000212863
 20
251.28371148477191
 30
0.0
 11
709.56305146203124
 21
251.22054002486931
 31
0.0
  0
LINE
  5
137EA
  8
KI1
 10
706.28395358518537
 20
251.85000991630491
 30
0.0
 11
709.49988000212863
 21
251.85000991630491
 31
0.0
  0
LINE
  5
137EB
  8
KI1
 10
706.28395358518537
 20
241.65008991630461
 30
0.0
 11
709.49988000212863
 21
241.65008991630461
 31
0.0
  0
LINE
  5
137EC
  8
KI2
 10
709.49988000212875
 20
242.21638834783761
 30
0.0
 11
709.56305146203124
 21
242.27955980774021
 31
0.0
  0
LINE
  5
137ED
  8
KI2
 10
709.49988000212863
 20
241.9020793836001
 30
0.0
 11
709.80026752016295
 21
242.20246690163441
 31
0.0
  0
LINE
  5
137EE
  8
KI2
 10
709.56219949907052
 20
241.65008991630461
 30
0.0
 11
710.03748357829454
 21
242.12537399552861
 31
0.0
  0
LINE
  5
137EF
  8
KI2
 10
709.87650846330791
 20
241.65008991630461
 30
0.0
 11
710.27469963642625
 21
242.048281089423
 31
0.0
  0
LINE
  5
137F0
  8
KI2
 10
710.19081742754531
 20
241.65008991630461
 30
0.0
 11
710.51191569455796
 21
241.97118818331731
 31
0.0
  0
LINE
  5
137F1
  8
KI2
 10
710.50512639178271
 20
241.65008991630461
 30
0.0
 11
710.74913175268955
 21
241.89409527721159
 31
0.0
  0
LINE
  5
137F2
  8
KI2
 10
710.81943535601999
 20
241.65008991630461
 30
0.0
 11
710.98634781082148
 21
241.81700237110601
 31
0.0
  0
LINE
  5
137F3
  8
KI2
 10
711.13374432025762
 20
241.65008991630481
 30
0.0
 11
711.22356386895319
 21
241.7399094650003
 31
0.0
  0
LINE
  5
137F4
  8
KI2
 10
711.44805328449502
 20
241.65008991630461
 30
0.0
 11
711.46077992708479
 21
241.66281655889449
 31
0.0
  0
LINE
  5
137F5
  8
KI2
 10
713.50000000212901
 20
242.1304918127515
 30
0.0
 11
713.61120921142344
 21
242.24170102204599
 31
0.0
  0
LINE
  5
137F6
  8
KI2
 10
713.50000000212901
 20
241.8161828485141
 30
0.0
 11
713.81730851710302
 21
242.1334913634881
 31
0.0
  0
LINE
  5
137F7
  8
KI2
 10
713.64821603415703
 20
241.65008991630481
 30
0.0
 11
714.02340782278259
 21
242.02528170493031
 31
0.0
  0
LINE
  5
137F8
  8
KI2
 10
713.96252499839443
 20
241.65008991630481
 30
0.0
 11
714.22950712846205
 21
241.91707204637251
 31
0.0
  0
LINE
  5
137F9
  8
KI2
 10
714.27683396263183
 20
241.65008991630481
 30
0.0
 11
714.4356064341415
 21
241.8088623878146
 31
0.0
  0
LINE
  5
137FA
  8
KI2
 10
714.59114292686922
 20
241.65008991630481
 30
0.0
 11
714.64170573982108
 21
241.70065272925669
 31
0.0
  0
LINE
  5
137FB
  8
KI2
 10
711.49994000212837
 20
242.01628559817561
 30
0.0
 11
711.71413351643321
 21
242.23047911248031
 31
0.0
  0
LINE
  5
137FC
  8
KI2
 10
711.49994000212837
 20
241.7019766339381
 30
0.0
 11
711.95134957456492
 21
242.15338620637451
 31
0.0
  0
LINE
  5
137FD
  8
KI2
 10
711.76236224873253
 20
241.65008991630461
 30
0.0
 11
712.18856563269674
 21
242.07629330026879
 31
0.0
  0
LINE
  5
137FE
  8
KI2
 10
712.07667121296993
 20
241.65008991630461
 30
0.0
 11
712.42578169082844
 21
241.99920039416321
 31
0.0
  0
LINE
  5
137FF
  8
KI2
 10
712.39098017720733
 20
241.65008991630461
 30
0.0
 11
712.66299774896015
 21
241.92210748805741
 31
0.0
  0
LINE
  5
13800
  8
KI2
 10
712.70528914144472
 20
241.65008991630461
 30
0.0
 11
712.90021380709186
 21
241.84501458195189
 31
0.0
  0
LINE
  5
13801
  8
KI2
 10
713.01959810568212
 20
241.65008991630461
 30
0.0
 11
713.13742986522368
 21
241.7679216758462
 31
0.0
  0
LINE
  5
13802
  8
KI2
 10
713.33390706991952
 20
241.65008991630461
 30
0.0
 11
713.37464592335527
 21
241.69082876974051
 31
0.0
  0
LINE
  5
13803
  8
KI1
 10
706.50268358518565
 20
239.5500499163046
 30
0.0
 11
706.28395358518537
 21
241.65008991630461
 31
0.0
  0
ARC
  5
13804
  8
KI1
 10
697.00000000212901
 20
255.2500499163049
 30
0.0
 40
0.5
 50
90.0
 51
180.0
  0
ARC
  5
13805
  8
KI1
 10
697.00000000212901
 20
255.2500499163049
 30
0.0
 40
0.5
 50
180.0
 51
180.0
  0
ARC
  5
13806
  8
KI1
 10
697.00000000212901
 20
238.2500499163047
 30
0.0
 40
0.5
 50
180.0
 51
270.0
  0
LINE
  5
13807
  8
KI1
 10
698.30000000212897
 20
239.5500499163046
 30
0.0
 11
706.50268358518565
 21
239.5500499163046
 31
0.0
  0
LINE
  5
13808
  8
KI1
 10
698.30000000212897
 20
239.5500499163046
 30
0.0
 11
698.30000000212897
 21
253.95004991630489
 31
0.0
  0
LINE
  5
13809
  8
KI1
 10
709.49988000212863
 20
241.65008991630461
 30
0.0
 11
714.73800916394714
 21
241.65008991630461
 31
0.0
  0
LINE
  5
1380A
  8
KI1
 10
715.49988000212863
 20
241.250079916305
 30
0.0
 11
713.50000000212901
 21
242.30008991630521
 31
0.0
  0
LINE
  5
1380B
  8
KI1
 10
713.50000000212901
 20
241.65008991630461
 30
0.0
 11
711.49994000212837
 21
242.30008991630521
 31
0.0
  0
LINE
  5
1380C
  8
KI1
 10
711.49994000212837
 20
241.65008991630461
 30
0.0
 11
709.49988000212863
 21
242.30008991630521
 31
0.0
  0
LINE
  5
1380D
  8
KI1
 10
709.49988000212863
 20
241.65008991630461
 30
0.0
 11
709.49988000212863
 21
242.30008991630521
 31
0.0
  0
LINE
  5
1380E
  8
KI1
 10
711.49994000212837
 20
241.65008991630461
 30
0.0
 11
711.49994000212837
 21
242.30008991630521
 31
0.0
  0
LINE
  5
1380F
  8
KI1
 10
713.50000000212901
 20
241.65008991630461
 30
0.0
 11
713.50000000212901
 21
242.30008991630521
 31
0.0
  0
LINE
  5
13810
  8
KI1
 10
708.49990000212904
 20
237.75004991630459
 30
0.0
 11
708.28117000212865
 21
239.85008991630471
 31
0.0
  0
LINE
  5
13811
  8
KI1
 10
708.28117000212865
 20
239.85008991630471
 30
0.0
 11
709.49988000212863
 21
239.85008991630471
 31
0.0
  0
LINE
  5
13812
  8
KI1
 10
713.50000000212901
 20
239.2000299163046
 30
0.0
 11
715.49988000212863
 21
240.2500899163046
 31
0.0
  0
LINE
  5
13813
  8
KI1
 10
709.49988000212863
 20
239.2000299163046
 30
0.0
 11
711.49994000212837
 21
239.85008991630471
 31
0.0
  0
LINE
  5
13814
  8
KI1
 10
711.49994000212837
 20
239.2000299163046
 30
0.0
 11
713.50000000212901
 21
239.85008991630471
 31
0.0
  0
LINE
  5
13815
  8
KI1
 10
709.49988000212863
 20
239.2000299163046
 30
0.0
 11
709.49988000212863
 21
239.85008991630471
 31
0.0
  0
LINE
  5
13816
  8
KI1
 10
711.49994000212837
 20
239.2000299163046
 30
0.0
 11
711.49994000212837
 21
239.85008991630471
 31
0.0
  0
LINE
  5
13817
  8
KI1
 10
713.50000000212901
 20
239.2000299163046
 30
0.0
 11
713.50000000212901
 21
239.85008991630471
 31
0.0
  0
LINE
  5
13818
  8
KI1
 10
715.49988000212863
 20
240.2500899163046
 30
0.0
 11
715.49988000212863
 21
241.250079916305
 31
0.0
  0
LINE
  5
13819
  8
KI1
 10
697.00000000212901
 20
237.75004991630459
 30
0.0
 11
708.49990000212904
 21
237.75004991630459
 31
0.0
  0
LINE
  5
1381A
  8
KI1
 10
696.50000000212901
 20
238.2500499163047
 30
0.0
 11
696.50000000212901
 21
255.2500499163049
 31
0.0
  0
LINE
  5
1381B
  8
KI1
 10
697.00000000212901
 20
255.7500499163049
 30
0.0
 11
708.49990000212904
 21
255.7500499163049
 31
0.0
  0
LINE
  5
1381C
  8
KI1
 10
698.30000000212897
 20
253.95004991630489
 30
0.0
 11
706.50268358518565
 21
253.95004991630489
 31
0.0
  0
LINE
  5
1381D
  8
KI1
 10
715.49988000212863
 20
253.25000991630489
 30
0.0
 11
715.49988000212863
 21
252.2500199163045
 31
0.0
  0
LINE
  5
1381E
  8
KI1
 10
713.50000000212901
 20
254.30006991630481
 30
0.0
 11
713.50000000212901
 21
253.6500099163049
 31
0.0
  0
LINE
  5
1381F
  8
KI1
 10
711.49994000212837
 20
254.30006991630481
 30
0.0
 11
711.49994000212837
 21
253.6500099163049
 31
0.0
  0
LINE
  5
13820
  8
KI1
 10
709.49988000212863
 20
254.30006991630481
 30
0.0
 11
709.49988000212863
 21
253.6500099163049
 31
0.0
  0
LINE
  5
13821
  8
KI1
 10
711.49994000212837
 20
254.30006991630481
 30
0.0
 11
713.50000000212901
 21
253.6500099163049
 31
0.0
  0
LINE
  5
13822
  8
KI1
 10
709.49988000212863
 20
254.30006991630481
 30
0.0
 11
711.49994000212837
 21
253.6500099163049
 31
0.0
  0
LINE
  5
13823
  8
KI1
 10
713.50000000212901
 20
254.30006991630481
 30
0.0
 11
715.49988000212863
 21
253.25000991630489
 31
0.0
  0
LINE
  5
13824
  8
KI1
 10
708.28117000212865
 20
253.6500099163049
 30
0.0
 11
709.49988000212863
 21
253.6500099163049
 31
0.0
  0
LINE
  5
13825
  8
KI1
 10
708.49990000212904
 20
255.7500499163049
 30
0.0
 11
708.28117000212865
 21
253.6500099163049
 31
0.0
  0
LINE
  5
13826
  8
KI1
 10
713.50000000212901
 20
251.85000991630491
 30
0.0
 11
713.50000000212901
 21
251.2000099163044
 31
0.0
  0
LINE
  5
13827
  8
KI1
 10
711.49994000212837
 20
251.85000991630491
 30
0.0
 11
711.49994000212837
 21
251.2000099163044
 31
0.0
  0
LINE
  5
13828
  8
KI1
 10
709.49988000212863
 20
251.85000991630491
 30
0.0
 11
709.49988000212863
 21
251.2000099163044
 31
0.0
  0
LINE
  5
13829
  8
KI1
 10
711.49994000212837
 20
251.85000991630491
 30
0.0
 11
709.49988000212863
 21
251.2000099163044
 31
0.0
  0
LINE
  5
1382A
  8
KI1
 10
713.50000000212901
 20
251.85000991630491
 30
0.0
 11
711.49994000212837
 21
251.2000099163044
 31
0.0
  0
LINE
  5
1382B
  8
KI1
 10
715.49988000212863
 20
252.2500199163045
 30
0.0
 11
713.50000000212901
 21
251.2000099163044
 31
0.0
  0
LINE
  5
1382C
  8
KI1
 10
709.49988000212863
 20
251.85000991630491
 30
0.0
 11
714.73800916394714
 21
251.85000991630491
 31
0.0
  0
LINE
  5
1382D
  8
KI1
 10
706.50268358518565
 20
253.95004991630489
 30
0.0
 11
706.28395358518537
 21
251.85000991630491
 31
0.0
  0
LINE
  5
1382E
  8
KI1
 10
708.49999999999989
 20
238.7500509163047
 30
0.0
 11
716.50000000212947
 21
238.7500509163047
 31
0.0
  0
LINE
  5
1382F
  8
KI1
 10
708.49999999999989
 20
254.75004891630491
 30
0.0
 11
716.50000000212901
 21
254.75004891630491
 31
0.0
  0
LINE
  5
13830
  8
KI1
 10
708.50000000212901
 20
251.3500499163047
 30
0.0
 11
716.50000000212901
 21
251.3500499163047
 31
0.0
  0
LINE
  5
13831
  8
KI1
 10
708.50000000212901
 20
242.15004991630491
 30
0.0
 11
716.50000000212901
 21
242.1500499163044
 31
0.0
  0
LINE
  5
13832
  8
KI1
 10
716.50000000212901
 20
242.1500499163044
 30
0.0
 11
716.50000000212901
 21
238.7500509163047
 31
0.0
  0
LINE
  5
13833
  8
KI1
 10
716.50000000212901
 20
254.75004891630491
 30
0.0
 11
716.50000000212901
 21
251.3500499163047
 31
0.0
  0
LINE
  5
13834
  8
KI1
 10
708.50000000212901
 20
242.15004991630491
 30
0.0
 11
708.50000000212901
 21
251.3500499163047
 31
0.0
  0
LINE
  5
13835
  8
KI2
 10
451.66609293008008
 20
251.8500099163048
 30
0.0
 11
451.62535407664433
 21
251.80927106286899
 31
0.0
  0
LINE
  5
13836
  8
KI2
 10
451.98040189431759
 20
251.85000991630491
 30
0.0
 11
451.86257013477609
 21
251.7321781567633
 31
0.0
  0
LINE
  5
13837
  8
KI2
 10
452.29471085855499
 20
251.85000991630491
 30
0.0
 11
452.09978619290769
 21
251.65508525065761
 31
0.0
  0
LINE
  5
13838
  8
KI2
 10
452.60901982279239
 20
251.85000991630491
 30
0.0
 11
452.33700225103951
 21
251.57799234455189
 31
0.0
  0
LINE
  5
13839
  8
KI2
 10
452.92332878702979
 20
251.85000991630491
 30
0.0
 11
452.57421830917127
 21
251.5008994384464
 31
0.0
  0
LINE
  5
1383A
  8
KI2
 10
453.23763775126719
 20
251.85000991630491
 30
0.0
 11
452.81143436730298
 21
251.42380653234071
 31
0.0
  0
LINE
  5
1383B
  8
KI2
 10
453.50005999787129
 20
251.79812319867139
 30
0.0
 11
453.0486504254348
 21
251.34671362623499
 31
0.0
  0
LINE
  5
1383C
  8
KI2
 10
453.50005999787129
 20
251.48381423443399
 30
0.0
 11
453.28586648356662
 21
251.26962072012941
 31
0.0
  0
LINE
  5
1383D
  8
KI2
 10
450.40885707313049
 20
251.85000991630491
 30
0.0
 11
450.35829426017852
 21
251.79944710335289
 31
0.0
  0
LINE
  5
1383E
  8
KI2
 10
450.72316603736789
 20
251.8500099163048
 30
0.0
 11
450.5643935658581
 21
251.69123744479501
 31
0.0
  0
LINE
  5
1383F
  8
KI2
 10
451.03747500160529
 20
251.8500099163048
 30
0.0
 11
450.77049287153761
 21
251.58302778623721
 31
0.0
  0
LINE
  5
13840
  8
KI2
 10
451.35178396584269
 20
251.8500099163048
 30
0.0
 11
450.97659217721719
 21
251.47481812767921
 31
0.0
  0
LINE
  5
13841
  8
KI2
 10
451.4999999978707
 20
251.68391698409539
 30
0.0
 11
451.1826914828967
 21
251.36660846912139
 31
0.0
  0
LINE
  5
13842
  8
KI2
 10
451.4999999978707
 20
251.36960801985799
 30
0.0
 11
451.38879078857627
 21
251.25839881056359
 31
0.0
  0
LINE
  5
13843
  8
KI2
 10
453.5519467155047
 20
251.85000991630491
 30
0.0
 11
453.53922007291482
 21
251.837283273715
 31
0.0
  0
LINE
  5
13844
  8
KI2
 10
453.8662556797421
 20
251.85000991630491
 30
0.0
 11
453.77643613104658
 21
251.76019036760931
 31
0.0
  0
LINE
  5
13845
  8
KI2
 10
454.18056464397961
 20
251.85000991630491
 30
0.0
 11
454.01365218917817
 21
251.68309746150351
 31
0.0
  0
LINE
  5
13846
  8
KI2
 10
454.49487360821701
 20
251.85000991630491
 30
0.0
 11
454.25086824731
 21
251.60600455539779
 31
0.0
  0
LINE
  5
13847
  8
KI2
 10
454.80918257245452
 20
251.85000991630491
 30
0.0
 11
454.4880843054417
 21
251.5289116492921
 31
0.0
  0
LINE
  5
13848
  8
KI2
 10
455.1234915366918
 20
251.85000991630491
 30
0.0
 11
454.7253003635733
 21
251.45181874318641
 31
0.0
  0
LINE
  5
13849
  8
KI2
 10
455.4378005009292
 20
251.85000991630491
 30
0.0
 11
454.96251642170517
 21
251.37472583708089
 31
0.0
  0
LINE
  5
1384A
  8
KI2
 10
455.50011999787108
 20
251.5980204490094
 30
0.0
 11
455.19973247983683
 21
251.29763293097511
 31
0.0
  0
LINE
  5
1384B
  8
KI2
 10
455.50011999787108
 20
251.28371148477191
 30
0.0
 11
455.43694853796848
 21
251.22054002486931
 31
0.0
  0
LINE
  5
1384C
  8
KI1
 10
458.71604641481417
 20
251.85000991630491
 30
0.0
 11
455.50011999787108
 21
251.85000991630491
 31
0.0
  0
LINE
  5
1384D
  8
KI1
 10
458.71604641481417
 20
241.65008991630461
 30
0.0
 11
455.50011999787108
 21
241.65008991630461
 31
0.0
  0
LINE
  5
1384E
  8
KI2
 10
455.50011999787102
 20
242.21638834783761
 30
0.0
 11
455.43694853796848
 21
242.27955980774021
 31
0.0
  0
LINE
  5
1384F
  8
KI2
 10
455.50011999787108
 20
241.9020793836001
 30
0.0
 11
455.19973247983683
 21
242.20246690163441
 31
0.0
  0
LINE
  5
13850
  8
KI2
 10
455.4378005009292
 20
241.65008991630461
 30
0.0
 11
454.96251642170517
 21
242.12537399552861
 31
0.0
  0
LINE
  5
13851
  8
KI2
 10
455.1234915366918
 20
241.65008991630461
 30
0.0
 11
454.72530036357352
 21
242.048281089423
 31
0.0
  0
LINE
  5
13852
  8
KI2
 10
454.80918257245452
 20
241.65008991630461
 30
0.0
 11
454.48808430544182
 21
241.97118818331731
 31
0.0
  0
LINE
  5
13853
  8
KI2
 10
454.49487360821701
 20
241.65008991630461
 30
0.0
 11
454.25086824731
 21
241.89409527721159
 31
0.0
  0
LINE
  5
13854
  8
KI2
 10
454.18056464397961
 20
241.65008991630461
 30
0.0
 11
454.01365218917817
 21
241.81700237110601
 31
0.0
  0
LINE
  5
13855
  8
KI2
 10
453.8662556797421
 20
241.65008991630481
 30
0.0
 11
453.77643613104658
 21
241.7399094650003
 31
0.0
  0
LINE
  5
13856
  8
KI2
 10
453.5519467155047
 20
241.65008991630461
 30
0.0
 11
453.53922007291482
 21
241.66281655889449
 31
0.0
  0
LINE
  5
13857
  8
KI2
 10
451.4999999978707
 20
242.1304918127515
 30
0.0
 11
451.38879078857627
 21
242.24170102204599
 31
0.0
  0
LINE
  5
13858
  8
KI2
 10
451.4999999978707
 20
241.8161828485141
 30
0.0
 11
451.1826914828967
 21
242.1334913634881
 31
0.0
  0
LINE
  5
13859
  8
KI2
 10
451.35178396584269
 20
241.65008991630481
 30
0.0
 11
450.97659217721719
 21
242.02528170493031
 31
0.0
  0
LINE
  5
1385A
  8
KI2
 10
451.03747500160529
 20
241.65008991630481
 30
0.0
 11
450.77049287153761
 21
241.91707204637251
 31
0.0
  0
LINE
  5
1385B
  8
KI2
 10
450.72316603736789
 20
241.65008991630481
 30
0.0
 11
450.5643935658581
 21
241.8088623878146
 31
0.0
  0
LINE
  5
1385C
  8
KI2
 10
450.40885707313049
 20
241.65008991630481
 30
0.0
 11
450.35829426017852
 21
241.70065272925669
 31
0.0
  0
LINE
  5
1385D
  8
KI2
 10
453.50005999787129
 20
242.01628559817561
 30
0.0
 11
453.28586648356651
 21
242.23047911248031
 31
0.0
  0
LINE
  5
1385E
  8
KI2
 10
453.50005999787129
 20
241.7019766339381
 30
0.0
 11
453.0486504254348
 21
242.15338620637451
 31
0.0
  0
LINE
  5
1385F
  8
KI2
 10
453.23763775126719
 20
241.65008991630461
 30
0.0
 11
452.81143436730298
 21
242.07629330026879
 31
0.0
  0
LINE
  5
13860
  8
KI2
 10
452.92332878702979
 20
241.65008991630461
 30
0.0
 11
452.57421830917127
 21
241.99920039416321
 31
0.0
  0
LINE
  5
13861
  8
KI2
 10
452.60901982279239
 20
241.65008991630461
 30
0.0
 11
452.33700225103962
 21
241.92210748805741
 31
0.0
  0
LINE
  5
13862
  8
KI2
 10
452.29471085855499
 20
241.65008991630461
 30
0.0
 11
452.09978619290769
 21
241.84501458195189
 31
0.0
  0
LINE
  5
13863
  8
KI2
 10
451.98040189431759
 20
241.65008991630461
 30
0.0
 11
451.86257013477609
 21
241.7679216758462
 31
0.0
  0
LINE
  5
13864
  8
KI2
 10
451.6660929300802
 20
241.65008991630461
 30
0.0
 11
451.62535407664433
 21
241.69082876974051
 31
0.0
  0
LINE
  5
13865
  8
KI1
 10
458.49731641481401
 20
239.5500499163046
 30
0.0
 11
458.71604641481417
 21
241.65008991630461
 31
0.0
  0
ARC
  5
13866
  8
KI1
 10
467.9999999978707
 20
255.2500499163049
 30
0.0
 40
0.5
 50
0.0
 51
90.0
  0
ARC
  5
13867
  8
KI1
 10
467.9999999978707
 20
255.2500499163049
 30
0.0
 40
0.5
 50
0.0
 51
0.0
  0
ARC
  5
13868
  8
KI1
 10
467.9999999978707
 20
238.2500499163047
 30
0.0
 40
0.5
 50
270.0
 51
0.0
  0
LINE
  5
13869
  8
KI1
 10
466.6999999978708
 20
239.5500499163046
 30
0.0
 11
458.49731641481401
 21
239.5500499163046
 31
0.0
  0
LINE
  5
1386A
  8
KI1
 10
466.6999999978708
 20
239.5500499163046
 30
0.0
 11
466.6999999978708
 21
253.95004991630489
 31
0.0
  0
LINE
  5
1386B
  8
KI1
 10
455.50011999787108
 20
241.65008991630461
 30
0.0
 11
450.26199083605258
 21
241.65008991630461
 31
0.0
  0
LINE
  5
1386C
  8
KI1
 10
449.50011999787108
 20
241.250079916305
 30
0.0
 11
451.4999999978707
 21
242.30008991630521
 31
0.0
  0
LINE
  5
1386D
  8
KI1
 10
451.4999999978707
 20
241.65008991630461
 30
0.0
 11
453.50005999787129
 21
242.30008991630521
 31
0.0
  0
LINE
  5
1386E
  8
KI1
 10
453.50005999787129
 20
241.65008991630461
 30
0.0
 11
455.50011999787108
 21
242.30008991630521
 31
0.0
  0
LINE
  5
1386F
  8
KI1
 10
455.50011999787108
 20
241.65008991630461
 30
0.0
 11
455.50011999787108
 21
242.30008991630521
 31
0.0
  0
LINE
  5
13870
  8
KI1
 10
453.50005999787129
 20
241.65008991630461
 30
0.0
 11
453.50005999787129
 21
242.30008991630521
 31
0.0
  0
LINE
  5
13871
  8
KI1
 10
451.4999999978707
 20
241.65008991630461
 30
0.0
 11
451.4999999978707
 21
242.30008991630521
 31
0.0
  0
LINE
  5
13872
  8
KI1
 10
456.50009999787068
 20
237.75004991630459
 30
0.0
 11
456.71882999787101
 21
239.85008991630471
 31
0.0
  0
LINE
  5
13873
  8
KI1
 10
456.71882999787101
 20
239.85008991630471
 30
0.0
 11
455.50011999787108
 21
239.85008991630471
 31
0.0
  0
LINE
  5
13874
  8
KI1
 10
451.4999999978707
 20
239.2000299163046
 30
0.0
 11
449.50011999787108
 21
240.2500899163046
 31
0.0
  0
LINE
  5
13875
  8
KI1
 10
455.50011999787108
 20
239.2000299163046
 30
0.0
 11
453.50005999787129
 21
239.85008991630471
 31
0.0
  0
LINE
  5
13876
  8
KI1
 10
453.50005999787129
 20
239.2000299163046
 30
0.0
 11
451.4999999978707
 21
239.85008991630471
 31
0.0
  0
LINE
  5
13877
  8
KI1
 10
455.50011999787108
 20
239.2000299163046
 30
0.0
 11
455.50011999787108
 21
239.85008991630471
 31
0.0
  0
LINE
  5
13878
  8
KI1
 10
453.50005999787129
 20
239.2000299163046
 30
0.0
 11
453.50005999787129
 21
239.85008991630471
 31
0.0
  0
LINE
  5
13879
  8
KI1
 10
451.4999999978707
 20
239.2000299163046
 30
0.0
 11
451.4999999978707
 21
239.85008991630471
 31
0.0
  0
LINE
  5
1387A
  8
KI1
 10
449.50011999787108
 20
240.2500899163046
 30
0.0
 11
449.50011999787108
 21
241.250079916305
 31
0.0
  0
LINE
  5
1387B
  8
KI1
 10
467.9999999978707
 20
237.75004991630459
 30
0.0
 11
456.50009999787068
 21
237.75004991630459
 31
0.0
  0
LINE
  5
1387C
  8
KI1
 10
468.4999999978707
 20
238.2500499163047
 30
0.0
 11
468.4999999978707
 21
255.2500499163049
 31
0.0
  0
LINE
  5
1387D
  8
KI1
 10
467.9999999978707
 20
255.7500499163049
 30
0.0
 11
456.50009999787068
 21
255.7500499163049
 31
0.0
  0
LINE
  5
1387E
  8
KI1
 10
466.6999999978708
 20
253.95004991630489
 30
0.0
 11
458.49731641481401
 21
253.95004991630489
 31
0.0
  0
LINE
  5
1387F
  8
KI1
 10
449.50011999787108
 20
253.25000991630489
 30
0.0
 11
449.50011999787108
 21
252.2500199163045
 31
0.0
  0
LINE
  5
13880
  8
KI1
 10
451.4999999978707
 20
254.30006991630481
 30
0.0
 11
451.4999999978707
 21
253.6500099163049
 31
0.0
  0
LINE
  5
13881
  8
KI1
 10
453.50005999787129
 20
254.30006991630481
 30
0.0
 11
453.50005999787129
 21
253.6500099163049
 31
0.0
  0
LINE
  5
13882
  8
KI1
 10
455.50011999787108
 20
254.30006991630481
 30
0.0
 11
455.50011999787108
 21
253.6500099163049
 31
0.0
  0
LINE
  5
13883
  8
KI1
 10
453.50005999787129
 20
254.30006991630481
 30
0.0
 11
451.4999999978707
 21
253.6500099163049
 31
0.0
  0
LINE
  5
13884
  8
KI1
 10
455.50011999787108
 20
254.30006991630481
 30
0.0
 11
453.50005999787129
 21
253.6500099163049
 31
0.0
  0
LINE
  5
13885
  8
KI1
 10
451.4999999978707
 20
254.30006991630481
 30
0.0
 11
449.50011999787108
 21
253.25000991630489
 31
0.0
  0
LINE
  5
13886
  8
KI1
 10
456.71882999787101
 20
253.6500099163049
 30
0.0
 11
455.50011999787108
 21
253.6500099163049
 31
0.0
  0
LINE
  5
13887
  8
KI1
 10
456.50009999787068
 20
255.7500499163049
 30
0.0
 11
456.71882999787101
 21
253.6500099163049
 31
0.0
  0
LINE
  5
13888
  8
KI1
 10
451.4999999978707
 20
251.85000991630491
 30
0.0
 11
451.4999999978707
 21
251.2000099163044
 31
0.0
  0
LINE
  5
13889
  8
KI1
 10
453.50005999787129
 20
251.85000991630491
 30
0.0
 11
453.50005999787129
 21
251.2000099163044
 31
0.0
  0
LINE
  5
1388A
  8
KI1
 10
455.50011999787108
 20
251.85000991630491
 30
0.0
 11
455.50011999787108
 21
251.2000099163044
 31
0.0
  0
LINE
  5
1388B
  8
KI1
 10
453.50005999787129
 20
251.85000991630491
 30
0.0
 11
455.50011999787108
 21
251.2000099163044
 31
0.0
  0
LINE
  5
1388C
  8
KI1
 10
451.4999999978707
 20
251.85000991630491
 30
0.0
 11
453.50005999787129
 21
251.2000099163044
 31
0.0
  0
LINE
  5
1388D
  8
KI1
 10
449.50011999787108
 20
252.2500199163045
 30
0.0
 11
451.4999999978707
 21
251.2000099163044
 31
0.0
  0
LINE
  5
1388E
  8
KI1
 10
455.50011999787108
 20
251.85000991630491
 30
0.0
 11
450.26199083605258
 21
251.85000991630491
 31
0.0
  0
LINE
  5
1388F
  8
KI1
 10
458.49731641481401
 20
253.95004991630489
 30
0.0
 11
458.71604641481417
 21
251.85000991630491
 31
0.0
  0
LINE
  5
13890
  8
KI1
 10
456.49999999999977
 20
238.7500509163047
 30
0.0
 11
448.4999999978703
 21
238.7500509163047
 31
0.0
  0
LINE
  5
13891
  8
KI1
 10
456.49999999999989
 20
254.75004891630491
 30
0.0
 11
448.49999999787082
 21
254.75004891630491
 31
0.0
  0
LINE
  5
13892
  8
KI1
 10
456.49999999787082
 20
251.3500499163047
 30
0.0
 11
448.49999999787082
 21
251.3500499163047
 31
0.0
  0
LINE
  5
13893
  8
KI1
 10
456.49999999787082
 20
242.15004991630491
 30
0.0
 11
448.49999999787082
 21
242.1500499163044
 31
0.0
  0
LINE
  5
13894
  8
KI1
 10
448.49999999787082
 20
242.1500499163044
 30
0.0
 11
448.49999999787082
 21
238.7500509163047
 31
0.0
  0
LINE
  5
13895
  8
KI1
 10
448.49999999787082
 20
254.75004891630491
 30
0.0
 11
448.49999999787082
 21
251.3500499163047
 31
0.0
  0
LINE
  5
13896
  8
KI1
 10
456.49999999787082
 20
242.15004991630491
 30
0.0
 11
456.49999999787082
 21
251.3500499163047
 31
0.0
  0
LINE
  5
13897
  8
SU
 10
469.4999999978707
 20
255.7499999999996
 30
0.0
 11
511.49999999787769
 21
255.7499999999996
 31
0.0
  0
LINE
  5
13898
  8
SU
 10
508.49999999787758
 20
361.25
 30
0.0
 11
508.49999999787758
 21
255.7499999999996
 31
0.0
  0
ARC
  5
13899
  8
SU
 10
508.49999999787758
 20
361.25
 30
0.0
 40
0.6
 50
270.0
 51
90.0
  0
ARC
  5
1389A
  8
SU
 10
508.49999999787758
 20
361.25
 30
0.0
 40
0.6
 50
90.0
 51
270.0
  0
ARC
  5
1389B
  8
SU
 10
508.49999999787758
 20
255.7499999999996
 30
0.0
 40
0.6
 50
90.0
 51
270.0
  0
ARC
  5
1389C
  8
SU
 10
508.49999999787758
 20
255.7499999999996
 30
0.0
 40
0.6
 50
270.0
 51
90.0
  0
TEXT
  5
1389D
  8
SU
 10
507.19999999787763
 20
298.81666666666649
 30
0.0
 40
7.0
  1
105.5
 50
90.0
 41
0.8299999999999999
  0
LINE
  5
1389E
  8
SU
 10
469.4999999978707
 20
237.75
 30
0.0
 11
511.49999999787781
 21
237.75
 31
0.0
  0
LINE
  5
1389F
  8
SU
 10
508.49999999787792
 20
255.7499999999996
 30
0.0
 11
508.49999999787769
 21
237.75
 31
0.0
  0
ARC
  5
138A0
  8
SU
 10
508.49999999787769
 20
237.75
 30
0.0
 40
0.6
 50
90.0
 51
270.0
  0
ARC
  5
138A1
  8
SU
 10
508.49999999787769
 20
237.75
 30
0.0
 40
0.6
 50
270.0
 51
90.0
  0
TEXT
  5
138A2
  8
SU
 10
507.1999999978778
 20
241.07833333333309
 30
0.0
 40
7.0
  1
18
 50
90.0
 41
0.8299999999999999
  0
LINE
  5
138A3
  8
SU
 10
508.49999999787758
 20
237.75
 30
0.0
 11
508.49999999787758
 21
234.75000000000799
 31
0.0
  0
LINE
  5
138A4
  8
SU
 10
508.49999999787758
 20
236.25000000000401
 30
0.0
 11
493.49999999787781
 21
243.61025403784831
 31
0.0
  0
LINE
  5
138A5
  8
SU
 10
493.49999999787781
 20
243.61025403784831
 30
0.0
 11
493.49999999787781
 21
250.36025403784839
 31
0.0
  0
TEXT
  5
138A6
  8
SU
 10
492.1999999978778
 20
244.08025403784839
 30
0.0
 40
7.0
  1
3
 50
90.0
 41
0.8299999999999999
  0
LINE
  5
138A7
  8
SU
 10
696.49999999999977
 20
256.74999999999949
 30
0.0
 11
696.49999999999977
 21
384.24999999999989
 31
0.0
  0
LINE
  5
138A8
  8
SU
 10
708.49999999999989
 20
381.24999999999989
 30
0.0
 11
696.49999999999977
 21
381.24999999999989
 31
0.0
  0
LINE
  5
138A9
  8
SU
 10
696.49999999999977
 20
381.24999999999989
 30
0.0
 11
682.68998251149264
 21
381.24999999999989
 31
0.0
  0
ARC
  5
138AA
  8
SU
 10
696.49999999999977
 20
381.24999999999989
 30
0.0
 40
0.6
 50
0.0
 51
180.0
  0
ARC
  5
138AB
  8
SU
 10
696.49999999999977
 20
381.24999999999989
 30
0.0
 40
0.6
 50
180.0
 51
0.0
  0
TEXT
  5
138AC
  8
SU
 10
681.96745054575695
 20
382.5499999999999
 30
0.0
 40
7.0
  1
12
 41
0.8299999999999999
  0
LINE
  5
138AD
  8
SU
 10
468.49999999999977
 20
256.74999999999949
 30
0.0
 11
468.49999999999977
 21
384.25
 31
0.0
  0
LINE
  5
138AE
  8
SU
 10
456.49999999999977
 20
381.25
 30
0.0
 11
468.49999999999977
 21
381.25
 31
0.0
  0
LINE
  5
138AF
  8
SU
 10
468.49999999999977
 20
381.25
 30
0.0
 11
486.2784163558967
 21
381.25
 31
0.0
  0
ARC
  5
138B0
  8
SU
 10
468.49999999999977
 20
381.25
 30
0.0
 40
0.6
 50
180.0
 51
0.0
  0
ARC
  5
138B1
  8
SU
 10
468.49999999999977
 20
381.25
 30
0.0
 40
0.6
 50
0.0
 51
180.0
  0
TEXT
  5
138B2
  8
SU
 10
471.11399999999992
 20
382.55000000000001
 30
0.0
 40
7.0
  1
12
 41
0.8299999999999999
  0
LINE
  5
138B3
  8
KI1
 10
554.49999999787838
 20
234.7500061621885
 30
0.0
 11
554.49999999787883
 21
228.2500059934915
 31
0.0
  0
LINE
  5
138B4
  8
KI1
 10
549.49999999787838
 20
234.7500061621889
 30
0.0
 11
549.49999999787838
 21
228.2500059934915
 31
0.0
  0
LINE
  5
138B5
  8
KI1
 10
554.49999999787883
 20
228.2500059934915
 30
0.0
 11
549.49999999787838
 21
228.2500059934915
 31
0.0
  0
LINE
  5
138B6
  8
KI1
 10
570.4999999978761
 20
237.75000599349161
 30
0.0
 11
570.4999999978761
 21
235.75000599349161
 31
0.0
  0
LINE
  5
138B7
  8
KI1
 10
545.4999999978761
 20
237.75000599349161
 30
0.0
 11
545.4999999978761
 21
234.7500059934915
 31
0.0
  0
LINE
  5
138B8
  8
KI1
 10
570.4999999978761
 20
235.75000599349161
 30
0.0
 11
560.4999999978761
 21
235.75000599349161
 31
0.0
  0
LINE
  5
138B9
  8
KI1
 10
549.99999999787599
 20
232.75000599349161
 30
0.0
 11
549.4999999978761
 21
233.25000599349161
 31
0.0
  0
LINE
  5
138BA
  8
KI1
 10
549.4999999978761
 20
230.2500059934915
 30
0.0
 11
549.99999999787599
 21
230.2500059934915
 31
0.0
  0
LINE
  5
138BB
  8
KI1
 10
549.99999999787599
 20
229.75000599349161
 30
0.0
 11
549.4999999978761
 21
230.2500059934915
 31
0.0
  0
LINE
  5
138BC
  8
KI1
 10
549.99999999787599
 20
231.25000599349161
 30
0.0
 11
549.4999999978761
 21
231.75000599349161
 31
0.0
  0
LINE
  5
138BD
  8
KI1
 10
549.4999999978761
 20
231.75000599349161
 30
0.0
 11
549.99999999787599
 21
231.75000599349161
 31
0.0
  0
LINE
  5
138BE
  8
KI1
 10
545.4999999978761
 20
234.7500059934915
 30
0.0
 11
549.99999999787599
 21
235.75000599349161
 31
0.0
  0
LINE
  5
138BF
  8
KI1
 10
549.4999999978761
 20
233.25000599349161
 30
0.0
 11
549.99999999787599
 21
233.25000599349161
 31
0.0
  0
LINE
  5
138C0
  8
KI1
 10
560.4999999978761
 20
235.75000599349161
 30
0.0
 11
560.4999999978761
 21
234.7500059934915
 31
0.0
  0
LINE
  5
138C1
  8
KI1
 10
554.49999999787599
 20
233.25000599349161
 30
0.0
 11
553.9999999978761
 21
232.75000599349161
 31
0.0
  0
LINE
  5
138C2
  8
KI1
 10
553.9999999978761
 20
231.75000599349161
 30
0.0
 11
553.9999999978761
 21
232.75000599349161
 31
0.0
  0
LINE
  5
138C3
  8
KI1
 10
554.49999999787599
 20
231.75000599349161
 30
0.0
 11
553.9999999978761
 21
231.25000599349161
 31
0.0
  0
LINE
  5
138C4
  8
KI1
 10
553.9999999978761
 20
231.75000599349161
 30
0.0
 11
554.49999999787599
 21
231.75000599349161
 31
0.0
  0
LINE
  5
138C5
  8
KI1
 10
553.9999999978761
 20
230.2500059934915
 30
0.0
 11
554.49999999787599
 21
230.2500059934915
 31
0.0
  0
LINE
  5
138C6
  8
KI1
 10
554.49999999787599
 20
230.2500059934915
 30
0.0
 11
553.9999999978761
 21
229.75000599349161
 31
0.0
  0
LINE
  5
138C7
  8
KI1
 10
549.99999999787599
 20
231.25000599349161
 30
0.0
 11
549.99999999787599
 21
230.2500059934915
 31
0.0
  0
LINE
  5
138C8
  8
KI1
 10
553.9999999978761
 20
230.2500059934915
 30
0.0
 11
553.9999999978761
 21
231.25000599349161
 31
0.0
  0
LINE
  5
138C9
  8
KI1
 10
549.99999999787599
 20
232.75000599349161
 30
0.0
 11
549.99999999787599
 21
231.75000599349161
 31
0.0
  0
LINE
  5
138CA
  8
KI1
 10
553.9999999978761
 20
235.75000599349161
 30
0.0
 11
553.9999999978761
 21
233.25000599349161
 31
0.0
  0
LINE
  5
138CB
  8
KI1
 10
553.9999999978761
 20
233.25000599349161
 30
0.0
 11
554.49999999787599
 21
233.25000599349161
 31
0.0
  0
LINE
  5
138CC
  8
KI1
 10
549.99999999787599
 20
233.25000599349161
 30
0.0
 11
549.99999999787599
 21
235.75000599349161
 31
0.0
  0
LINE
  5
138CD
  8
KI1
 10
560.4999999978761
 20
234.7500059934915
 30
0.0
 11
553.9999999978761
 21
235.75000599349161
 31
0.0
  0
LINE
  5
138CE
  8
KI1
 10
549.99999999787599
 20
228.75000599349161
 30
0.0
 11
553.9999999978761
 21
228.75000599349161
 31
0.0
  0
LINE
  5
138CF
  8
KI1
 10
549.99999999787599
 20
229.75000599349161
 30
0.0
 11
549.99999999787599
 21
228.75000599349161
 31
0.0
  0
LINE
  5
138D0
  8
KI1
 10
553.9999999978761
 20
228.75000599349161
 30
0.0
 11
553.9999999978761
 21
229.75000599349161
 31
0.0
  0
LINE
  5
138D1
  8
KI1
 10
567.99999999787599
 20
240.2500059934915
 30
0.0
 11
570.4999999978761
 21
237.75000599349161
 31
0.0
  0
LINE
  5
138D2
  8
KI1
 10
547.9999999978761
 20
240.2500059934915
 30
0.0
 11
567.99999999787599
 21
240.2500059934915
 31
0.0
  0
LINE
  5
138D3
  8
KI1
 10
547.9999999978761
 20
240.2500059934915
 30
0.0
 11
545.4999999978761
 21
237.75000599349161
 31
0.0
  0
LINE
  5
138D4
  8
KI1
 10
555.49999999787883
 20
198.75000616218639
 30
0.0
 11
555.49999999787883
 21
200.75000616218639
 31
0.0
  0
LINE
  5
138D5
  8
KI1
 10
580.49999999787883
 20
198.75000616218639
 30
0.0
 11
580.49999999787883
 21
201.75000616218651
 31
0.0
  0
LINE
  5
138D6
  8
KI1
 10
555.49999999787883
 20
200.75000616218639
 30
0.0
 11
565.49999999787883
 21
200.75000616218639
 31
0.0
  0
LINE
  5
138D7
  8
KI1
 10
575.99999999787883
 20
203.75000616218651
 30
0.0
 11
576.49999999787883
 21
203.25000616218651
 31
0.0
  0
LINE
  5
138D8
  8
KI1
 10
576.49999999787883
 20
206.25000616218639
 30
0.0
 11
575.99999999787883
 21
206.25000616218639
 31
0.0
  0
LINE
  5
138D9
  8
KI1
 10
575.99999999787883
 20
206.75000616218639
 30
0.0
 11
576.49999999787883
 21
206.25000616218639
 31
0.0
  0
LINE
  5
138DA
  8
KI1
 10
575.99999999787883
 20
205.25000616218651
 30
0.0
 11
576.49999999787883
 21
204.75000616218639
 31
0.0
  0
LINE
  5
138DB
  8
KI1
 10
576.49999999787883
 20
204.75000616218639
 30
0.0
 11
575.99999999787883
 21
204.75000616218639
 31
0.0
  0
LINE
  5
138DC
  8
KI1
 10
580.49999999787883
 20
201.75000616218651
 30
0.0
 11
575.99999999787883
 21
200.75000616218639
 31
0.0
  0
LINE
  5
138DD
  8
KI1
 10
576.49999999787883
 20
203.25000616218651
 30
0.0
 11
575.99999999787883
 21
203.25000616218651
 31
0.0
  0
LINE
  5
138DE
  8
KI1
 10
565.49999999787883
 20
200.75000616218639
 30
0.0
 11
565.49999999787883
 21
201.75000616218651
 31
0.0
  0
LINE
  5
138DF
  8
KI1
 10
571.49999999787883
 20
203.25000616218651
 30
0.0
 11
571.99999999787883
 21
203.75000616218651
 31
0.0
  0
LINE
  5
138E0
  8
KI1
 10
571.99999999787883
 20
204.75000616218639
 30
0.0
 11
571.99999999787883
 21
203.75000616218651
 31
0.0
  0
LINE
  5
138E1
  8
KI1
 10
571.49999999787883
 20
204.75000616218639
 30
0.0
 11
571.99999999787883
 21
205.25000616218651
 31
0.0
  0
LINE
  5
138E2
  8
KI1
 10
571.99999999787883
 20
204.75000616218639
 30
0.0
 11
571.49999999787883
 21
204.75000616218639
 31
0.0
  0
LINE
  5
138E3
  8
KI1
 10
571.99999999787883
 20
206.25000616218639
 30
0.0
 11
571.49999999787883
 21
206.25000616218639
 31
0.0
  0
LINE
  5
138E4
  8
KI1
 10
571.49999999787883
 20
206.25000616218639
 30
0.0
 11
571.99999999787883
 21
206.75000616218639
 31
0.0
  0
LINE
  5
138E5
  8
KI1
 10
575.99999999787883
 20
205.25000616218651
 30
0.0
 11
575.99999999787883
 21
206.25000616218639
 31
0.0
  0
LINE
  5
138E6
  8
KI1
 10
571.99999999787883
 20
206.25000616218639
 30
0.0
 11
571.99999999787883
 21
205.25000616218651
 31
0.0
  0
LINE
  5
138E7
  8
KI1
 10
575.99999999787883
 20
203.75000616218651
 30
0.0
 11
575.99999999787883
 21
204.75000616218639
 31
0.0
  0
LINE
  5
138E8
  8
KI1
 10
571.99999999787883
 20
200.75000616218639
 30
0.0
 11
571.99999999787883
 21
203.25000616218651
 31
0.0
  0
LINE
  5
138E9
  8
KI1
 10
571.99999999787883
 20
203.25000616218651
 30
0.0
 11
571.49999999787883
 21
203.25000616218651
 31
0.0
  0
LINE
  5
138EA
  8
KI1
 10
575.99999999787883
 20
203.25000616218651
 30
0.0
 11
575.99999999787883
 21
200.75000616218639
 31
0.0
  0
LINE
  5
138EB
  8
KI1
 10
565.49999999787883
 20
201.75000616218651
 30
0.0
 11
571.99999999787883
 21
200.75000616218639
 31
0.0
  0
LINE
  5
138EC
  8
KI1
 10
575.99999999787883
 20
207.75000616218651
 30
0.0
 11
571.99999999787883
 21
207.75000616218651
 31
0.0
  0
LINE
  5
138ED
  8
KI1
 10
575.99999999787883
 20
206.75000616218639
 30
0.0
 11
575.99999999787883
 21
207.75000616218651
 31
0.0
  0
LINE
  5
138EE
  8
KI1
 10
571.99999999787883
 20
207.75000616218651
 30
0.0
 11
571.99999999787883
 21
206.75000616218639
 31
0.0
  0
LINE
  5
138EF
  8
KI1
 10
557.99999999787883
 20
196.25000616218639
 30
0.0
 11
555.49999999787883
 21
198.75000616218639
 31
0.0
  0
LINE
  5
138F0
  8
KI1
 10
577.99999999787883
 20
196.25000616218639
 30
0.0
 11
557.99999999787883
 21
196.25000616218639
 31
0.0
  0
LINE
  5
138F1
  8
KI1
 10
577.99999999787883
 20
196.25000616218639
 30
0.0
 11
580.49999999787883
 21
198.75000616218639
 31
0.0
  0
LINE
  5
138F2
  8
KI1
 10
571.49999999787599
 20
208.25000616218639
 30
0.0
 11
576.49999999787644
 21
208.25000616218639
 31
0.0
  0
LINE
  5
138F3
  8
KI1
 10
576.49999999787644
 20
201.750005993489
 30
0.0
 11
576.49999999787644
 21
208.25000616218639
 31
0.0
  0
LINE
  5
138F4
  8
KI1
 10
571.49999999787644
 20
201.75000599348951
 30
0.0
 11
571.49999999787599
 21
208.25000616218639
 31
0.0
  0
LINE
  5
138F5
  8
OS
 10
432.49999999999989
 20
349.14949493661152
 30
0.0
 11
444.60050506338831
 21
361.24999999999989
 31
0.0
1001
ACAD
1010
0.0
1020
0.0
1030
0.0
  0
LINE
  5
138F6
  8
OS
 10
432.49999999999989
 20
359.04898987322321
 30
0.0
 11
434.70101012677662
 21
361.24999999999989
 31
0.0
1001
ACAD
1010
0.0
1020
0.0
1030
0.0
  0
LINE
  5
138F7
  8
OS
 10
732.5
 20
349.14949493660998
 30
0.0
 11
720.39949493661106
 21
361.24999999999858
 31
0.0
1001
ACAD
1010
0.0
1020
0.0
1030
0.0
  0
LINE
  5
138F8
  8
OS
 10
732.5
 20
359.04898987322167
 30
0.0
 11
730.29898987322281
 21
361.24999999999858
 31
0.0
1001
ACAD
1010
0.0
1020
0.0
1030
0.0
  0
LINE
  5
1393E
  8
SU
 10
356.49999999999989
 20
350.24999999999869
 30
0.0
 11
319.49999999999989
 21
350.24999999999869
 31
0.0
  0
LINE
  5
1393F
  8
SU
 10
431.49999999999977
 20
361.25
 30
0.0
 11
319.49999999999989
 21
361.25000000000011
 31
0.0
  0
LINE
  5
13940
  8
SU
 10
322.5
 20
350.24999999999869
 30
0.0
 11
322.5
 21
361.25000000000011
 31
0.0
  0
ARC
  5
13941
  8
SU
 10
322.5
 20
350.24999999999869
 30
0.0
 40
0.6
 50
90.0
 51
270.0
  0
ARC
  5
13942
  8
SU
 10
322.5
 20
350.24999999999869
 30
0.0
 40
0.6
 50
270.0
 51
90.0
  0
ARC
  5
13943
  8
SU
 10
322.5
 20
361.25000000000011
 30
0.0
 40
0.6
 50
270.0
 51
90.0
  0
ARC
  5
13944
  8
SU
 10
322.5
 20
361.25000000000011
 30
0.0
 40
0.6
 50
90.0
 51
270.0
  0
TEXT
  5
13945
  8
SU
 10
321.19999999999987
 20
350.63166666666609
 30
0.0
 40
7.0
  1
11
 50
90.0
 41
0.8299999999999999
  0
LINE
  5
13946
  8
SU
 10
356.49999999999989
 20
205.24999999999861
 30
0.0
 11
319.49999999999989
 21
205.24999999999869
 31
0.0
  0
LINE
  5
13947
  8
SU
 10
322.5
 20
350.24999999999869
 30
0.0
 11
322.5
 21
205.24999999999861
 31
0.0
  0
ARC
  5
13948
  8
SU
 10
322.5
 20
205.24999999999861
 30
0.0
 40
0.6
 50
90.0
 51
270.0
  0
ARC
  5
13949
  8
SU
 10
322.5
 20
205.24999999999861
 30
0.0
 40
0.6
 50
270.0
 51
90.0
  0
TEXT
  5
1394A
  8
SU
 10
321.19999999999987
 20
269.03499999999872
 30
0.0
 40
7.0
  1
145
 50
90.0
 41
0.8299999999999999
  0
LINE
  5
1394B
  8
SU
 10
431.49999999999989
 20
194.25
 30
0.0
 11
319.49999999999989
 21
194.25
 31
0.0
  0
LINE
  5
1394C
  8
SU
 10
322.49999999999989
 20
205.24999999999861
 30
0.0
 11
322.49999999999989
 21
194.25
 31
0.0
  0
ARC
  5
1394D
  8
SU
 10
322.49999999999989
 20
194.25
 30
0.0
 40
0.6
 50
90.0
 51
270.0
  0
ARC
  5
1394E
  8
SU
 10
322.49999999999989
 20
194.25
 30
0.0
 40
0.6
 50
270.0
 51
90.0
  0
TEXT
  5
1394F
  8
SU
 10
321.19999999999982
 20
194.63166666666601
 30
0.0
 40
7.0
  1
11
 50
90.0
 41
0.8299999999999999
  0
LINE
  5
13950
  8
SU
 10
356.49999999999989
 20
337.74999999999869
 30
0.0
 11
334.49999999999989
 21
337.74999999999869
 31
0.0
  0
LINE
  5
13951
  8
SU
 10
337.5
 20
337.74999999999869
 30
0.0
 11
337.5
 21
350.24999999999869
 31
0.0
  0
LINE
  5
13952
  8
SU
 10
337.5
 20
381.55448702976338
 30
0.0
 11
337.5
 21
350.24999999999869
 31
0.0
  0
TEXT
  5
13953
  8
SU
 10
336.19999999999987
 20
361.71782036309668
 30
0.0
 40
7.0
  1
12.5
 50
90.0
 41
0.8299999999999999
  0
ARC
  5
13954
  8
SU
 10
337.5
 20
337.74999999999869
 30
0.0
 40
0.6
 50
90.0
 51
270.0
  0
ARC
  5
13955
  8
SU
 10
337.5
 20
337.74999999999869
 30
0.0
 40
0.6
 50
270.0
 51
90.0
  0
ARC
  5
13956
  8
SU
 10
337.5
 20
350.24999999999869
 30
0.0
 40
0.6
 50
270.0
 51
90.0
  0
ARC
  5
13957
  8
SU
 10
337.5
 20
350.24999999999869
 30
0.0
 40
0.6
 50
90.0
 51
270.0
  0
LINE
  5
13958
  8
SU
 10
356.49999999999989
 20
217.74999999999861
 30
0.0
 11
334.49999999999989
 21
217.74999999999861
 31
0.0
  0
LINE
  5
13959
  8
SU
 10
337.49999999999989
 20
337.74999999999869
 30
0.0
 11
337.49999999999989
 21
217.74999999999861
 31
0.0
  0
ARC
  5
1395A
  8
SU
 10
337.49999999999989
 20
217.74999999999861
 30
0.0
 40
0.6
 50
90.0
 51
270.0
  0
ARC
  5
1395B
  8
SU
 10
337.49999999999989
 20
217.74999999999861
 30
0.0
 40
0.6
 50
270.0
 51
90.0
  0
TEXT
  5
1395C
  8
SU
 10
336.19999999999982
 20
269.03499999999872
 30
0.0
 40
7.0
  1
120
 50
90.0
 41
0.8299999999999999
  0
LINE
  5
1395D
  8
SU
 10
337.5
 20
217.74999999999861
 30
0.0
 11
337.5
 21
205.24999999999861
 31
0.0
  0
LINE
  5
1395E
  8
SU
 10
337.5
 20
171.83955254125459
 30
0.0
 11
337.5
 21
205.24999999999861
 31
0.0
  0
TEXT
  5
1395F
  8
SU
 10
336.19999999999987
 20
171.47955254125461
 30
0.0
 40
7.0
  1
12.5
 50
90.0
 41
0.8299999999999999
  0
ARC
  5
13960
  8
SU
 10
337.5
 20
205.24999999999861
 30
0.0
 40
0.6
 50
90.0
 51
270.0
  0
ARC
  5
13961
  8
SU
 10
337.5
 20
205.24999999999861
 30
0.0
 40
0.6
 50
270.0
 51
90.0
  0
LINE
  5
13962
  8
OS
 10
807.49999999999989
 20
337.74999999999869
 30
0.0
 11
732.49999998442092
 21
337.74999999999869
 31
0.0
  0
LINE
  5
13963
  8
OS
 10
807.49999999999989
 20
217.74999999999861
 30
0.0
 11
732.49999998442092
 21
217.74999999999861
 31
0.0
  0
LINE
  5
13964
  8
OS
 10
737.49999998442092
 20
337.74999999999869
 30
0.0
 11
737.49999998442092
 21
217.74999999999861
 31
0.0
  0
LINE
  5
13965
  8
OS
 10
732.49999998442092
 20
337.74999999999869
 30
0.0
 11
737.49999998442092
 21
217.74999999999861
 31
0.0
  0
LINE
  5
13966
  8
OS
 10
807.49999999999989
 20
205.24999999999861
 30
0.0
 11
732.49999998442092
 21
205.24999999999861
 31
0.0
  0
LINE
  5
13967
  8
OS
 10
807.49999999999989
 20
350.24999999999869
 30
0.0
 11
732.49999998442092
 21
350.24999999999869
 31
0.0
  0
LINE
  5
13968
  8
OS
 10
807.49999999999989
 20
207.24999999999861
 30
0.0
 11
732.49999998442092
 21
207.24999999999861
 31
0.0
  0
LINE
  5
13969
  8
OS
 10
807.49999999999989
 20
215.74999999999861
 30
0.0
 11
732.49999998442092
 21
215.74999999999861
 31
0.0
  0
LINE
  5
1396A
  8
OS
 10
807.49999999999989
 20
339.74999999999869
 30
0.0
 11
732.49999998442092
 21
339.74999999999869
 31
0.0
  0
LINE
  5
1396B
  8
OS
 10
807.49999999999989
 20
348.24999999999869
 30
0.0
 11
732.49999998442092
 21
348.24999999999869
 31
0.0
  0
LINE
  5
1396C
  8
OS
 10
732.49999998442092
 20
350.24999999999869
 30
0.0
 11
732.49999998442092
 21
205.24999999999861
 31
0.0
  0
LINE
  5
1396D
  8
OS
 10
807.49999999999989
 20
287.7500000155776
 30
0.0
 11
737.49999998442092
 21
217.74999999999861
 31
0.0
  0
LINE
  5
1396E
  8
OS
 10
807.49999999999989
 20
267.74999998441967
 30
0.0
 11
737.49999998442092
 21
337.74999999999869
 31
0.0
  0
LINE
  5
1396F
  8
OS
 10
357.49999999999989
 20
337.74999999999869
 30
0.0
 11
432.50000001557891
 21
337.74999999999869
 31
0.0
  0
LINE
  5
13970
  8
OS
 10
357.49999999999989
 20
217.74999999999861
 30
0.0
 11
432.50000001557891
 21
217.74999999999861
 31
0.0
  0
LINE
  5
13971
  8
OS
 10
427.50000001557891
 20
337.74999999999869
 30
0.0
 11
427.50000001557891
 21
217.74999999999861
 31
0.0
  0
LINE
  5
13972
  8
OS
 10
432.50000001557891
 20
217.74999999999861
 30
0.0
 11
427.50000001557891
 21
337.74999999999869
 31
0.0
  0
LINE
  5
13973
  8
OS
 10
357.49999999999989
 20
205.24999999999861
 30
0.0
 11
432.50000001557891
 21
205.24999999999861
 31
0.0
  0
LINE
  5
13974
  8
OS
 10
357.49999999999989
 20
350.24999999999869
 30
0.0
 11
432.50000001557891
 21
350.24999999999869
 31
0.0
  0
LINE
  5
13975
  8
OS
 10
357.49999999999989
 20
207.24999999999861
 30
0.0
 11
432.50000001557891
 21
207.24999999999861
 31
0.0
  0
LINE
  5
13976
  8
OS
 10
357.49999999999989
 20
215.74999999999861
 30
0.0
 11
432.50000001557891
 21
215.74999999999861
 31
0.0
  0
LINE
  5
13977
  8
OS
 10
357.49999999999989
 20
339.74999999999869
 30
0.0
 11
432.50000001557891
 21
339.74999999999869
 31
0.0
  0
LINE
  5
13978
  8
OS
 10
357.49999999999989
 20
348.24999999999869
 30
0.0
 11
432.50000001557891
 21
348.24999999999869
 31
0.0
  0
LINE
  5
13979
  8
OS
 10
432.50000001557891
 20
350.24999999999869
 30
0.0
 11
432.50000001557891
 21
205.24999999999861
 31
0.0
  0
LINE
  5
1397A
  8
OS
 10
357.49999999999989
 20
287.7500000155776
 30
0.0
 11
427.50000001557891
 21
217.74999999999861
 31
0.0
  0
LINE
  5
1397B
  8
OS
 10
357.49999999999989
 20
267.74999998441967
 30
0.0
 11
427.50000001557891
 21
337.74999999999869
 31
0.0
  0
TEXT
  5
1397C
  8
SU
 10
204.96666666666661
 20
89.550000000000566
 30
0.0
 40
7.0
  1
36
 41
0.8299999999999999
  0
LINE
  5
1397F
  8
KI1
 10
61.50000000000005
 20
74.605044943224343
 30
0.0
 11
61.50000000000005
 21
55.249999999992269
 31
0.0
  0
LINE
  5
13ACD
  8
SU
 10
582.0457230126932
 20
279.75000616218711
 30
0.0
 11
591.10731434675381
 21
294.75000616218722
 31
0.0
  0
LINE
  5
13ACE
  8
SU
 10
591.10731434675381
 20
294.75000616218722
 30
0.0
 11
691.60655279679577
 21
294.75000616218722
 31
0.0
  0
TEXT
  5
13ACF
  8
SU
 10
592.31281960961826
 20
296.05000616218717
 30
0.0
 40
6.0
  1
有効開口1=W-（KDW+124.5）
 41
0.8299999999999999
  0
ENDSEC
  0
EOF
