  0
SECTION
  2
HEADER
  9
$ACADVER
  1
AC1009
  9
$INSBASE
 10
0.0
 20
0.0
 30
0.0
  9
$EXTMIN
 10
19.287462307707749
 20
16.20593401906762
 30
-0.0000000000000153
  9
$EXTMAX
 10
817.54193308314041
 20
583.77612441798692
 30
0.0
  9
$LIMMIN
 10
0.0
 20
0.0
  9
$LIMMAX
 10
841.0
 20
594.0
  9
$ORTHOMODE
 70
     1
  9
$REGENMODE
 70
     1
  9
$FILLMODE
 70
     1
  9
$QTEXTMODE
 70
     0
  9
$MIRRTEXT
 70
     0
  9
$DRAGMODE
 70
     2
  9
$LTSCALE
 40
1.0
  9
$OSMODE
 70
  3071
  9
$ATTMODE
 70
     1
  9
$TEXTSIZE
 40
12.5
  9
$TRACEWID
 40
1.0
  9
$TEXTSTYLE
  7
STANDARD
  9
$CLAYER
  8
0
  9
$CELTYPE
  6
BYLAYER
  9
$CECOLOR
 62
   256
  9
$DIMSCALE
 40
1.0
  9
$DIMASZ
 40
4.7999999999999989
  9
$DIMEXO
 40
1.0
  9
$DIMDLI
 40
7.0
  9
$DIMRND
 40
0.0
  9
$DIMDLE
 40
0.0
  9
$DIMEXE
 40
3.0
  9
$DIMTP
 40
0.1
  9
$DIMTM
 40
0.1
  9
$DIMTXT
 40
7.0
  9
$DIMCEN
 40
0.0
  9
$DIMTSZ
 40
0.0
  9
$DIMTOL
 70
     0
  9
$DIMLIM
 70
     0
  9
$DIMTIH
 70
     0
  9
$DIMTOH
 70
     0
  9
$DIMSE1
 70
     0
  9
$DIMSE2
 70
     0
  9
$DIMTAD
 70
     1
  9
$DIMZIN
 70
     8
  9
$DIMBLK
  1
DOTSMALL
  9
$DIMASO
 70
     1
  9
$DIMSHO
 70
     1
  9
$DIMPOST
  1

  9
$DIMAPOST
  1
"
  9
$DIMALT
 70
     0
  9
$DIMALTD
 70
     2
  9
$DIMALTF
 40
0.0393701
  9
$DIMLFAC
 40
1.0
  9
$DIMTOFL
 70
     1
  9
$DIMTVP
 40
0.0
  9
$DIMTIX
 70
     0
  9
$DIMSOXD
 70
     0
  9
$DIMSAH
 70
     0
  9
$DIMBLK1
  1

  9
$DIMBLK2
  1

  9
$DIMSTYLE
  2
SANKYO
  9
$DIMCLRD
 70
   256
  9
$DIMCLRE
 70
   256
  9
$DIMCLRT
 70
   256
  9
$DIMTFAC
 40
0.71
  9
$DIMGAP
 40
1.3
  9
$LUNITS
 70
     2
  9
$LUPREC
 70
     4
  9
$SKETCHINC
 40
1.0
  9
$FILLETRAD
 40
0.0
  9
$AUNITS
 70
     0
  9
$AUPREC
 70
     0
  9
$MENU
  1
.
  9
$ELEVATION
 40
0.0
  9
$PELEVATION
 40
0.0
  9
$THICKNESS
 40
0.0
  9
$LIMCHECK
 70
     0
  9
$BLIPMODE
 70
     0
  9
$CHAMFERA
 40
10.0
  9
$CHAMFERB
 40
10.0
  9
$SKPOLY
 70
     0
  9
$TDCREATE
 40
2455110.561913426
  9
$TDUPDATE
 40
2459031.5829710541
  9
$TDINDWG
 40
1.7731871065
  9
$TDUSRTIMER
 40
1.7729914582999999
  9
$USRTIMER
 70
     1
  9
$ANGBASE
 50
0.0
  9
$ANGDIR
 70
     0
  9
$PDMODE
 70
     0
  9
$PDSIZE
 40
0.0
  9
$PLINEWID
 40
0.0
  9
$COORDS
 70
     2
  9
$SPLFRAME
 70
     0
  9
$SPLINETYPE
 70
     6
  9
$SPLINESEGS
 70
     8
  9
$ATTDIA
 70
     1
  9
$ATTREQ
 70
     1
  9
$HANDLING
 70
     1
  9
$HANDSEED
  5
12179
  9
$SURFTAB1
 70
     6
  9
$SURFTAB2
 70
     6
  9
$SURFTYPE
 70
     6
  9
$SURFU
 70
     6
  9
$SURFV
 70
     6
  9
$UCSNAME
  2

  9
$UCSORG
 10
0.0
 20
0.0
 30
0.0
  9
$UCSXDIR
 10
1.0
 20
0.0
 30
0.0
  9
$UCSYDIR
 10
0.0
 20
1.0
 30
0.0
  9
$PUCSNAME
  2

  9
$PUCSORG
 10
0.0
 20
0.0
 30
0.0
  9
$PUCSXDIR
 10
1.0
 20
0.0
 30
0.0
  9
$PUCSYDIR
 10
0.0
 20
1.0
 30
0.0
  9
$USERI1
 70
     0
  9
$USERI2
 70
     0
  9
$USERI3
 70
     0
  9
$USERI4
 70
     0
  9
$USERI5
 70
     0
  9
$USERR1
 40
0.0
  9
$USERR2
 40
0.0
  9
$USERR3
 40
0.0
  9
$USERR4
 40
0.0
  9
$USERR5
 40
0.0
  9
$WORLDVIEW
 70
     1
  9
$SHADEDGE
 70
     3
  9
$SHADEDIF
 70
    70
  9
$TILEMODE
 70
     1
  9
$MAXACTVP
 70
    48
  9
$PLIMCHECK
 70
     0
  9
$PEXTMIN
 10
1.0000000000000000E+020
 20
1.0000000000000000E+020
 30
1.0000000000000000E+020
  9
$PEXTMAX
 10
-1.0000000000000000E+020
 20
-1.0000000000000000E+020
 30
-1.0000000000000000E+020
  9
$PLIMMIN
 10
0.0
 20
0.0
  9
$PLIMMAX
 10
420.0
 20
297.0
  9
$UNITMODE
 70
     0
  9
$VISRETAIN
 70
     1
  9
$PLINEGEN
 70
     0
  9
$PSLTSCALE
 70
     1
  0
ENDSEC
  0
SECTION
  2
TABLES
  0
TABLE
  2
VPORT
 70
     1
  0
VPORT
  2
*ACTIVE
 70
     0
 10
0.0
 20
0.0
 11
1.0
 21
1.0
 12
418.41469769542408
 22
299.99102921852727
 13
0.0
 23
0.0
 14
2.5
 24
2.5
 15
10.0
 25
10.0
 16
0.0
 26
0.0
 36
1.0
 17
0.0
 27
0.0
 37
0.0
 40
572.51947909163903
 41
2.096730245231607
 42
50.0
 43
0.0
 44
0.0
 50
0.0
 51
0.0
 71
     0
 72
   100
 73
     1
 74
     1
 75
     0
 76
     0
 77
     0
 78
     0
  0
ENDTAB
  0
TABLE
  2
LTYPE
 70
    21
  0
LTYPE
  2
CONTINUOUS
 70
     0
  3
Solid line
 72
    65
 73
     0
 40
0.0
  0
LTYPE
  2
CENTER
 70
     0
  3
Center ____ _ ____ _ ____ _ ____ _ ____ _ ____
 72
    65
 73
     4
 40
50.799999999999997
 49
31.75
 49
-6.3499999999999988
 49
6.3499999999999988
 49
-6.3499999999999988
  0
LTYPE
  2
CENTER2
 70
     0
  3
Center (.5x) ___ _ ___ _ ___ _ ___ _ ___ _ ___
 72
    65
 73
     4
 40
28.574999999999999
 49
19.050000000000001
 49
-3.1749999999999989
 49
3.1749999999999989
 49
-3.1749999999999989
  0
LTYPE
  2
PHANTOM
 70
     0
  3
Phantom ______  __  __  ______  __  __  ______
 72
    65
 73
     6
 40
63.5
 49
31.75
 49
-6.3499999999999988
 49
6.3499999999999988
 49
-6.3499999999999988
 49
6.3499999999999988
 49
-6.3499999999999988
  0
LTYPE
  2
PHANTOM2
 70
     0
  3
Phantom (.5x) ___ _ _ ___ _ _ ___ _ _ ___ _ _
 72
    65
 73
     6
 40
31.75
 49
15.875
 49
-3.1749999999999989
 49
3.1749999999999989
 49
-3.1749999999999989
 49
3.1749999999999989
 49
-3.1749999999999989
  0
LTYPE
  2
DASHED
 70
     0
  3
Dashed __ __ __ __ __ __ __ __ __ __ __ __ __ _
 72
    65
 73
     2
 40
19.050000000000001
 49
12.699999999999999
 49
-6.3499999999999988
  0
LTYPE
  2
DASHED2
 70
     0
  3
Dashed (.5x) _ _ _ _ _ _ _ _ _ _ _ _ _ _ _ _ _
 72
    65
 73
     2
 40
9.5249999999999986
 49
6.3499999999999988
 49
-3.1749999999999989
  0
LTYPE
  2
ZIGZAG
 70
     0
  3
Zig zag /\/\/\/\/\/\/\/\/\/\/\/\/\/\/\/\/\/\/\/
 72
    65
 73
     4
 40
20.32254
 49
0.00254
 49
-5.0800000000000001
 49
-10.16
 49
-5.0800000000000001
  0
LTYPE
  2
AM_ISO02W050
 70
     0
  3
__ __ __ __ __ __ __ __ __ __ __ __ __ __ __
 72
    65
 73
     2
 40
7.5
 49
6.0
 49
-1.5
  0
LTYPE
  2
AMCONSTR
 70
     0
  3
_______________________
 72
    65
 73
     2
 40
9999.0
 49
9999.0
 49
0.0
  0
LTYPE
  2
AMZIGZAG
 70
     0
  3
/\/-/\/-/\/-/\/-/\/-/\/
 72
    65
 73
     2
 40
11.0001
 49
0.0001
 49
-11.0
  0
LTYPE
  2
ACJISTGB
 70
     0
  3
__ . . __ . .
 72
    65
 73
     6
 40
9.0
 49
4.0
 49
-1.0
 49
1.0
 49
-1.0
 49
1.0
 49
-1.0
  0
LTYPE
  2
ACJISTGL
 70
     0
  3
_ _ _ _ _
 72
    65
 73
     2
 40
3.0
 49
2.0
 49
-1.0
  0
LTYPE
  2
ACISOWELD
 70
     0
  3
_ _ _ _ _
 72
    65
 73
     2
 40
2.0
 49
2.0
 49
-1.0
  0
LTYPE
  2
ACISOTGB
 70
     0
  3
__ . . __ . .
 72
    65
 73
     6
 40
9.0
 49
4.0
 49
-1.0
 49
1.0
 49
-1.0
 49
1.0
 49
-1.0
  0
LTYPE
  2
ACISOTGL
 70
     0
  3
_ _ _ _ _
 72
    65
 73
     2
 40
3.0
 49
2.0
 49
-1.0
  0
LTYPE
  2
HIDDEN
 70
     0
  3
Hidden __ __ __ __ __ __ __ __ __ __ __ __ __ _
 72
    65
 73
     2
 40
9.5249999999999986
 49
6.3499999999999988
 49
-3.1749999999999989
  0
LTYPE
  2
AM_ISO08W050
 70
     0
  3
____ . ____ . ____ . ____ . ____ . ____ . ____
 72
    65
 73
     4
 40
18.0
 49
12.0
 49
-1.5
 49
3.0
 49
-1.5
  0
LTYPE
  2
AM_ISO09W050
 70
     0
  3
_____ . . _____ . . _____ . . ____ .. ____
 72
    65
 73
     6
 40
22.5
 49
12.0
 49
-1.5
 49
3.0
 49
-1.5
 49
3.0
 49
-1.5
  0
LTYPE
  2
AM_ISO08W050X2
 70
     0
  3
__ . __ . __ . __ . __ . __
 72
    65
 73
     4
 40
9.0
 49
6.0
 49
-0.75
 49
1.5
 49
-0.75
  0
LTYPE
  2
AM_ISO02W050X2
 70
     0
  3
 _ _ _ _ _ _ _ _ _ _ _ _
 72
    65
 73
     2
 40
3.75
 49
3.0
 49
-0.75
  0
ENDTAB
  0
TABLE
  2
LAYER
 70
    11
  0
LAYER
  2
0
 70
     0
 62
     7
  6
CONTINUOUS
  0
LAYER
  2
KI1
 70
     0
 62
     7
  6
CONTINUOUS
  0
LAYER
  2
TS
 70
     0
 62
     6
  6
DASHED2
  0
LAYER
  2
SU
 70
     0
 62
     3
  6
CONTINUOUS
  0
LAYER
  2
MJ
 70
     0
 62
     2
  6
CONTINUOUS
  0
LAYER
  2
OS
 70
     0
 62
     2
  6
CONTINUOUS
  0
LAYER
  2
KI2
 70
     0
 62
     4
  6
CONTINUOUS
  0
LAYER
  2
TE
 70
     0
 62
     6
  6
CONTINUOUS
  0
LAYER
  2
PH
 70
     0
 62
     6
  6
PHANTOM2
  0
LAYER
  2
WK
 70
     4
 62
     7
  6
CONTINUOUS
  0
LAYER
  2
CL
 70
     0
 62
     4
  6
CENTER2
  0
ENDTAB
  0
TABLE
  2
STYLE
 70
     7
  0
STYLE
  2
STANDARD
 70
     0
 40
0.0
 41
0.8299999999999999
 50
0.0
 71
     0
 42
12.5
  3
romans.shx
  4
extfont.shx
  0
STYLE
  2

 70
     1
 40
0.0
 41
1.0
 50
0.0
 71
     0
 42
2.5
  3
ltypeshp.shx
  4

  0
STYLE
  2
ACJISTS
 70
     0
 40
1.0
 41
1.0
 50
0.0
 71
     0
 42
2.5
  3
isocp.shx
  4
extfont.shx
  0
STYLE
  2
ACJISGDT
 70
     0
 40
0.0
 41
1.0
 50
0.0
 71
     0
 42
2.5
  3
amgdt.shx
  4

  0
STYLE
  2
ACISOTS
 70
     0
 40
1.0
 41
1.0
 50
0.0
 71
     0
 42
2.5
  3
isocp.shx
  4
extfont.shx
  0
STYLE
  2
ACISOGDT
 70
     0
 40
0.0
 41
1.0
 50
0.0
 71
     0
 42
2.5
  3
amgdt.shx
  4

  0
STYLE
  2
CONVERT
 70
     0
 40
0.0
 41
1.0
 50
0.0
 71
     0
 42
2.5
  3
monotxt.shx
  4
extfont.shx
  0
ENDTAB
  0
TABLE
  2
VIEW
 70
     6
  0
VIEW
  2
AM_VIEW1
 70
     0
 40
297.5
 10
-194.33547008547001
 20
148.25
 41
457.32905982905982
 11
0.0
 21
0.0
 31
1.0
 12
0.0
 22
0.0
 32
0.0
 42
50.0
 43
0.0
 44
0.0
 50
0.0
 71
     0
  0
VIEW
  2
AM_VIEW2
 70
     0
 40
297.5
 10
189.33547008547001
 20
148.25
 41
457.32905982905982
 11
0.0
 21
0.0
 31
1.0
 12
0.0
 22
0.0
 32
0.0
 42
50.0
 43
0.0
 44
0.0
 50
0.0
 71
     0
  0
VIEW
  2
AM_VIEW3
 70
     0
 40
297.5
 10
-194.33547008547001
 20
-149.25
 41
457.32905982905982
 11
0.0
 21
0.0
 31
1.0
 12
0.0
 22
0.0
 32
0.0
 42
50.0
 43
0.0
 44
0.0
 50
0.0
 71
     0
  0
VIEW
  2
AM_VIEW4
 70
     0
 40
297.5
 10
189.33547008547001
 20
-149.25
 41
457.32905982905982
 11
0.0
 21
0.0
 31
1.0
 12
0.0
 22
0.0
 32
0.0
 42
50.0
 43
0.0
 44
0.0
 50
0.0
 71
     0
  0
VIEW
  2
AM_VIEW5
 70
     0
 40
297.5
 10
-2.5
 20
-0.5
 41
457.32905982905982
 11
0.0
 21
0.0
 31
1.0
 12
0.0
 22
0.0
 32
0.0
 42
50.0
 43
0.0
 44
0.0
 50
0.0
 71
     0
  0
VIEW
  2
AM_VIEW6
 70
     0
 40
594.99405000000002
 10
-2.5
 20
-0.5
 41
914.6489730769232
 11
0.0
 21
0.0
 31
1.0
 12
0.0
 22
0.0
 32
0.0
 42
50.0
 43
0.0
 44
0.0
 50
0.0
 71
     0
  0
ENDTAB
  0
TABLE
  2
UCS
 70
     0
  0
ENDTAB
  0
TABLE
  2
APPID
 70
    45
  0
APPID
  2
ACAD
 70
     0
  0
APPID
  2
MCAD_NO_VIS
 70
     0
  0
APPID
  2
ACAD_TEMP_GRAPHIC
 70
     0
  0
APPID
  2
ACATTRIBSERVICES
 70
     0
  0
APPID
  2
GENIUS_GENDIMSH_14
 70
     0
  0
APPID
  2
GENIUS_GENODEF_13
 70
     0
  0
APPID
  2
GENIUS_GENOENT_13
 70
     0
  0
APPID
  2
GENIUS_GENOBJ-N-TIT_13
 70
     0
  0
APPID
  2
GENIUS_GENOLIS_13
 70
     0
  0
APPID
  2
GENIUS_GENTITLE_13
 70
     0
  0
APPID
  2
GENIUS_GENOREF_13
 70
     0
  0
APPID
  2
GENIUS_GENSCREG_15
 70
     0
  0
APPID
  2
GENIUS_GENOBJ-N-SDF_13
 70
     0
  0
APPID
  2
GENIUS_GENOBJ-N-REV_13
 70
     0
  0
APPID
  2
GENIUS_GENOBJ-N-RSSYM_13
 70
     0
  0
APPID
  2
GENIUS_GENSYMENT_13
 70
     0
  0
APPID
  2
GENIUS_GENSCSYM_13
 70
     0
  0
APPID
  2
GENIUS_GENOBJ-N-CEN_13
 70
     0
  0
APPID
  2
GENIUS_GENOBJ-N-FIL_13
 70
     0
  0
APPID
  2
GENIUS_GENBH_13
 70
     0
  0
APPID
  2
GENIUS_GENOBJ-NBEHI-BHF_13
 70
     0
  0
APPID
  2
GENIUS_GENFIL_13
 70
     0
  0
APPID
  2
GENIUS_GENOBJ-N-CHA_13
 70
     0
  0
APPID
  2
GENIUS_GENOBJ-NBEHI-BHB_13
 70
     0
  0
APPID
  2
GENIUS_GENOBJ-N-CRS_13
 70
     0
  0
APPID
  2
GENIUS_GENDTOL_13
 70
     0
  0
APPID
  2
AD_DRAW
 70
     0
  0
APPID
  2
DESIGNERASSEMBLIES
 70
     0
  0
APPID
  2
ACADM_DIM_EDIT
 70
     0
  0
APPID
  2
AMDT_DM_ADJ
 70
     0
  0
APPID
  2
ACAD_PSEXT
 70
     0
  0
APPID
  2
ACAECLAYERSTANDARD
 70
     0
  0
APPID
  2
DCO15
 70
     0
  0
APPID
  2
GENIUS_GENREC_14
 70
     0
  0
APPID
  2
GENIUS_GENOBJ-N-REC_13
 70
     0
  0
APPID
  2
GENIUS_GENOBJ-N-HTC_13
 70
     0
  0
APPID
  2
GENIUS_GENHATCH_13
 70
     0
  0
APPID
  2
ACAD_DSTYLE_DIMARC_LENGTH_
 70
     0
  0
APPID
  2
ACAD_DSTYLE_DIMFLIPARROW_W
 70
     0
  0
APPID
  2
ACAD_EXEMPT_FROM_CAD_STANDARDS
 70
     0
  0
APPID
  2
ACAD_DSTYLE_DIMBREAK
 70
     0
  0
APPID
  2
ACAD_DSTYLE_DIMJAG
 70
     0
  0
APPID
  2
ACAD_NAV_VCDISPLAY
 70
     0
  0
APPID
  2
CONTENTBLOCKICON
 70
     0
  0
APPID
  2
ACAD_MLEADERVER
 70
     0
  0
ENDTAB
  0
TABLE
  2
DIMSTYLE
 70
    27
  0
DIMSTYLE
  2
AM_JIS
 70
     0
  3

  4
"
  5
OPEN
  6

  7

 40
1.0
 41
1.6000000000000001
 42
1.0
 43
7.0
 44
1.0
 45
0.0
 46
0.0
 47
0.1
 48
0.1
140
2.5
141
0.0
142
0.0
143
0.0393701
144
1.0
145
0.0
146
0.71
147
0.625
 71
     0
 72
     0
 73
     0
 74
     0
 75
     0
 76
     0
 77
     1
 78
     8
170
     0
171
     2
172
     1
173
     0
174
     0
175
     0
176
   256
177
   256
178
   256
  0
DIMSTYLE
  2
AM_JIS$3
 70
     0
  3

  4
"
  5
OPEN
  6

  7

 40
1.0
 41
1.6000000000000001
 42
1.0
 43
7.0
 44
1.0
 45
0.0
 46
0.0
 47
0.1
 48
0.1
140
2.5
141
0.0
142
0.0
143
0.0393701
144
1.0
145
0.0
146
0.71
147
0.625
 71
     0
 72
     0
 73
     0
 74
     0
 75
     0
 76
     0
 77
     1
 78
     8
170
     0
171
     2
172
     1
173
     0
174
     0
175
     0
176
   256
177
   256
178
   256
  0
DIMSTYLE
  2
AM_JIS$4
 70
     0
  3

  4
"
  5
OPEN
  6

  7

 40
1.0
 41
1.6000000000000001
 42
1.0
 43
7.0
 44
1.0
 45
0.0
 46
0.0
 47
0.1
 48
0.1
140
2.5
141
0.0
142
0.0
143
0.0393701
144
1.0
145
0.0
146
0.71
147
0.625
 71
     0
 72
     0
 73
     0
 74
     0
 75
     0
 76
     0
 77
     1
 78
     8
170
     0
171
     2
172
     1
173
     0
174
     0
175
     0
176
   256
177
   256
178
   256
  0
DIMSTYLE
  2
AM_JIS$6
 70
     0
  3

  4
"
  5
OPEN
  6

  7

 40
1.0
 41
1.6000000000000001
 42
1.0
 43
7.0
 44
1.0
 45
0.0
 46
0.0
 47
0.1
 48
0.1
140
2.5
141
0.0
142
0.0
143
0.0393701
144
1.0
145
0.0
146
0.71
147
0.625
 71
     0
 72
     0
 73
     0
 74
     0
 75
     0
 76
     0
 77
     0
 78
     8
170
     0
171
     2
172
     1
173
     0
174
     0
175
     0
176
   256
177
   256
178
   256
  0
DIMSTYLE
  2
AM_JIS$7
 70
     0
  3

  4
"
  5
OPEN
  6

  7

 40
1.0
 41
1.6000000000000001
 42
1.0
 43
7.0
 44
1.0
 45
0.0
 46
0.0
 47
0.1
 48
0.1
140
2.5
141
0.0
142
0.0
143
0.0393701
144
1.0
145
0.0
146
0.71
147
0.625
 71
     0
 72
     0
 73
     0
 74
     0
 75
     0
 76
     0
 77
     1
 78
     8
170
     0
171
     2
172
     1
173
     0
174
     0
175
     0
176
   256
177
   256
178
   256
  0
DIMSTYLE
  2
AM_JIS$SF
 70
     0
  3

  4
"
  5
OPEN30
  6
OPEN30
  7
OPEN30
 40
1.0
 41
2.5
 42
1.0
 43
10.0
 44
1.0
 45
0.0
 46
0.0
 47
0.1
 48
0.1
140
3.5
141
0.0
142
0.0
143
0.0393701
144
1.0
145
0.0
146
0.71
147
1.5
 71
     0
 72
     0
 73
     0
 74
     0
 75
     1
 76
     1
 77
     3
 78
     8
170
     0
171
     2
172
     1
173
     0
174
     0
175
     0
176
   256
177
   256
178
     2
  0
DIMSTYLE
  2
AM_JIS$SH
 70
     0
  3

  4
"
  5
OPEN30
  6
GENAXEH
  7
OPEN30
 40
1.0
 41
2.5
 42
1.0
 43
10.0
 44
1.0
 45
0.0
 46
0.0
 47
0.1
 48
0.1
140
3.5
141
0.0
142
0.0
143
0.0393701
144
2.0
145
0.0
146
0.71
147
1.5
 71
     0
 72
     0
 73
     0
 74
     0
 75
     1
 76
     1
 77
     3
 78
     8
170
     0
171
     2
172
     1
173
     1
174
     0
175
     0
176
   256
177
   256
178
     2
  0
DIMSTYLE
  2
AM_JIS$2
 70
     0
  3

  4
"
  5
OPEN
  6

  7

 40
1.0
 41
1.6000000000000001
 42
1.0
 43
7.0
 44
1.0
 45
0.0
 46
0.0
 47
0.1
 48
0.1
140
2.5
141
0.0
142
0.0
143
0.0393701
144
1.0
145
0.0
146
0.71
147
0.625
 71
     0
 72
     0
 73
     0
 74
     0
 75
     0
 76
     0
 77
     1
 78
     8
170
     0
171
     2
172
     1
173
     0
174
     0
175
     0
176
   256
177
   256
178
   256
  0
DIMSTYLE
  2
AM_JIS$0
 70
     0
  3

  4
"
  5
OPEN
  6

  7

 40
1.0
 41
1.6000000000000001
 42
1.0
 43
7.0
 44
1.0
 45
0.0
 46
0.0
 47
0.1
 48
0.1
140
2.5
141
0.0
142
0.0
143
0.0393701
144
1.0
145
0.0
146
0.71
147
0.625
 71
     0
 72
     0
 73
     0
 74
     0
 75
     0
 76
     0
 77
     1
 78
     8
170
     0
171
     2
172
     1
173
     0
174
     0
175
     0
176
   256
177
   256
178
   256
  0
DIMSTYLE
  2
SANKYO
 70
     0
  3

  4
"
  5
DOTSMALL
  6

  7

 40
1.0
 41
4.7999999999999989
 42
1.0
 43
7.0
 44
3.0
 45
0.0
 46
0.0
 47
0.1
 48
0.1
140
7.0
141
0.0
142
0.0
143
0.0393701
144
1.0
145
0.0
146
0.71
147
1.3
 71
     0
 72
     0
 73
     0
 74
     0
 75
     0
 76
     0
 77
     1
 78
     8
170
     0
171
     2
172
     1
173
     0
174
     0
175
     0
176
   256
177
   256
178
   256
  0
DIMSTYLE
  2
SANKYO$3
 70
     0
  3

  4
"
  5
DOTSMALL
  6

  7

 40
1.0
 41
4.7999999999999989
 42
1.0
 43
10.0
 44
3.0
 45
0.0
 46
0.0
 47
0.1
 48
0.1
140
7.0
141
0.0
142
0.0
143
0.0393701
144
1.0
145
0.0
146
0.71
147
1.3
 71
     0
 72
     0
 73
     0
 74
     0
 75
     0
 76
     0
 77
     1
 78
     8
170
     0
171
     2
172
     1
173
     0
174
     0
175
     0
176
   256
177
   256
178
   256
  0
DIMSTYLE
  2
SANKYO$4
 70
     0
  3

  4
"
  5

  6
OPEN30
  7
OPEN
 40
1.0
 41
4.7999999999999989
 42
1.0
 43
10.0
 44
3.0
 45
0.0
 46
0.0
 47
0.1
 48
0.1
140
7.0
141
0.0
142
0.0
143
0.0393701
144
1.0
145
0.0
146
0.71
147
1.3
 71
     0
 72
     0
 73
     0
 74
     0
 75
     0
 76
     0
 77
     1
 78
     8
170
     0
171
     2
172
     1
173
     1
174
     0
175
     0
176
   256
177
   256
178
   256
  0
DIMSTYLE
  2
SANKYO$6
 70
     0
  3

  4
"
  5
OPEN30
  6

  7

 40
1.0
 41
4.7999999999999989
 42
1.0
 43
7.0
 44
3.0
 45
0.0
 46
0.0
 47
0.1
 48
0.1
140
7.0
141
0.0
142
0.0
143
0.0393701
144
1.0
145
0.0
146
0.71
147
1.3
 71
     0
 72
     0
 73
     0
 74
     0
 75
     0
 76
     0
 77
     0
 78
     8
170
     0
171
     2
172
     1
173
     0
174
     0
175
     0
176
   256
177
   256
178
   256
  0
DIMSTYLE
  2
SANKYO$7
 70
     0
  3

  4
"
  5
DOTSMALL
  6

  7

 40
1.0
 41
4.7999999999999989
 42
1.0
 43
7.0
 44
3.0
 45
0.0
 46
0.0
 47
0.1
 48
0.1
140
7.0
141
0.0
142
0.0
143
0.0393701
144
1.0
145
0.0
146
0.71
147
1.3
 71
     0
 72
     0
 73
     0
 74
     0
 75
     0
 76
     0
 77
     1
 78
     8
170
     0
171
     2
172
     1
173
     0
174
     0
175
     0
176
   256
177
   256
178
   256
  0
DIMSTYLE
  2
SANKYO$SF
 70
     0
  3

  4
"
  5
OPEN30
  6
OPEN30
  7
OPEN30
 40
1.0
 41
2.5
 42
1.0
 43
10.0
 44
1.0
 45
0.0
 46
0.0
 47
0.1
 48
0.1
140
3.5
141
0.0
142
0.0
143
0.0393701
144
1.0
145
0.0
146
0.71
147
1.5
 71
     0
 72
     0
 73
     0
 74
     0
 75
     1
 76
     1
 77
     3
 78
     8
170
     0
171
     2
172
     1
173
     0
174
     0
175
     0
176
   256
177
   256
178
     2
  0
DIMSTYLE
  2
SANKYO$SH
 70
     0
  3

  4
"
  5
OPEN30
  6
GENAXEH
  7
OPEN30
 40
1.0
 41
2.5
 42
1.0
 43
10.0
 44
1.0
 45
0.0
 46
0.0
 47
0.1
 48
0.1
140
3.5
141
0.0
142
0.0
143
0.0393701
144
2.0
145
0.0
146
0.71
147
1.5
 71
     0
 72
     0
 73
     0
 74
     0
 75
     1
 76
     1
 77
     3
 78
     8
170
     0
171
     2
172
     1
173
     1
174
     0
175
     0
176
   256
177
   256
178
     2
  0
DIMSTYLE
  2
SANKYO$2
 70
     0
  3

  4
"
  5
DOTSMALL
  6

  7

 40
1.0
 41
4.7999999999999989
 42
1.0
 43
7.0
 44
3.0
 45
0.0
 46
0.0
 47
0.1
 48
0.1
140
7.0
141
0.0
142
0.0
143
0.0393701
144
1.0
145
0.0
146
0.71
147
1.3
 71
     0
 72
     0
 73
     0
 74
     0
 75
     0
 76
     0
 77
     1
 78
     8
170
     0
171
     2
172
     1
173
     0
174
     0
175
     0
176
   256
177
   256
178
   256
  0
DIMSTYLE
  2
SANKYO$0
 70
     0
  3

  4
"
  5
DOTSMALL
  6

  7

 40
1.0
 41
4.7999999999999989
 42
1.0
 43
7.0
 44
3.0
 45
0.0
 46
0.0
 47
0.1
 48
0.1
140
7.0
141
0.0
142
0.0
143
0.0393701
144
1.0
145
0.0
146
0.71
147
1.3
 71
     0
 72
     0
 73
     0
 74
     0
 75
     0
 76
     0
 77
     1
 78
     8
170
     0
171
     2
172
     1
173
     0
174
     0
175
     0
176
   256
177
   256
178
   256
  0
DIMSTYLE
  2
AM_ISO
 70
     0
  3

  4
"
  5

  6

  7

 40
1.0
 41
1.6000000000000001
 42
1.0
 43
7.0
 44
1.0
 45
0.0
 46
0.0
 47
0.1
 48
0.1
140
2.5
141
0.0
142
0.0
143
0.0393701
144
1.0
145
0.0
146
0.71
147
0.625
 71
     0
 72
     0
 73
     0
 74
     0
 75
     0
 76
     0
 77
     1
 78
     8
170
     0
171
     2
172
     1
173
     0
174
     0
175
     0
176
   256
177
   256
178
   256
  0
DIMSTYLE
  2
AM_ISO$3
 70
     0
  3

  4
"
  5

  6

  7

 40
1.0
 41
1.6000000000000001
 42
1.0
 43
7.0
 44
1.0
 45
0.0
 46
0.0
 47
0.1
 48
0.1
140
2.5
141
0.0
142
0.0
143
0.0393701
144
1.0
145
0.0
146
0.71
147
0.625
 71
     0
 72
     0
 73
     0
 74
     0
 75
     0
 76
     0
 77
     1
 78
     8
170
     0
171
     2
172
     1
173
     0
174
     0
175
     0
176
   256
177
   256
178
   256
  0
DIMSTYLE
  2
AM_ISO$4
 70
     0
  3

  4
"
  5

  6

  7

 40
1.0
 41
1.6000000000000001
 42
1.0
 43
7.0
 44
1.0
 45
0.0
 46
0.0
 47
0.1
 48
0.1
140
2.5
141
0.0
142
0.0
143
0.0393701
144
1.0
145
0.0
146
0.71
147
0.625
 71
     0
 72
     0
 73
     0
 74
     0
 75
     0
 76
     0
 77
     1
 78
     8
170
     0
171
     2
172
     1
173
     0
174
     0
175
     0
176
   256
177
   256
178
   256
  0
DIMSTYLE
  2
AM_ISO$6
 70
     0
  3

  4
"
  5

  6

  7

 40
1.0
 41
1.6000000000000001
 42
1.0
 43
7.0
 44
1.0
 45
0.0
 46
0.0
 47
0.1
 48
0.1
140
2.5
141
0.0
142
0.0
143
0.0393701
144
1.0
145
0.0
146
0.71
147
0.625
 71
     0
 72
     0
 73
     0
 74
     0
 75
     0
 76
     0
 77
     0
 78
     8
170
     0
171
     2
172
     1
173
     0
174
     0
175
     0
176
   256
177
   256
178
   256
  0
DIMSTYLE
  2
AM_ISO$7
 70
     0
  3

  4
"
  5

  6

  7

 40
1.0
 41
1.6000000000000001
 42
1.0
 43
7.0
 44
1.0
 45
0.0
 46
0.0
 47
0.1
 48
0.1
140
2.5
141
0.0
142
0.0
143
0.0393701
144
1.0
145
0.0
146
0.71
147
0.625
 71
     0
 72
     0
 73
     0
 74
     0
 75
     0
 76
     0
 77
     1
 78
     8
170
     0
171
     2
172
     1
173
     0
174
     0
175
     0
176
   256
177
   256
178
   256
  0
DIMSTYLE
  2
AM_ISO$SF
 70
     0
  3

  4
"
  5

  6

  7

 40
1.0
 41
2.5
 42
1.0
 43
10.0
 44
1.0
 45
0.0
 46
0.0
 47
0.1
 48
0.1
140
3.5
141
0.0
142
0.0
143
0.0393701
144
1.0
145
0.0
146
0.71
147
1.5
 71
     0
 72
     0
 73
     0
 74
     0
 75
     1
 76
     1
 77
     1
 78
     8
170
     0
171
     2
172
     1
173
     0
174
     0
175
     0
176
   256
177
   256
178
     2
  0
DIMSTYLE
  2
AM_ISO$SH
 70
     0
  3

  4
"
  5

  6
GENAXEH
  7

 40
1.0
 41
2.5
 42
1.0
 43
10.0
 44
1.0
 45
0.0
 46
0.0
 47
0.1
 48
0.1
140
3.5
141
0.0
142
0.0
143
0.0393701
144
2.0
145
0.0
146
0.71
147
1.5
 71
     0
 72
     0
 73
     0
 74
     0
 75
     1
 76
     1
 77
     1
 78
     8
170
     0
171
     2
172
     1
173
     1
174
     0
175
     0
176
   256
177
   256
178
     2
  0
DIMSTYLE
  2
AM_ISO$2
 70
     0
  3

  4
"
  5

  6

  7

 40
1.0
 41
1.6000000000000001
 42
1.0
 43
7.0
 44
1.0
 45
0.0
 46
0.0
 47
0.1
 48
0.1
140
2.5
141
0.0
142
0.0
143
0.0393701
144
1.0
145
0.0
146
0.71
147
0.625
 71
     0
 72
     0
 73
     0
 74
     0
 75
     0
 76
     0
 77
     1
 78
     8
170
     0
171
     2
172
     1
173
     0
174
     0
175
     0
176
   256
177
   256
178
   256
  0
DIMSTYLE
  2
AM_ISO$0
 70
     0
  3

  4
"
  5

  6

  7

 40
1.0
 41
1.6000000000000001
 42
1.0
 43
7.0
 44
1.0
 45
0.0
 46
0.0
 47
0.1
 48
0.1
140
2.5
141
0.0
142
0.0
143
0.0393701
144
1.0
145
0.0
146
0.71
147
0.625
 71
     0
 72
     0
 73
     0
 74
     0
 75
     0
 76
     0
 77
     1
 78
     8
170
     0
171
     2
172
     1
173
     0
174
     0
175
     0
176
   256
177
   256
178
   256
  0
ENDTAB
  0
ENDSEC
  0
SECTION
  2
BLOCKS
  0
BLOCK
  8
0
  2
$MODEL_SPACE
 70
     0
 10
0.0
 20
0.0
 30
0.0
  3
$MODEL_SPACE
  1

  0
ENDBLK
  5
1A
  8
0
  0
BLOCK
 67
     1
  8
0
  2
$PAPER_SPACE
 70
     0
 10
0.0
 20
0.0
 30
0.0
  3
$PAPER_SPACE
  1

  0
ENDBLK
  5
17
 67
     1
  8
0
  0
BLOCK
  8
0
  2
_OPEN30
 70
     0
 10
0.0
 20
0.0
 30
0.0
  3
_OPEN30
  1

  0
LINE
  5
34
  8
0
  6
BYBLOCK
 62
     0
 10
-1.0
 20
0.26794919
 30
0.0
 11
0.0
 21
0.0
 31
0.0
  0
LINE
  5
35
  8
0
  6
BYBLOCK
 62
     0
 10
0.0
 20
0.0
 30
0.0
 11
-1.0
 21
-0.26794919
 31
0.0
  0
LINE
  5
36
  8
0
  6
BYBLOCK
 62
     0
 10
0.0
 20
0.0
 30
0.0
 11
-1.0
 21
0.0
 31
0.0
  0
ENDBLK
  5
37
  8
0
  0
BLOCK
  8
0
  2
GENAXEH
 70
     0
 10
0.0
 20
0.0
 30
0.0
  3
GENAXEH
  1

  0
LINE
  5
102
  8
0
 10
-1.0
 20
0.0
 30
0.0
 11
1.0
 21
0.0
 31
0.0
  0
ENDBLK
  5
104
  8
0
  0
BLOCK
  8
0
  2
_OPEN
 70
     0
 10
0.0
 20
0.0
 30
0.0
  3
_OPEN
  1

  0
LINE
  5
30B
  8
0
  6
BYBLOCK
 62
     0
 10
-1.0
 20
0.1666666666666666
 30
0.0
 11
0.0
 21
0.0
 31
0.0
  0
LINE
  5
30C
  8
0
  6
BYBLOCK
 62
     0
 10
-1.0
 20
-0.1666666666666666
 30
0.0
 11
0.0
 21
0.0
 31
0.0
  0
LINE
  5
30D
  8
0
  6
BYBLOCK
 62
     0
 10
0.0
 20
0.0
 30
0.0
 11
-1.0
 21
0.0
 31
0.0
  0
ENDBLK
  5
30F
  8
0
  0
BLOCK
  8
0
  2
_DOTSMALL
 70
     0
 10
0.0
 20
0.0
 30
0.0
  3
_DOTSMALL
  1

  0
POLYLINE
  5
A1C9
  8
0
  6
BYBLOCK
 62
     0
 66
     1
 10
0.0
 20
0.0
 30
0.0
 70
     1
 40
0.5
 41
0.5
  0
VERTEX
  5
1215F
  8
0
  6
BYBLOCK
 62
     0
 10
-0.0625
 20
0.0
 30
0.0
 42
1.0
  0
VERTEX
  5
12160
  8
0
  6
BYBLOCK
 62
     0
 10
0.0625
 20
0.0
 30
0.0
 42
1.0
  0
SEQEND
  5
12161
  8
0
  6
BYBLOCK
 62
     0
  0
ENDBLK
  5
A1CB
  8
0
  0
ENDSEC
  0
SECTION
  2
ENTITIES
  0
LINE
  5
9B1A
  8
WK
 10
23.5
 20
16.25
 30
0.0
 11
817.5
 21
16.25
 31
0.0
  0
LINE
  5
9B1B
  8
WK
 10
23.5
 20
577.74999999999989
 30
0.0
 11
817.5
 21
577.74999999999989
 31
0.0
  0
LINE
  5
9B1C
  8
WK
 10
23.5
 20
577.74999999999989
 30
0.0
 11
23.5
 21
16.25
 31
0.0
  0
LINE
  5
9B1F
  8
WK
 10
817.5
 20
577.74999999999989
 30
0.0
 11
817.5
 21
16.25
 31
0.0
  0
TEXT
  5
9BE2
  8
WK
 10
22.5
 20
16.25
 30
0.0
 40
3.2000000000000002
  1
A1
 50
90.0
 41
0.8299999999999999
  0
LINE
  5
9C31
  8
WK
 10
737.5
 20
34.25
 30
0.0
 11
737.5
 21
16.25
 31
0.0
  0
LINE
  5
9C32
  8
WK
 10
542.49999999999989
 20
34.25
 30
0.0
 11
542.49999999999989
 21
16.25
 31
0.0
  0
LINE
  5
9C34
  8
WK
 10
697.5
 20
34.25
 30
0.0
 11
697.5
 21
16.25
 31
0.0
  0
LINE
  5
9C35
  8
WK
 10
717.49999999999989
 20
34.25
 30
0.0
 11
717.49999999999989
 21
16.25
 31
0.0
  0
LINE
  5
9C37
  8
WK
 10
657.5
 20
34.25
 30
0.0
 11
657.5
 21
16.25
 31
0.0
  0
LINE
  5
9C38
  8
WK
 10
637.5
 20
34.25
 30
0.0
 11
637.5
 21
16.25
 31
0.0
  0
LINE
  5
9C3A
  8
WK
 10
542.49999999999989
 20
34.25
 30
0.0
 11
817.5
 21
34.25
 31
0.0
  0
LINE
  5
9C3B
  8
WK
 10
551.49999999999989
 20
26.25
 30
0.0
 11
624.5
 21
26.25
 31
0.0
  0
LINE
  5
9C3E
  8
WK
 10
657.5
 20
22.25
 30
0.0
 11
697.5
 21
22.25
 31
0.0
  0
LINE
  5
9C3F
  8
WK
 10
657.5
 20
28.25
 30
0.0
 11
697.5
 21
28.25
 31
0.0
  0
LINE
  5
9C46
  8
WK
 10
803.80947501931098
 20
25.25
 30
0.0
 11
815.80947501931109
 21
25.25
 31
0.0
  0
CIRCLE
  5
9C47
  8
WK
 10
809.80947501931098
 20
25.25
 30
0.0
 40
6.0
  0
TEXT
  5
9C56
  8
WK
 10
644.52780952380954
 20
20.649999643948512
 30
0.0
 40
3.2000000000000002
  1
1:1
 41
0.8299999999999999
 72
     4
 11
647.5
 21
22.249999643948509
 31
0.0
  0
TEXT
  5
9C57
  8
WK
 10
739.80313333333334
 20
30.150000000000009
 30
0.0
 40
3.2000000000000002
  1
図番
 41
0.8299999999999999
  0
TEXT
  5
9C58
  8
WK
 10
719.92899999999986
 20
30.150000000000009
 30
0.0
 40
3.2000000000000002
  1
検図
 41
0.8299999999999999
  0
TEXT
  5
9C59
  8
WK
 10
699.92899999999997
 20
30.150000000000009
 30
0.0
 40
3.2000000000000002
  1
作図
 41
0.8299999999999999
  0
TEXT
  5
9C5A
  8
WK
 10
658.55357250571251
 20
29.149999999999999
 30
0.0
 40
3.2000000000000002
  1
作成
 41
0.8299999999999999
  0
TEXT
  5
9C5B
  8
WK
 10
658.55357250571251
 20
23.149999999999999
 30
0.0
 40
3.2000000000000002
  1
制定
 41
0.8299999999999999
  0
TEXT
  5
9C5C
  8
WK
 10
658.55357250571251
 20
17.149999999999999
 30
0.0
 40
3.2000000000000002
  1
廃止
 41
0.8299999999999999
  0
TEXT
  5
9C5D
  8
WK
 10
638.42899999999997
 20
30.149999999999999
 30
0.0
 40
3.2000000000000002
  1
尺度
 41
0.8299999999999999
  0
TEXT
  5
9C5E
  8
WK
 10
625.49999999999989
 20
18.25
 30
0.0
 40
4.0
  1
基準図
 41
0.8
  0
TEXT
  5
9C77
  8
WK
 10
544.30313333333334
 20
30.150000000000009
 30
0.0
 40
3.2000000000000002
  1
図名
 41
0.8299999999999999
  0
LINE
  5
9C7C
  8
WK
 10
737.49999994324844
 20
558.15002446409278
 30
0.0
 11
817.49999994324844
 21
558.15002446409278
 31
0.0
  0
LINE
  5
9C89
  8
WK
 10
737.49999994324844
 20
562.95001225706164
 30
0.0
 11
817.49999994324844
 21
562.95001225706164
 31
0.0
  0
LINE
  5
9C95
  8
WK
 10
746.49999994324844
 20
572.95001225706164
 30
0.0
 11
746.49999994324844
 21
558.15002446409278
 31
0.0
  0
LINE
  5
9C96
  8
WK
 10
737.49999994324844
 20
567.75000005003062
 30
0.0
 11
817.49999994324844
 21
567.75000005003062
 31
0.0
  0
LINE
  5
9CA0
  8
WK
 10
737.49999994324844
 20
572.95001225706187
 30
0.0
 11
817.49999994324844
 21
572.95001225706187
 31
0.0
  0
LINE
  5
9CA2
  8
WK
 10
772.71856683778037
 20
577.75000005003062
 30
0.0
 11
772.71856683778014
 21
558.15002446409278
 31
0.0
  0
LINE
  5
9CA3
  8
WK
 10
762.71856683778026
 20
577.75000005003062
 30
0.0
 11
762.71856683778014
 21
558.15002446409278
 31
0.0
  0
LINE
  5
9CAB
  8
WK
 10
737.49999994324844
 20
577.75000005003062
 30
0.0
 11
737.49999994324844
 21
558.15002446409278
 31
0.0
  0
TEXT
  5
9CAC
  8
WK
 10
741.75857244896099
 20
559.40002446409289
 30
0.0
 40
2.5
  1
ｘ
 41
0.59
  0
TEXT
  5
9CAD
  8
WK
 10
741.75857244896099
 20
564.20001225706164
 30
0.0
 40
2.5
  1
ｘ
 41
0.59
  0
TEXT
  5
9CAE
  8
WK
 10
741.75857244896099
 20
569.00000005003051
 30
0.0
 40
2.5
  1
ｘ
 41
0.59
  0
TEXT
  5
9CAF
  8
WK
 10
739.1601213750539
 20
568.64997563596853
 30
0.0
 40
2.5
  1
1
 41
0.8299999999999999
 72
     4
 11
740.00000232743491
 21
569.89997563596853
 31
0.0
  0
TEXT
  5
9CEF
  8
WK
 10
739.01190708933973
 20
563.84998784299955
 30
0.0
 40
2.5
  1
2
 41
0.8299999999999999
 72
     4
 11
740.00000232743491
 21
565.09998784299955
 31
0.0
  0
TEXT
  5
9CF0
  8
WK
 10
739.01190708933973
 20
559.05000005003092
 30
0.0
 40
2.5
  1
3
 41
0.8299999999999999
 72
     4
 11
740.00000232743491
 21
560.3000000500308
 31
0.0
  0
TEXT
  5
9CF1
  8
WK
 10
755.53260687278987
 20
574.25000005003062
 30
0.0
 40
2.5
  1
付
 41
0.59
  0
TEXT
  5
9CF2
  8
WK
 10
745.59642299420909
 20
574.25000005003062
 30
0.0
 40
2.5
  1
日
 41
0.59
  0
TEXT
  5
9CF3
  8
WK
 10
768.84046250429969
 20
574.25000005003062
 30
0.0
 40
2.5
  1
当
 41
0.59
  0
TEXT
  5
9CF4
  8
WK
 10
765.57034854294386
 20
574.25000005003062
 30
0.0
 40
2.5
  1
担
 41
0.59
  0
TEXT
  5
9CF5
  8
WK
 10
790.0378253786489
 20
574.25000005003062
 30
0.0
 40
2.5
  1
記
 41
0.59
  0
TEXT
  5
9CF6
  8
WK
 10
799.28785589622703
 20
574.25000005003062
 30
0.0
 40
2.5
  1
事
 41
0.59
  0
LINE
  5
9ECF
  8
WK
 10
737.69000238465537
 20
563.54998784299971
 30
0.0
 11
742.31000227021445
 21
563.54998784299971
 31
0.0
  0
LINE
  5
9ED0
  8
WK
 10
742.31000227021445
 20
563.54998784299971
 30
0.0
 11
740.00000232743491
 21
567.55102510575091
 31
0.0
  0
LINE
  5
9ED1
  8
WK
 10
740.00000232743491
 20
567.55102510575091
 30
0.0
 11
737.69000238465537
 21
563.54998784299971
 31
0.0
  0
LINE
  5
9ED2
  8
WK
 10
737.69000238465537
 20
568.34997563596858
 30
0.0
 11
742.31000227021445
 21
568.34997563596858
 31
0.0
  0
LINE
  5
9ED3
  8
WK
 10
742.31000227021445
 20
568.34997563596858
 30
0.0
 11
740.00000232743491
 21
572.35101289871977
 31
0.0
  0
LINE
  5
9ED4
  8
WK
 10
740.00000232743491
 20
572.35101289871977
 30
0.0
 11
737.69000238465537
 21
568.34997563596858
 31
0.0
  0
LINE
  5
9ED5
  8
WK
 10
737.69000238465537
 20
558.75000005003085
 30
0.0
 11
742.31000227021445
 21
558.75000005003085
 31
0.0
  0
LINE
  5
9ED6
  8
WK
 10
742.31000227021445
 20
558.75000005003085
 30
0.0
 11
740.00000232743491
 21
562.75103731278216
 31
0.0
  0
LINE
  5
9ED7
  8
WK
 10
740.00000232743491
 20
562.75103731278216
 30
0.0
 11
737.69000238465537
 21
558.75000005003085
 31
0.0
  0
TEXT
  5
10591
  8
MJ
 10
637.5
 20
42.25
 30
0.0
 40
7.0
  1
ｖｒ０２ａ００２－ｄ
 41
0.8299999999999999
  0
TEXT
  5
10592
  8
MJ
 10
637.5
 20
69.25
 30
0.0
 40
7.0
  1
室内ドア　親子ドア
 41
0.8299999999999999
  0
TEXT
  5
10593
  8
MJ
 10
637.5
 20
51.25
 30
0.0
 40
7.0
  1
たて横断面
 41
0.8299999999999999
  0
TEXT
  5
10594
  8
MJ
 10
637.5
 20
60.25
 30
0.0
 40
7.0
  1
木製枠　枠見込み１５２ｍｍ（ノンケーシング枠）
 41
0.8299999999999999
  0
LINE
  5
105A1
  8
OS
 10
807.49999999999989
 20
332.74999999999858
 30
0.0
 11
732.49999998442092
 21
332.74999999999858
 31
0.0
  0
LINE
  5
105A2
  8
OS
 10
737.49999998442092
 20
332.74999999999858
 30
0.0
 11
807.49999999999989
 21
262.74999998441967
 31
0.0
  0
LINE
  5
105A3
  8
OS
 10
807.49999999999989
 20
297.7500000155776
 30
0.0
 11
737.49999998442092
 21
227.74999999999861
 31
0.0
  0
LINE
  5
105A4
  8
OS
 10
807.49999999999989
 20
227.74999999999861
 30
0.0
 11
732.49999998442092
 21
227.74999999999861
 31
0.0
  0
LINE
  5
105A5
  8
OS
 10
737.49999998442092
 20
332.74999999999858
 30
0.0
 11
737.49999998442092
 21
227.74999999999861
 31
0.0
  0
LINE
  5
105A6
  8
OS
 10
732.49999998442092
 20
332.74999999999858
 30
0.0
 11
737.49999998442092
 21
227.74999999999861
 31
0.0
  0
LINE
  5
105A7
  8
OS
 10
807.49999999999989
 20
215.24999999999861
 30
0.0
 11
732.49999998442092
 21
215.24999999999861
 31
0.0
  0
LINE
  5
105A8
  8
OS
 10
807.49999999999989
 20
345.24999999999858
 30
0.0
 11
732.49999998442092
 21
345.24999999999858
 31
0.0
  0
LINE
  5
105A9
  8
OS
 10
807.49999999999989
 20
217.24999999999861
 30
0.0
 11
732.49999998442092
 21
217.24999999999861
 31
0.0
  0
LINE
  5
105AA
  8
OS
 10
807.49999999999989
 20
225.74999999999861
 30
0.0
 11
732.49999998442092
 21
225.74999999999861
 31
0.0
  0
LINE
  5
105AB
  8
OS
 10
807.49999999999989
 20
334.74999999999858
 30
0.0
 11
732.49999998442092
 21
334.74999999999858
 31
0.0
  0
LINE
  5
105AC
  8
OS
 10
807.49999999999989
 20
343.24999999999858
 30
0.0
 11
732.49999998442092
 21
343.24999999999858
 31
0.0
  0
LINE
  5
105AD
  8
OS
 10
732.49999998442092
 20
345.24999999999858
 30
0.0
 11
732.49999998442092
 21
215.24999999999861
 31
0.0
  0
LINE
  5
105AE
  8
OS
 10
357.49999999999989
 20
332.74999999999858
 30
0.0
 11
432.50000001557891
 21
332.74999999999858
 31
0.0
  0
LINE
  5
105AF
  8
OS
 10
427.50000001557891
 20
332.74999999999858
 30
0.0
 11
357.49999999999989
 21
262.74999998441967
 31
0.0
  0
LINE
  5
105B0
  8
OS
 10
357.49999999999989
 20
297.7500000155776
 30
0.0
 11
427.50000001557891
 21
227.74999999999861
 31
0.0
  0
LINE
  5
105B1
  8
OS
 10
357.49999999999989
 20
227.74999999999861
 30
0.0
 11
432.50000001557891
 21
227.74999999999861
 31
0.0
  0
LINE
  5
105B2
  8
OS
 10
427.50000001557891
 20
332.74999999999858
 30
0.0
 11
427.50000001557891
 21
227.74999999999861
 31
0.0
  0
LINE
  5
105B3
  8
OS
 10
432.50000001557891
 20
227.74999999999861
 30
0.0
 11
427.50000001557891
 21
332.74999999999858
 31
0.0
  0
LINE
  5
105B4
  8
OS
 10
357.49999999999989
 20
215.24999999999861
 30
0.0
 11
432.50000001557891
 21
215.24999999999861
 31
0.0
  0
LINE
  5
105B5
  8
OS
 10
357.49999999999989
 20
345.24999999999858
 30
0.0
 11
432.50000001557891
 21
345.24999999999858
 31
0.0
  0
LINE
  5
105B6
  8
OS
 10
357.49999999999989
 20
217.24999999999861
 30
0.0
 11
432.50000001557891
 21
217.24999999999861
 31
0.0
  0
LINE
  5
105B7
  8
OS
 10
357.49999999999989
 20
225.74999999999861
 30
0.0
 11
432.50000001557891
 21
225.74999999999861
 31
0.0
  0
LINE
  5
105B8
  8
OS
 10
357.49999999999989
 20
334.74999999999858
 30
0.0
 11
432.50000001557891
 21
334.74999999999858
 31
0.0
  0
LINE
  5
105B9
  8
OS
 10
357.49999999999989
 20
343.24999999999858
 30
0.0
 11
432.50000001557891
 21
343.24999999999858
 31
0.0
  0
LINE
  5
105BA
  8
OS
 10
432.50000001557891
 20
345.24999999999858
 30
0.0
 11
432.50000001557891
 21
215.24999999999861
 31
0.0
  0
LINE
  5
105D4
  8
KI1
 10
460.49999999787809
 20
244.75000616218639
 30
0.0
 11
460.49999999787809
 21
211.7500061622026
 31
0.0
  0
LINE
  5
105D5
  8
KI1
 10
565.4999999978761
 20
244.75000616218651
 30
0.0
 11
565.4999999978761
 21
211.7500061622026
 31
0.0
  0
LINE
  5
105D6
  8
KI1
 10
560.4999999978761
 20
244.75000616218639
 30
0.0
 11
560.4999999978761
 21
211.7500061622026
 31
0.0
  0
LINE
  5
105D7
  8
KI1
 10
704.49999999786814
 20
244.75000616218639
 30
0.0
 11
704.49999999786814
 21
211.7500061622026
 31
0.0
  0
LINE
  5
105DE
  8
KI1
 10
460.49999999787809
 20
244.75000616218639
 30
0.0
 11
514.99999999787769
 21
244.75000616218639
 31
0.0
  0
LINE
  5
105DF
  8
KI1
 10
516.99999999787758
 20
244.75000616218639
 30
0.0
 11
549.49999999787815
 21
244.75000616218651
 31
0.0
  0
LINE
  5
105E0
  8
KI1
 10
460.49999999787809
 20
211.7500061622026
 30
0.0
 11
514.99999999787769
 21
211.7500061622026
 31
0.0
  0
LINE
  5
105E1
  8
KI1
 10
516.99999999787758
 20
211.7500061622026
 30
0.0
 11
560.4999999978761
 21
211.7500061622026
 31
0.0
  0
LINE
  5
105E2
  8
KI1
 10
565.4999999978761
 20
211.7500061622026
 30
0.0
 11
571.49999999787644
 21
211.7500061622026
 31
0.0
  0
LINE
  5
105E3
  8
KI1
 10
635.99999999787212
 20
211.7500061622026
 30
0.0
 11
704.49999999786814
 21
211.7500061622026
 31
0.0
  0
LINE
  5
105E4
  8
KI1
 10
565.4999999978761
 20
244.75000616218651
 30
0.0
 11
633.99999999787212
 21
244.75000616218639
 31
0.0
  0
LINE
  5
105E5
  8
KI1
 10
635.99999999787212
 20
244.75000616218639
 30
0.0
 11
704.49999999786814
 21
244.75000616218639
 31
0.0
  0
LINE
  5
1095B
  8
TE
 10
443.10660171796269
 20
193.64339828236621
 30
0.0
 11
421.89339828203708
 21
214.85660171763379
 31
0.0
  0
LINE
  5
1095C
  8
TE
 10
421.8953197459283
 20
193.6414757736465
 30
0.0
 11
443.10468025407152
 21
214.85852422635341
 31
0.0
  0
LINE
  5
1095D
  8
TE
 10
743.10660171796269
 20
193.64339828236601
 30
0.0
 11
721.89339828203697
 21
214.85660171763359
 31
0.0
  0
LINE
  5
1095E
  8
TE
 10
721.8953197459283
 20
193.64147577364631
 30
0.0
 11
743.10468025407147
 21
214.85852422635321
 31
0.0
  0
LINE
  5
10960
  8
SU
 10
560.4999999978761
 20
246.7500059934915
 30
0.0
 11
560.4999999978761
 21
277.75000616218711
 31
0.0
  0
LINE
  5
10961
  8
SU
 10
593.56502133504955
 20
274.75000616218722
 30
0.0
 11
560.4999999978761
 21
274.75000616218722
 31
0.0
  0
LINE
  5
10965
  8
SU
 10
545.49999999787644
 20
248.7500059934915
 30
0.0
 11
545.49999999787644
 21
292.75000616218711
 31
0.0
  0
LINE
  5
10966
  8
SU
 10
570.49999999787656
 20
289.75000616218711
 30
0.0
 11
545.49999999787644
 21
289.75000616218722
 31
0.0
  0
LINE
  5
10969
  8
SU
 10
645.99999999786814
 20
195.2500061622026
 30
0.0
 11
645.99999999786814
 21
292.75000616218722
 31
0.0
  0
LINE
  5
1096A
  8
SU
 10
570.49999999787656
 20
251.2500059934915
 30
0.0
 11
570.49999999787656
 21
292.75000616218722
 31
0.0
  0
LINE
  5
1096B
  8
SU
 10
645.99999999786814
 20
289.75000616218722
 30
0.0
 11
570.49999999787656
 21
289.75000616218722
 31
0.0
  0
LINE
  5
1096C
  8
SU
 10
582.0457230126932
 20
289.75000616218722
 30
0.0
 11
591.10731434675381
 21
304.75000616218711
 31
0.0
  0
LINE
  5
1096D
  8
SU
 10
591.10731434675381
 20
304.75000616218711
 30
0.0
 11
691.60655279679577
 21
304.75000616218722
 31
0.0
  0
LINE
  5
10971
  8
SU
 10
518.99999999787769
 20
144.25000000001589
 30
0.0
 11
432.49999999787769
 21
144.25000000001589
 31
0.0
  0
LINE
  5
10974
  8
SU
 10
560.4999999978761
 20
114.250000000016
 30
0.0
 11
565.4999999978761
 21
114.250000000016
 31
0.0
  0
LINE
  5
10975
  8
SU
 10
562.99999999787599
 20
114.250000000016
 30
0.0
 11
570.36025403572057
 21
129.2500000000162
 31
0.0
  0
LINE
  5
10976
  8
SU
 10
570.36025403572057
 20
129.2500000000162
 30
0.0
 11
576.83358736905393
 21
129.2500000000162
 31
0.0
  0
LINE
  5
10978
  8
SU
 10
560.4999999978761
 20
210.7500061622026
 30
0.0
 11
560.4999999978761
 21
111.2500000000161
 31
0.0
  0
LINE
  5
10979
  8
SU
 10
460.49999999787809
 20
114.2500000000161
 30
0.0
 11
560.4999999978761
 21
114.2500000000161
 31
0.0
  0
LINE
  5
10ABA
  8
PH
 10
647.99999999786814
 20
192.2500061622026
 30
0.0
 11
678.99999999786814
 21
192.2500061622026
 31
0.0
  0
LINE
  5
10ABB
  8
PH
 10
678.99999999786814
 20
194.2500061622026
 30
0.0
 11
645.99999999786814
 21
194.2500061622026
 31
0.0
  0
LINE
  5
10ABC
  8
PH
 10
676.24999999786814
 20
188.2500061622026
 30
0.0
 11
678.99999999786814
 21
188.2500061622026
 31
0.0
  0
LINE
  5
10ABD
  8
KI2
 10
706.19999694611033
 20
244.7500061622026
 30
0.0
 11
706.19999694611033
 21
198.2500061622026
 31
0.0
  0
LINE
  5
10ABE
  8
KI2
 10
708.49999999786814
 20
198.2500061622026
 30
0.0
 11
708.49999999786814
 21
244.7500061622026
 31
0.0
  0
LINE
  5
10ABF
  8
PH
 10
678.99999999786814
 20
188.2500061622026
 30
0.0
 11
678.99999999786814
 21
194.2500061622026
 31
0.0
  0
LINE
  5
10AC0
  8
KI2
 10
700.49999999786814
 20
199.7500061622026
 30
0.0
 11
706.19999694611033
 21
199.7500061622026
 31
0.0
  0
ARC
  5
10AC1
  8
KI2
 10
700.49999999786814
 20
190.2500061622026
 30
0.0
 40
9.5
 50
90.000002504481714
 51
0.0000100179106335
  0
CIRCLE
  5
10AC2
  8
KI2
 10
699.99999999786814
 20
190.2500061622026
 30
0.0
 40
8.0
  0
CIRCLE
  5
10AC3
  8
KI2
 10
700.49999999786814
 20
190.2500061622026
 30
0.0
 40
8.0
  0
LINE
  5
10AC4
  8
PH
 10
692.05125045563113
 20
189.72554823068401
 30
0.0
 11
678.99999999786814
 21
189.1488442054156
 31
0.0
  0
ARC
  5
10AC5
  8
PH
 10
692.09697723175418
 20
192.5302948584916
 30
0.0
 40
0.5
 50
272.53011562566809
 51
351.3369338919245
  0
LINE
  5
10AC6
  8
PH
 10
678.99999999786814
 20
191.4510917296769
 30
0.0
 11
692.11904525543616
 21
192.03079124597329
 31
0.0
  0
LINE
  5
10AC7
  8
PH
 10
683.96532058502623
 20
191.67049738076949
 30
0.0
 11
684.06685256744822
 21
189.37273641732949
 31
0.0
  0
LINE
  5
10AC8
  8
KI2
 10
708.49999999786814
 20
190.2500061622026
 30
0.0
 11
708.49999999786814
 21
198.2500061622026
 31
0.0
  0
LINE
  5
10AC9
  8
KI2
 10
706.19999694611033
 20
198.2500061622026
 30
0.0
 11
706.19999694611033
 21
195.86338277963461
 31
0.0
  0
LINE
  5
10ACA
  8
KI2
 10
708.49999999786814
 20
190.2500061622026
 30
0.0
 11
709.99999999786814
 21
190.2500061622026
 31
0.0
  0
LINE
  5
10ACB
  8
KI2
 10
708.49999999786814
 20
198.2500061622026
 30
0.0
 11
706.19999694611033
 21
198.2500061622026
 31
0.0
  0
LINE
  5
10ACC
  8
KI2
 10
706.19999694611033
 20
199.7500061622026
 30
0.0
 11
706.19999694611033
 21
197.8500046363246
 31
0.0
  0
LINE
  5
10ACD
  8
PH
 10
645.99999999786814
 20
194.2500061622026
 30
0.0
 11
645.99999999786814
 21
188.2500061622026
 31
0.0
  0
LINE
  5
10ACE
  8
PH
 10
650.49999999786814
 20
176.2500061622026
 30
0.0
 11
674.49999999786814
 21
176.2500061622026
 31
0.0
  0
LINE
  5
10ACF
  8
PH
 10
674.49999999786814
 20
182.2500061622026
 30
0.0
 11
674.49999999786814
 21
176.2500061622026
 31
0.0
  0
LINE
  5
10AD0
  8
PH
 10
676.24999999786814
 20
182.2500061622026
 30
0.0
 11
674.49999999786814
 21
182.2500061622026
 31
0.0
  0
LINE
  5
10AD1
  8
PH
 10
676.24999999786814
 20
182.2500061622026
 30
0.0
 11
676.24999999786814
 21
188.2500061622026
 31
0.0
  0
LINE
  5
10AD2
  8
PH
 10
650.49999999786814
 20
182.2500061622026
 30
0.0
 11
650.49999999786814
 21
176.2500061622026
 31
0.0
  0
LINE
  5
10AD3
  8
PH
 10
647.99999999786814
 20
192.2500061622026
 30
0.0
 11
647.99999999786814
 21
188.2500061622026
 31
0.0
  0
LINE
  5
10AD4
  8
PH
 10
648.74999999786814
 20
188.2500061622026
 30
0.0
 11
648.74999999786814
 21
182.2500061622026
 31
0.0
  0
LINE
  5
10AD5
  8
PH
 10
648.74999999786814
 20
182.2500061622026
 30
0.0
 11
650.49999999786814
 21
182.2500061622026
 31
0.0
  0
LINE
  5
10AD6
  8
PH
 10
645.99999999786814
 20
188.2500061622026
 30
0.0
 11
648.74999999786814
 21
188.2500061622026
 31
0.0
  0
LINE
  5
10AD7
  8
KI2
 10
708.49999999786814
 20
244.7500061622026
 30
0.0
 11
706.19999694611033
 21
244.7500061622026
 31
0.0
  0
LINE
  5
10AD8
  8
TS
 10
702.49999999786814
 20
242.7500061622026
 30
0.0
 11
702.49999999786814
 21
211.7500061622026
 31
0.0
  0
LINE
  5
10AD9
  8
TS
 10
704.49999999786814
 20
211.7500061622026
 30
0.0
 11
704.49999999786814
 21
244.7500061622026
 31
0.0
  0
LINE
  5
10ADA
  8
TS
 10
698.49999999786814
 20
214.5000061622026
 30
0.0
 11
698.49999999786814
 21
211.7500061622026
 31
0.0
  0
LINE
  5
10ADB
  8
TS
 10
698.49999999786814
 20
211.7500061622026
 30
0.0
 11
704.49999999786814
 21
211.7500061622026
 31
0.0
  0
LINE
  5
10ADC
  8
KI2
 10
699.97554206634959
 20
198.69875570443961
 30
0.0
 11
699.39883804108115
 21
211.7500061622026
 31
0.0
  0
ARC
  5
10ADD
  8
KI2
 10
702.78028869415721
 20
198.65302892831659
 30
0.0
 40
0.5
 50
182.53011562566971
 51
261.33693389192428
  0
LINE
  5
10ADE
  8
KI2
 10
701.70108556534251
 20
211.7500061622026
 30
0.0
 11
702.2807850816389
 21
198.63096090463461
 31
0.0
  0
LINE
  5
10ADF
  8
KI2
 10
701.92049121643504
 20
206.78468557504459
 30
0.0
 11
699.6227302529951
 21
206.6831535926226
 31
0.0
  0
LINE
  5
10AE0
  8
TS
 10
704.49999999786814
 20
244.7500061622026
 30
0.0
 11
698.49999999786814
 21
244.7500061622026
 31
0.0
  0
LINE
  5
10AE1
  8
TS
 10
686.49999999786814
 20
240.2500061622026
 30
0.0
 11
686.49999999786814
 21
216.2500061622026
 31
0.0
  0
LINE
  5
10AE2
  8
TS
 10
692.49999999786814
 20
216.2500061622026
 30
0.0
 11
686.49999999786814
 21
216.2500061622026
 31
0.0
  0
LINE
  5
10AE3
  8
TS
 10
692.49999999786814
 20
214.5000061622026
 30
0.0
 11
692.49999999786814
 21
216.2500061622026
 31
0.0
  0
LINE
  5
10AE4
  8
TS
 10
692.49999999786814
 20
214.5000061622026
 30
0.0
 11
698.49999999786814
 21
214.5000061622026
 31
0.0
  0
LINE
  5
10AE5
  8
TS
 10
692.49999999786814
 20
240.2500061622026
 30
0.0
 11
686.49999999786814
 21
240.2500061622026
 31
0.0
  0
LINE
  5
10AE6
  8
TS
 10
702.49999999786814
 20
242.7500061622026
 30
0.0
 11
698.49999999786814
 21
242.7500061622026
 31
0.0
  0
LINE
  5
10AE7
  8
TS
 10
698.49999999786814
 20
242.0000061622026
 30
0.0
 11
692.49999999786814
 21
242.0000061622026
 31
0.0
  0
LINE
  5
10AE8
  8
TS
 10
692.49999999786814
 20
242.0000061622026
 30
0.0
 11
692.49999999786814
 21
240.2500061622026
 31
0.0
  0
LINE
  5
10AE9
  8
TS
 10
698.49999999786814
 20
244.7500061622026
 30
0.0
 11
698.49999999786814
 21
242.0000061622026
 31
0.0
  0
LINE
  5
10AEA
  8
PH
 10
645.99999999786814
 20
194.2500061622026
 30
0.0
 11
645.99999999786814
 21
164.2500061622026
 31
0.0
  0
LINE
  5
10AEB
  8
PH
 10
678.99999999786814
 20
164.2500061622026
 30
0.0
 11
678.99999999786814
 21
194.2500061622026
 31
0.0
  0
LINE
  5
10AEC
  8
PH
 10
516.99999999787758
 20
192.2500061622026
 30
0.0
 11
485.99999999787769
 21
192.2500061622026
 31
0.0
  0
LINE
  5
10AED
  8
PH
 10
485.99999999787769
 20
194.2500061622026
 30
0.0
 11
518.99999999787769
 21
194.2500061622026
 31
0.0
  0
LINE
  5
10AEE
  8
PH
 10
488.74999999787769
 20
188.2500061622026
 30
0.0
 11
485.99999999787769
 21
188.2500061622026
 31
0.0
  0
LINE
  5
10AEF
  8
KI2
 10
458.80000304963539
 20
244.7500061622026
 30
0.0
 11
458.80000304963539
 21
198.2500061622026
 31
0.0
  0
LINE
  5
10AF0
  8
KI2
 10
456.49999999787769
 20
198.2500061622026
 30
0.0
 11
456.49999999787769
 21
244.7500061622026
 31
0.0
  0
LINE
  5
10AF1
  8
PH
 10
485.99999999787769
 20
188.2500061622026
 30
0.0
 11
485.99999999787769
 21
194.2500061622026
 31
0.0
  0
LINE
  5
10AF2
  8
KI2
 10
464.49999999787769
 20
199.7500061622026
 30
0.0
 11
458.80000304963539
 21
199.7500061622026
 31
0.0
  0
ARC
  5
10AF3
  8
KI2
 10
464.49999999787769
 20
190.2500061622026
 30
0.0
 40
9.5
 50
179.99998998208929
 51
89.999997495518272
  0
CIRCLE
  5
10AF4
  8
KI2
 10
464.99999999787769
 20
190.2500061622026
 30
0.0
 40
8.0
  0
CIRCLE
  5
10AF5
  8
KI2
 10
464.49999999787769
 20
190.2500061622026
 30
0.0
 40
8.0
  0
LINE
  5
10AF6
  8
PH
 10
472.9487495401147
 20
189.72554823068401
 30
0.0
 11
485.99999999787769
 21
189.1488442054156
 31
0.0
  0
ARC
  5
10AF7
  8
PH
 10
472.90302276399149
 20
192.5302948584916
 30
0.0
 40
0.5
 50
188.6630661080759
 51
267.46988437433191
  0
LINE
  5
10AF8
  8
PH
 10
485.99999999787769
 20
191.4510917296769
 30
0.0
 11
472.88095474030968
 21
192.03079124597329
 31
0.0
  0
LINE
  5
10AF9
  8
PH
 10
481.0346794107196
 20
191.67049738076949
 30
0.0
 11
480.93314742829762
 21
189.37273641732949
 31
0.0
  0
LINE
  5
10AFA
  8
KI2
 10
456.49999999787769
 20
190.2500061622026
 30
0.0
 11
456.49999999787769
 21
198.2500061622026
 31
0.0
  0
LINE
  5
10AFB
  8
KI2
 10
458.80000304963539
 20
198.2500061622026
 30
0.0
 11
458.80000304963539
 21
195.86338277963461
 31
0.0
  0
LINE
  5
10AFC
  8
KI2
 10
456.49999999787769
 20
190.2500061622026
 30
0.0
 11
454.99999999787758
 21
190.2500061622026
 31
0.0
  0
LINE
  5
10AFD
  8
KI2
 10
456.49999999787769
 20
198.2500061622026
 30
0.0
 11
458.80000304963539
 21
198.2500061622026
 31
0.0
  0
LINE
  5
10AFE
  8
KI2
 10
458.80000304963539
 20
199.7500061622026
 30
0.0
 11
458.80000304963539
 21
197.8500046363246
 31
0.0
  0
LINE
  5
10AFF
  8
PH
 10
518.99999999787769
 20
194.2500061622026
 30
0.0
 11
518.99999999787769
 21
188.2500061622026
 31
0.0
  0
LINE
  5
10B00
  8
PH
 10
514.49999999787769
 20
176.2500061622026
 30
0.0
 11
490.49999999787769
 21
176.2500061622026
 31
0.0
  0
LINE
  5
10B01
  8
PH
 10
490.49999999787769
 20
182.2500061622026
 30
0.0
 11
490.49999999787769
 21
176.2500061622026
 31
0.0
  0
LINE
  5
10B02
  8
PH
 10
488.74999999787769
 20
182.2500061622026
 30
0.0
 11
490.49999999787769
 21
182.2500061622026
 31
0.0
  0
LINE
  5
10B03
  8
PH
 10
488.74999999787769
 20
182.2500061622026
 30
0.0
 11
488.74999999787769
 21
188.2500061622026
 31
0.0
  0
LINE
  5
10B04
  8
PH
 10
514.49999999787769
 20
182.2500061622026
 30
0.0
 11
514.49999999787769
 21
176.2500061622026
 31
0.0
  0
LINE
  5
10B05
  8
PH
 10
516.99999999787758
 20
192.2500061622026
 30
0.0
 11
516.99999999787758
 21
188.2500061622026
 31
0.0
  0
LINE
  5
10B06
  8
PH
 10
516.24999999787758
 20
188.2500061622026
 30
0.0
 11
516.24999999787758
 21
182.2500061622026
 31
0.0
  0
LINE
  5
10B07
  8
PH
 10
516.24999999787758
 20
182.2500061622026
 30
0.0
 11
514.49999999787769
 21
182.2500061622026
 31
0.0
  0
LINE
  5
10B08
  8
PH
 10
518.99999999787769
 20
188.2500061622026
 30
0.0
 11
516.24999999787758
 21
188.2500061622026
 31
0.0
  0
LINE
  5
10B09
  8
KI2
 10
456.49999999787769
 20
244.7500061622026
 30
0.0
 11
458.80000304963539
 21
244.7500061622026
 31
0.0
  0
LINE
  5
10B0A
  8
TS
 10
462.49999999787758
 20
242.7500061622026
 30
0.0
 11
462.49999999787758
 21
211.7500061622026
 31
0.0
  0
LINE
  5
10B0B
  8
TS
 10
460.49999999787769
 20
211.7500061622026
 30
0.0
 11
460.49999999787769
 21
244.7500061622026
 31
0.0
  0
LINE
  5
10B0C
  8
TS
 10
466.49999999787769
 20
214.5000061622026
 30
0.0
 11
466.49999999787769
 21
211.7500061622026
 31
0.0
  0
LINE
  5
10B0D
  8
TS
 10
466.49999999787769
 20
211.7500061622026
 30
0.0
 11
460.49999999787769
 21
211.7500061622026
 31
0.0
  0
LINE
  5
10B0E
  8
KI2
 10
465.02445792939619
 20
198.69875570443961
 30
0.0
 11
465.60116195466469
 21
211.7500061622026
 31
0.0
  0
ARC
  5
10B0F
  8
KI2
 10
462.21971130158857
 20
198.65302892831659
 30
0.0
 40
0.5
 50
278.66306610807561
 51
357.46988437433021
  0
LINE
  5
10B10
  8
KI2
 10
463.29891443040322
 20
211.7500061622026
 30
0.0
 11
462.71921491410689
 21
198.63096090463461
 31
0.0
  0
LINE
  5
10B11
  8
KI2
 10
463.07950877931069
 20
206.78468557504459
 30
0.0
 11
465.37726974275068
 21
206.6831535926226
 31
0.0
  0
LINE
  5
10B12
  8
TS
 10
460.49999999787769
 20
244.7500061622026
 30
0.0
 11
466.49999999787769
 21
244.7500061622026
 31
0.0
  0
LINE
  5
10B13
  8
TS
 10
478.49999999787769
 20
240.2500061622026
 30
0.0
 11
478.49999999787769
 21
216.2500061622026
 31
0.0
  0
LINE
  5
10B14
  8
TS
 10
472.49999999787758
 20
216.2500061622026
 30
0.0
 11
478.49999999787769
 21
216.2500061622026
 31
0.0
  0
LINE
  5
10B15
  8
TS
 10
472.49999999787758
 20
214.5000061622026
 30
0.0
 11
472.49999999787758
 21
216.2500061622026
 31
0.0
  0
LINE
  5
10B16
  8
TS
 10
472.49999999787758
 20
214.5000061622026
 30
0.0
 11
466.49999999787769
 21
214.5000061622026
 31
0.0
  0
LINE
  5
10B17
  8
TS
 10
472.49999999787758
 20
240.2500061622026
 30
0.0
 11
478.49999999787769
 21
240.2500061622026
 31
0.0
  0
LINE
  5
10B18
  8
TS
 10
462.49999999787758
 20
242.7500061622026
 30
0.0
 11
466.49999999787769
 21
242.7500061622026
 31
0.0
  0
LINE
  5
10B19
  8
TS
 10
466.49999999787769
 20
242.0000061622026
 30
0.0
 11
472.49999999787758
 21
242.0000061622026
 31
0.0
  0
LINE
  5
10B1A
  8
TS
 10
472.49999999787758
 20
242.0000061622026
 30
0.0
 11
472.49999999787758
 21
240.2500061622026
 31
0.0
  0
LINE
  5
10B1B
  8
TS
 10
466.49999999787769
 20
244.7500061622026
 30
0.0
 11
466.49999999787769
 21
242.0000061622026
 31
0.0
  0
LINE
  5
10B1C
  8
PH
 10
518.99999999787769
 20
194.2500061622026
 30
0.0
 11
518.99999999787769
 21
164.2500061622026
 31
0.0
  0
LINE
  5
10B1D
  8
PH
 10
485.99999999787769
 20
164.2500061622026
 30
0.0
 11
485.99999999787769
 21
194.2500061622026
 31
0.0
  0
LINE
  5
10B1E
  8
SU
 10
645.99999999999784
 20
144.25000000001609
 30
0.0
 11
732.49999999999989
 21
144.25000000001609
 31
0.0
  0
LINE
  5
10B21
  8
SU
 10
518.99999999787769
 20
163.2500061622026
 30
0.0
 11
518.99999999787769
 21
141.25000000001609
 31
0.0
  0
LINE
  5
10B22
  8
SU
 10
645.99999999999784
 20
163.25000000001609
 30
0.0
 11
645.99999999999784
 21
141.25000000001609
 31
0.0
  0
LINE
  5
10B23
  8
SU
 10
518.99999999787769
 20
144.25000000001609
 30
0.0
 11
645.99999999999784
 21
144.25000000001609
 31
0.0
  0
LINE
  5
10B27
  8
SU
 10
708.49999999999784
 20
114.2500000000161
 30
0.0
 11
732.49999999999989
 21
114.2500000000161
 31
0.0
  0
LINE
  5
10B2A
  8
SU
 10
708.49999999999784
 20
189.25000000001609
 30
0.0
 11
708.49999999999784
 21
111.2500000000159
 31
0.0
  0
LINE
  5
10B2B
  8
SU
 10
704.49999999999784
 20
114.2500000000159
 30
0.0
 11
708.49999999999784
 21
114.2500000000159
 31
0.0
  0
LINE
  5
10B2C
  8
SU
 10
706.49999999999784
 20
114.2500000000159
 30
0.0
 11
699.13974596215337
 21
129.2500000000162
 31
0.0
  0
LINE
  5
10B2D
  8
SU
 10
699.13974596215337
 20
129.2500000000162
 30
0.0
 11
692.38974596215337
 21
129.2500000000162
 31
0.0
  0
LINE
  5
10B30
  8
SU
 10
565.4999999978761
 20
210.7500061622026
 30
0.0
 11
565.4999999978761
 21
111.2500000000161
 31
0.0
  0
LINE
  5
10B31
  8
SU
 10
704.49999999999784
 20
210.7500000000241
 30
0.0
 11
704.49999999999784
 21
111.2500000000161
 31
0.0
  0
LINE
  5
10B32
  8
SU
 10
565.4999999978761
 20
114.2500000000161
 30
0.0
 11
704.49999999999784
 21
114.2500000000161
 31
0.0
  0
LINE
  5
10B36
  8
SU
 10
460.49999999999989
 20
210.7500000000241
 30
0.0
 11
460.49999999999989
 21
111.2500000000162
 31
0.0
  0
LINE
  5
10B37
  8
SU
 10
456.49999999787769
 20
114.2500000000162
 30
0.0
 11
460.49999999999989
 21
114.2500000000162
 31
0.0
  0
LINE
  5
10B38
  8
SU
 10
458.49999999893879
 20
114.2500000000162
 30
0.0
 11
465.86025403784407
 21
129.2500000000162
 31
0.0
  0
LINE
  5
10B39
  8
SU
 10
465.86025403784407
 20
129.2500000000162
 30
0.0
 11
472.61025403784407
 21
129.2500000000162
 31
0.0
  0
LINE
  5
10B3C
  8
SU
 10
456.49999999787769
 20
189.2500061622026
 30
0.0
 11
456.49999999787769
 21
111.2500000000161
 31
0.0
  0
LINE
  5
10B3D
  8
SU
 10
456.49999999787769
 20
114.2500000000161
 30
0.0
 11
432.49999999999989
 21
114.2500000000161
 31
0.0
  0
LINE
  5
10B41
  8
SU
 10
442.49999999999989
 20
105.2499962000162
 30
0.0
 11
442.49999999999989
 21
93.250000000016172
 31
0.0
  0
LINE
  5
10B42
  8
SU
 10
442.30000019999989
 20
105.1299963000162
 30
0.0
 11
442.30000019999989
 21
93.369999900016197
 31
0.0
  0
LINE
  5
10B43
  8
SU
 10
442.10000039999989
 20
105.00999640001611
 30
0.0
 11
442.10000039999989
 21
93.489999800016136
 31
0.0
  0
LINE
  5
10B44
  8
SU
 10
441.90000059999988
 20
104.8899965000162
 30
0.0
 11
441.90000059999988
 21
93.609999700016175
 31
0.0
  0
LINE
  5
10B45
  8
SU
 10
441.70000079999988
 20
104.7699966000162
 30
0.0
 11
441.70000079999988
 21
93.729999500016135
 31
0.0
  0
LINE
  5
10B46
  8
SU
 10
441.50000099999988
 20
104.6499968000162
 30
0.0
 11
441.50000099999988
 21
93.849999400016173
 31
0.0
  0
LINE
  5
10B47
  8
SU
 10
441.30000109999992
 20
104.5299969000162
 30
0.0
 11
441.30000109999992
 21
93.969999300016212
 31
0.0
  0
LINE
  5
10B48
  8
SU
 10
441.1000012999998
 20
104.40999790001609
 30
0.0
 11
441.1000012999998
 21
94.089999200016138
 31
0.0
  0
LINE
  5
10B49
  8
SU
 10
440.90000149999992
 20
104.28999810001621
 30
0.0
 11
440.90000149999992
 21
94.209999100016176
 31
0.0
  0
LINE
  5
10B4A
  8
SU
 10
440.70000169999992
 20
104.1699982000162
 30
0.0
 11
440.70000169999992
 21
94.329999000016215
 31
0.0
  0
LINE
  5
10B4B
  8
SU
 10
440.50000189999992
 20
104.0499983000161
 30
0.0
 11
440.50000189999992
 21
94.449998900016141
 31
0.0
  0
LINE
  5
10B4C
  8
SU
 10
440.30000209999992
 20
103.9299984000162
 30
0.0
 11
440.30000209999992
 21
94.569998700016214
 31
0.0
  0
LINE
  5
10B4D
  8
SU
 10
440.10000229999991
 20
103.80999850001611
 30
0.0
 11
440.10000229999991
 21
94.689998600016139
 31
0.0
  0
LINE
  5
10B4E
  8
SU
 10
439.90000249999991
 20
103.6899986000161
 30
0.0
 11
439.90000249999991
 21
94.809998500016178
 31
0.0
  0
LINE
  5
10B4F
  8
SU
 10
439.50000289999991
 20
103.4499989000161
 30
0.0
 11
439.50000289999991
 21
95.049998300016128
 31
0.0
  0
LINE
  5
10B50
  8
SU
 10
439.7000026999998
 20
103.5699987000162
 30
0.0
 11
439.7000026999998
 21
94.929998400016217
 31
0.0
  0
LINE
  5
10B51
  8
SU
 10
438.30000399999989
 20
102.72999950001611
 30
0.0
 11
438.30000399999989
 21
95.769997600016168
 31
0.0
  0
LINE
  5
10B52
  8
SU
 10
438.10000419999989
 20
102.61000060001621
 30
0.0
 11
438.10000419999989
 21
95.889997500016221
 31
0.0
  0
LINE
  5
10B53
  8
SU
 10
437.90000439999989
 20
102.4900007000161
 30
0.0
 11
437.90000439999989
 21
96.009997400016147
 31
0.0
  0
LINE
  5
10B54
  8
SU
 10
437.70000459999989
 20
102.3700008000161
 30
0.0
 11
437.70000459999989
 21
96.129997300016186
 31
0.0
  0
LINE
  5
10B55
  8
SU
 10
437.50000479999989
 20
102.2500010000161
 30
0.0
 11
437.50000479999989
 21
96.249997100016145
 31
0.0
  0
LINE
  5
10B56
  8
SU
 10
437.30000499999989
 20
102.1300011000161
 30
0.0
 11
437.30000499999989
 21
96.369997000016184
 31
0.0
  0
LINE
  5
10B57
  8
SU
 10
437.10000509999998
 20
102.01000120001621
 30
0.0
 11
437.10000509999998
 21
96.489996900016223
 31
0.0
  0
LINE
  5
10B58
  8
SU
 10
436.90000529999992
 20
101.8900013000161
 30
0.0
 11
436.90000529999992
 21
96.609996800016162
 31
0.0
  0
LINE
  5
10B59
  8
SU
 10
436.70000549999997
 20
101.7700014000161
 30
0.0
 11
436.70000549999997
 21
96.729996700016187
 31
0.0
  0
LINE
  5
10B5A
  8
SU
 10
436.50000569999992
 20
101.6500015000162
 30
0.0
 11
436.50000569999992
 21
96.849996600016226
 31
0.0
  0
LINE
  5
10B5B
  8
SU
 10
436.30000589999992
 20
101.53000160001611
 30
0.0
 11
436.30000589999992
 21
96.969996500016151
 31
0.0
  0
LINE
  5
10B5C
  8
SU
 10
436.10000609999992
 20
101.41000270001609
 30
0.0
 11
436.10000609999992
 21
97.089996300016224
 31
0.0
  0
LINE
  5
10B5D
  8
SU
 10
435.90000629999992
 20
101.2900028000162
 30
0.0
 11
435.90000629999992
 21
97.20999620001615
 31
0.0
  0
LINE
  5
10B5E
  8
SU
 10
435.70000649999997
 20
101.1700029000161
 30
0.0
 11
435.70000649999997
 21
97.329996100016203
 31
0.0
  0
LINE
  5
10B5F
  8
SU
 10
435.50000669999991
 20
101.0500031000162
 30
0.0
 11
435.50000669999991
 21
97.449996000016228
 31
0.0
  0
LINE
  5
10B60
  8
SU
 10
435.30000690000003
 20
100.9300032000161
 30
0.0
 11
435.30000690000003
 21
97.569995900016153
 31
0.0
  0
LINE
  5
10B61
  8
SU
 10
435.10000709999991
 20
100.81000330001611
 30
0.0
 11
435.10000709999991
 21
97.689995800016192
 31
0.0
  0
LINE
  5
10B62
  8
SU
 10
434.90000719999989
 20
100.6900034000162
 30
0.0
 11
434.90000719999989
 21
97.809995700016117
 31
0.0
  0
LINE
  5
10B63
  8
SU
 10
434.50000759999989
 20
100.4500036000161
 30
0.0
 11
434.50000759999989
 21
98.049995400016115
 31
0.0
  0
LINE
  5
10B64
  8
SU
 10
434.70000739999989
 20
100.5700035000161
 30
0.0
 11
434.70000739999989
 21
97.92999550001619
 31
0.0
  0
LINE
  5
10B65
  8
SU
 10
434.30000779999989
 20
100.33000370001621
 30
0.0
 11
434.30000779999989
 21
98.169995300016154
 31
0.0
  0
LINE
  5
10B66
  8
SU
 10
434.10000799999989
 20
100.21000385001619
 30
0.0
 11
434.10000799999989
 21
98.289995190016185
 31
0.0
  0
LINE
  5
10B67
  8
SU
 10
433.90000819999989
 20
100.0900039700161
 30
0.0
 11
433.90000819999989
 21
98.40999508001623
 31
0.0
  0
LINE
  5
10B68
  8
SU
 10
433.70000839999989
 20
99.970005040016218
 30
0.0
 11
433.70000839999989
 21
98.529994960016126
 31
0.0
  0
LINE
  5
10B69
  8
SU
 10
433.50000859999989
 20
99.850005150016187
 30
0.0
 11
433.50000859999989
 21
98.649994850016157
 31
0.0
  0
LINE
  5
10B6A
  8
SU
 10
433.10000895999991
 20
99.610002520016138
 30
0.0
 11
433.10000895999991
 21
98.889994620016211
 31
0.0
  0
LINE
  5
10B6B
  8
SU
 10
433.30000876999992
 20
99.730005260016156
 30
0.0
 11
433.30000876999992
 21
98.769994740016188
 31
0.0
  0
LINE
  5
10B6C
  8
SU
 10
432.90000916000002
 20
99.490002630016221
 30
0.0
 11
432.90000916000002
 21
99.009994510016128
 31
0.0
  0
LINE
  5
10B6D
  8
SU
 10
432.49999581902642
 20
99.25000202250547
 30
0.0
 11
442.49999959999991
 21
93.250000100016138
 31
0.0
  0
LINE
  5
10B6E
  8
SU
 10
432.7000122099999
 20
99.370007510016222
 30
0.0
 11
432.7000122099999
 21
99.129992490016136
 31
0.0
  0
LINE
  5
10B6F
  8
SU
 10
432.49999981984911
 20
99.249999938208177
 30
0.0
 11
442.49999989999992
 21
105.2499957000161
 31
0.0
  0
LINE
  5
10B70
  8
SU
 10
438.50000379999989
 20
102.8500004000161
 30
0.0
 11
438.50000379999989
 21
95.649997700016144
 31
0.0
  0
LINE
  5
10B71
  8
SU
 10
438.70000359999989
 20
102.9700003000162
 30
0.0
 11
438.70000359999989
 21
95.529997800016218
 31
0.0
  0
LINE
  5
10B72
  8
SU
 10
438.90000339999989
 20
103.08999920001609
 30
0.0
 11
438.90000339999989
 21
95.409997900016194
 31
0.0
  0
LINE
  5
10B73
  8
SU
 10
439.10000319999989
 20
103.2099991000162
 30
0.0
 11
439.10000319999989
 21
95.289998100016206
 31
0.0
  0
LINE
  5
10B74
  8
SU
 10
439.3000030999998
 20
103.3299990000162
 30
0.0
 11
439.3000030999998
 21
95.169998200016181
 31
0.0
  0
LINE
  5
10B75
  8
SU
 10
722.49999999999977
 20
105.2499962000162
 30
0.0
 11
722.49999999999977
 21
93.250000000016172
 31
0.0
  0
LINE
  5
10B76
  8
SU
 10
722.69999979999989
 20
105.1299963000162
 30
0.0
 11
722.69999979999989
 21
93.369999900016197
 31
0.0
  0
LINE
  5
10B77
  8
SU
 10
722.89999959999977
 20
105.00999640001611
 30
0.0
 11
722.89999959999977
 21
93.489999800016136
 31
0.0
  0
LINE
  5
10B78
  8
SU
 10
723.09999939999989
 20
104.8899965000162
 30
0.0
 11
723.09999939999989
 21
93.609999700016175
 31
0.0
  0
LINE
  5
10B79
  8
SU
 10
723.29999919999977
 20
104.7699966000162
 30
0.0
 11
723.29999919999977
 21
93.729999500016135
 31
0.0
  0
LINE
  5
10B7A
  8
SU
 10
723.49999899999978
 20
104.6499968000162
 30
0.0
 11
723.49999899999978
 21
93.849999400016173
 31
0.0
  0
LINE
  5
10B7B
  8
SU
 10
723.69999889999985
 20
104.5299969000162
 30
0.0
 11
723.69999889999985
 21
93.969999300016212
 31
0.0
  0
LINE
  5
10B7C
  8
SU
 10
723.89999869999986
 20
104.40999790001609
 30
0.0
 11
723.89999869999986
 21
94.089999200016138
 31
0.0
  0
LINE
  5
10B7D
  8
SU
 10
724.09999849999986
 20
104.28999810001621
 30
0.0
 11
724.09999849999986
 21
94.209999100016176
 31
0.0
  0
LINE
  5
10B7E
  8
SU
 10
724.29999829999986
 20
104.1699982000162
 30
0.0
 11
724.29999829999986
 21
94.329999000016215
 31
0.0
  0
LINE
  5
10B7F
  8
SU
 10
724.49999809999974
 20
104.0499983000161
 30
0.0
 11
724.49999809999974
 21
94.449998900016141
 31
0.0
  0
LINE
  5
10B80
  8
SU
 10
724.69999789999986
 20
103.9299984000162
 30
0.0
 11
724.69999789999986
 21
94.569998700016214
 31
0.0
  0
LINE
  5
10B81
  8
SU
 10
724.89999769999974
 20
103.80999850001611
 30
0.0
 11
724.89999769999974
 21
94.689998600016139
 31
0.0
  0
LINE
  5
10B82
  8
SU
 10
725.09999749999986
 20
103.6899986000161
 30
0.0
 11
725.09999749999986
 21
94.809998500016178
 31
0.0
  0
LINE
  5
10B83
  8
SU
 10
725.49999709999975
 20
103.4499989000161
 30
0.0
 11
725.49999709999975
 21
95.049998300016128
 31
0.0
  0
LINE
  5
10B84
  8
SU
 10
725.29999729999975
 20
103.5699987000162
 30
0.0
 11
725.29999729999975
 21
94.929998400016217
 31
0.0
  0
LINE
  5
10B85
  8
SU
 10
726.69999599999983
 20
102.72999950001611
 30
0.0
 11
726.69999599999983
 21
95.769997600016168
 31
0.0
  0
LINE
  5
10B86
  8
SU
 10
726.89999579999994
 20
102.61000060001621
 30
0.0
 11
726.89999579999994
 21
95.889997500016221
 31
0.0
  0
LINE
  5
10B87
  8
SU
 10
727.09999559999983
 20
102.4900007000161
 30
0.0
 11
727.09999559999983
 21
96.009997400016147
 31
0.0
  0
LINE
  5
10B88
  8
SU
 10
727.29999539999994
 20
102.3700008000161
 30
0.0
 11
727.29999539999994
 21
96.129997300016186
 31
0.0
  0
LINE
  5
10B89
  8
SU
 10
727.49999519999983
 20
102.2500010000161
 30
0.0
 11
727.49999519999983
 21
96.249997100016145
 31
0.0
  0
LINE
  5
10B8A
  8
SU
 10
727.69999499999994
 20
102.1300011000161
 30
0.0
 11
727.69999499999994
 21
96.369997000016184
 31
0.0
  0
LINE
  5
10B8B
  8
SU
 10
727.89999489999991
 20
102.01000120001621
 30
0.0
 11
727.89999489999991
 21
96.489996900016223
 31
0.0
  0
LINE
  5
10B8C
  8
SU
 10
728.0999946999998
 20
101.8900013000161
 30
0.0
 11
728.0999946999998
 21
96.609996800016162
 31
0.0
  0
LINE
  5
10B8D
  8
SU
 10
728.29999449999991
 20
101.7700014000161
 30
0.0
 11
728.29999449999991
 21
96.729996700016187
 31
0.0
  0
LINE
  5
10B8E
  8
SU
 10
728.4999942999998
 20
101.6500015000162
 30
0.0
 11
728.4999942999998
 21
96.849996600016226
 31
0.0
  0
LINE
  5
10B8F
  8
SU
 10
728.69999409999991
 20
101.53000160001611
 30
0.0
 11
728.69999409999991
 21
96.969996500016151
 31
0.0
  0
LINE
  5
10B90
  8
SU
 10
728.89999389999991
 20
101.41000270001609
 30
0.0
 11
728.89999389999991
 21
97.089996300016224
 31
0.0
  0
LINE
  5
10B91
  8
SU
 10
729.09999369999991
 20
101.2900028000162
 30
0.0
 11
729.09999369999991
 21
97.20999620001615
 31
0.0
  0
LINE
  5
10B92
  8
SU
 10
729.29999349999991
 20
101.1700029000161
 30
0.0
 11
729.29999349999991
 21
97.329996100016203
 31
0.0
  0
LINE
  5
10B93
  8
SU
 10
729.49999329999991
 20
101.0500031000162
 30
0.0
 11
729.49999329999991
 21
97.449996000016228
 31
0.0
  0
LINE
  5
10B94
  8
SU
 10
729.69999309999992
 20
100.9300032000161
 30
0.0
 11
729.69999309999992
 21
97.569995900016153
 31
0.0
  0
LINE
  5
10B95
  8
SU
 10
729.8999928999998
 20
100.81000330001611
 30
0.0
 11
729.8999928999998
 21
97.689995800016192
 31
0.0
  0
LINE
  5
10B96
  8
SU
 10
730.09999279999977
 20
100.6900034000162
 30
0.0
 11
730.09999279999977
 21
97.809995700016117
 31
0.0
  0
LINE
  5
10B97
  8
SU
 10
730.49999239999977
 20
100.4500036000161
 30
0.0
 11
730.49999239999977
 21
98.049995400016115
 31
0.0
  0
LINE
  5
10B98
  8
SU
 10
730.29999259999988
 20
100.5700035000161
 30
0.0
 11
730.29999259999988
 21
97.92999550001619
 31
0.0
  0
LINE
  5
10B99
  8
SU
 10
730.69999219999988
 20
100.33000370001621
 30
0.0
 11
730.69999219999988
 21
98.169995300016154
 31
0.0
  0
LINE
  5
10B9A
  8
SU
 10
730.89999199999977
 20
100.21000385001619
 30
0.0
 11
730.89999199999977
 21
98.289995190016185
 31
0.0
  0
LINE
  5
10B9B
  8
SU
 10
731.09999179999988
 20
100.0900039700161
 30
0.0
 11
731.09999179999988
 21
98.40999508001623
 31
0.0
  0
LINE
  5
10B9C
  8
SU
 10
731.29999159999977
 20
99.970005040016218
 30
0.0
 11
731.29999159999977
 21
98.529994960016126
 31
0.0
  0
LINE
  5
10B9D
  8
SU
 10
731.49999139999977
 20
99.850005150016187
 30
0.0
 11
731.49999139999977
 21
98.649994850016157
 31
0.0
  0
LINE
  5
10B9E
  8
SU
 10
731.89999103999992
 20
99.610002520016138
 30
0.0
 11
731.89999103999992
 21
98.889994620016211
 31
0.0
  0
LINE
  5
10B9F
  8
SU
 10
731.69999122999991
 20
99.730005260016156
 30
0.0
 11
731.69999122999991
 21
98.769994740016188
 31
0.0
  0
LINE
  5
10BA0
  8
SU
 10
732.09999083999992
 20
99.490002630016221
 30
0.0
 11
732.09999083999992
 21
99.009994510016128
 31
0.0
  0
LINE
  5
10BA1
  8
SU
 10
732.50000418097341
 20
99.25000202250547
 30
0.0
 11
722.50000039999986
 21
93.250000100016138
 31
0.0
  0
LINE
  5
10BA2
  8
SU
 10
732.29998778999993
 20
99.370007510016222
 30
0.0
 11
732.29998778999993
 21
99.129992490016136
 31
0.0
  0
LINE
  5
10BA3
  8
SU
 10
732.50000018015055
 20
99.249999938208177
 30
0.0
 11
722.50000009999985
 21
105.2499957000161
 31
0.0
  0
LINE
  5
10BA4
  8
SU
 10
726.49999619999994
 20
102.8500004000161
 30
0.0
 11
726.49999619999994
 21
95.649997700016144
 31
0.0
  0
LINE
  5
10BA5
  8
SU
 10
726.29999639999983
 20
102.9700003000162
 30
0.0
 11
726.29999639999983
 21
95.529997800016218
 31
0.0
  0
LINE
  5
10BA6
  8
SU
 10
726.09999659999994
 20
103.08999920001609
 30
0.0
 11
726.09999659999994
 21
95.409997900016194
 31
0.0
  0
LINE
  5
10BA7
  8
SU
 10
725.89999679999983
 20
103.2099991000162
 30
0.0
 11
725.89999679999983
 21
95.289998100016206
 31
0.0
  0
LINE
  5
10BA8
  8
SU
 10
725.69999689999975
 20
103.3299990000162
 30
0.0
 11
725.69999689999975
 21
95.169998200016181
 31
0.0
  0
LINE
  5
10BA9
  8
SU
 10
432.49999999999989
 20
203.25
 30
0.0
 11
432.49999999999989
 21
96.250000000016186
 31
0.0
  0
LINE
  5
10BAA
  8
SU
 10
732.49999999999989
 20
203.24999999999861
 30
0.0
 11
732.49999999999989
 21
96.250000000016186
 31
0.0
  0
LINE
  5
10BAB
  8
SU
 10
432.49999999999989
 20
99.250000000016172
 30
0.0
 11
732.49999999999989
 21
99.250000000016172
 31
0.0
  0
LINE
  5
10BAD
  8
SU
 10
508.49999999787792
 20
211.7500000000241
 30
0.0
 11
508.49999999787792
 21
204.25
 31
0.0
  0
LINE
  5
10BAE
  8
SU
 10
508.49999999787792
 20
208.00000000001199
 30
0.0
 11
493.49999999787769
 21
215.36025403785649
 31
0.0
  0
LINE
  5
10BAF
  8
SU
 10
493.49999999787769
 20
215.36025403785649
 30
0.0
 11
493.49999999787769
 21
230.13358737118989
 31
0.0
  0
LINE
  5
10BB2
  8
SU
 10
461.49999999999989
 20
211.7500000000241
 30
0.0
 11
511.49999999787769
 21
211.7500000000241
 31
0.0
  0
LINE
  5
10BB3
  8
SU
 10
508.49999999787758
 20
244.75000000000799
 30
0.0
 11
508.49999999787758
 21
211.7500000000241
 31
0.0
  0
LINE
  5
10BB6
  8
SU
 10
461.49999999999989
 20
244.75000000000799
 30
0.0
 11
511.49999999787769
 21
244.75000000000799
 31
0.0
  0
LINE
  5
10BC5
  8
SU
 10
457.49999999999989
 20
356.25
 30
0.0
 11
526.49999999787781
 21
356.25
 31
0.0
  0
LINE
  5
10BC6
  8
SU
 10
457.49999999999989
 20
204.25
 30
0.0
 11
526.49999999787758
 21
204.25
 31
0.0
  0
LINE
  5
10BC7
  8
SU
 10
523.49999999787781
 20
356.25
 30
0.0
 11
523.49999999787769
 21
204.25
 31
0.0
  0
LINE
  5
10BD0
  8
SU
 10
732.5
 20
357.24999999999858
 30
0.0
 11
732.5
 21
379.25
 31
0.0
  0
LINE
  5
10BD1
  8
SU
 10
708.49999999999989
 20
357.25
 30
0.0
 11
708.49999999999989
 21
379.25
 31
0.0
  0
LINE
  5
10BD2
  8
SU
 10
732.5
 20
376.25
 30
0.0
 11
708.49999999999989
 21
376.25
 31
0.0
  0
LINE
  5
10BDB
  8
SU
 10
432.49999999999989
 20
357.25000000000131
 30
0.0
 11
432.49999999999989
 21
379.25
 31
0.0
  0
LINE
  5
10BDC
  8
SU
 10
456.49999999999977
 20
357.25
 30
0.0
 11
456.49999999999977
 21
379.25
 31
0.0
  0
LINE
  5
10BDD
  8
SU
 10
432.49999999999989
 20
376.25
 30
0.0
 11
456.49999999999977
 21
376.25
 31
0.0
  0
LINE
  5
10BE1
  8
SU
 10
337.5
 20
227.74999999999861
 30
0.0
 11
337.5
 21
215.24999999999861
 31
0.0
  0
LINE
  5
10BE2
  8
SU
 10
337.5
 20
181.77946122703159
 30
0.0
 11
337.5
 21
215.24999999999861
 31
0.0
  0
LINE
  5
10BE5
  8
SU
 10
356.49999999999989
 20
227.74999999999861
 30
0.0
 11
334.49999999999989
 21
227.74999999999861
 31
0.0
  0
LINE
  5
10BE6
  8
SU
 10
337.49999999999989
 20
332.74999999999858
 30
0.0
 11
337.49999999999989
 21
227.74999999999861
 31
0.0
  0
LINE
  5
10BE9
  8
SU
 10
356.49999999999989
 20
332.74999999999858
 30
0.0
 11
334.49999999999989
 21
332.74999999999858
 31
0.0
  0
LINE
  5
10BEA
  8
SU
 10
337.5
 20
332.74999999999858
 30
0.0
 11
337.5
 21
345.24999999999858
 31
0.0
  0
LINE
  5
10BEB
  8
SU
 10
337.5
 20
377.62734008170543
 30
0.0
 11
337.5
 21
345.24999999999858
 31
0.0
  0
LINE
  5
10BEF
  8
SU
 10
431.49999999999989
 20
204.25
 30
0.0
 11
319.49999999999989
 21
204.25
 31
0.0
  0
LINE
  5
10BF0
  8
SU
 10
322.49999999999989
 20
215.24999999999861
 30
0.0
 11
322.49999999999989
 21
204.25
 31
0.0
  0
LINE
  5
10BF3
  8
SU
 10
356.49999999999989
 20
215.24999999999861
 30
0.0
 11
319.49999999999989
 21
215.24999999999861
 31
0.0
  0
LINE
  5
10BF4
  8
SU
 10
322.49999999999989
 20
345.24999999999858
 30
0.0
 11
322.49999999999989
 21
215.24999999999861
 31
0.0
  0
LINE
  5
10BF7
  8
SU
 10
356.49999999999989
 20
345.24999999999858
 30
0.0
 11
319.5
 21
345.24999999999858
 31
0.0
  0
LINE
  5
10BF8
  8
SU
 10
431.49999999999977
 20
356.25
 30
0.0
 11
319.5
 21
356.25
 31
0.0
  0
LINE
  5
10BF9
  8
SU
 10
322.5
 20
345.24999999999858
 30
0.0
 11
322.5
 21
356.25
 31
0.0
  0
LINE
  5
10BFD
  8
KI1
 10
456.49999999999989
 20
264.75004891630499
 30
0.0
 11
456.49999999999977
 21
353.75
 31
0.0
  0
LINE
  5
10C00
  8
KI1
 10
456.49999999999977
 20
206.75
 30
0.0
 11
456.49999999999977
 21
248.7500509163047
 31
0.0
  0
LINE
  5
10C02
  8
KI1
 10
453.99999999999989
 20
356.25
 30
0.0
 11
432.49999999999989
 21
356.25
 31
0.0
  0
LINE
  5
10C03
  8
KI1
 10
453.99999999999989
 20
356.25
 30
0.0
 11
456.49999999999977
 21
353.75
 31
0.0
1001
GENIUS_GENFIL_13
1070
     0
1040
2.5
1040
2.5
1040
20.0
1040
0.0
1002
{
1002
}
1001
GENIUS_GENOBJ-N-CHA_13
1002
{
1000
OWNER
1000
GEN
1002
}
1001
GENIUS_GENODEF_13
1002
{
1000
HIER
1070
     0
1002
}
1002
{
1000
MANEDIT
1070
     0
1002
}
1002
{
1000
NOSEL
1070
     0
1002
}
1002
{
1000
BEHIND
1070
     0
1002
}
1002
{
1000
OTHER
1070
     0
1002
}
1002
{
1000
REACTOR
1002
}
  0
LINE
  5
10C04
  8
KI1
 10
432.49999999999989
 20
356.25000000000142
 30
0.0
 11
432.49999999999989
 21
204.25
 31
0.0
  0
LINE
  5
10C05
  8
KI1
 10
432.49999999999989
 20
204.25
 30
0.0
 11
453.99999999999989
 21
204.25
 31
0.0
  0
LINE
  5
10C06
  8
KI1
 10
453.99999999999989
 20
204.25
 30
0.0
 11
456.49999999999977
 21
206.75
 31
0.0
1001
GENIUS_GENFIL_13
1070
     0
1040
2.5
1040
2.5
1040
20.0
1040
0.0
1002
{
1002
}
1001
GENIUS_GENOBJ-N-CHA_13
1002
{
1000
OWNER
1000
GEN
1002
}
1001
GENIUS_GENODEF_13
1002
{
1000
HIER
1070
     0
1002
}
1002
{
1000
MANEDIT
1070
     0
1002
}
1002
{
1000
NOSEL
1070
     0
1002
}
1002
{
1000
BEHIND
1070
     0
1002
}
1002
{
1000
OTHER
1070
     0
1002
}
1002
{
1000
REACTOR
1002
}
  0
LINE
  5
10C08
  8
KI1
 10
708.49999999999989
 20
264.75004891630499
 30
0.0
 11
708.49999999999989
 21
353.74999999999858
 31
0.0
  0
LINE
  5
10C0B
  8
KI1
 10
708.49999999999989
 20
206.74999999999869
 30
0.0
 11
708.49999999999989
 21
248.7500509163047
 31
0.0
  0
LINE
  5
10C0D
  8
KI1
 10
711.0
 20
356.24999999999858
 30
0.0
 11
732.5
 21
356.24999999999858
 31
0.0
  0
LINE
  5
10C0E
  8
KI1
 10
711.0
 20
356.24999999999858
 30
0.0
 11
708.49999999999989
 21
353.74999999999858
 31
0.0
1001
GENIUS_GENFIL_13
1070
     0
1040
2.5
1040
2.5
1040
20.0
1040
0.0
1002
{
1002
}
1001
GENIUS_GENOBJ-N-CHA_13
1002
{
1000
OWNER
1000
GEN
1002
}
1001
GENIUS_GENODEF_13
1002
{
1000
HIER
1070
     0
1002
}
1002
{
1000
MANEDIT
1070
     0
1002
}
1002
{
1000
NOSEL
1070
     0
1002
}
1002
{
1000
BEHIND
1070
     0
1002
}
1002
{
1000
OTHER
1070
     0
1002
}
1002
{
1000
REACTOR
1002
}
  0
LINE
  5
10C0F
  8
KI1
 10
732.5
 20
356.25
 30
0.0
 11
732.49999999999989
 21
204.24999999999861
 31
0.0
  0
LINE
  5
10C10
  8
KI1
 10
732.49999999999989
 20
204.24999999999861
 30
0.0
 11
710.99999999999989
 21
204.24999999999861
 31
0.0
  0
LINE
  5
10C11
  8
KI1
 10
710.99999999999989
 20
204.24999999999861
 30
0.0
 11
708.49999999999989
 21
206.74999999999869
 31
0.0
1001
GENIUS_GENFIL_13
1070
     0
1040
2.5
1040
2.5
1040
20.0
1040
0.0
1002
{
1002
}
1001
GENIUS_GENOBJ-N-CHA_13
1002
{
1000
OWNER
1000
GEN
1002
}
1001
GENIUS_GENODEF_13
1002
{
1000
HIER
1070
     0
1002
}
1002
{
1000
MANEDIT
1070
     0
1002
}
1002
{
1000
NOSEL
1070
     0
1002
}
1002
{
1000
BEHIND
1070
     0
1002
}
1002
{
1000
OTHER
1070
     0
1002
}
1002
{
1000
REACTOR
1002
}
  0
LINE
  5
10C13
  8
OS
 10
719.10808101421321
 20
204.24999999999861
 30
0.0
 11
708.49999999999989
 21
214.8580810142119
 31
0.0
1001
ACAD
1010
0.0
1020
0.0
1030
0.0
  0
LINE
  5
10C14
  8
OS
 10
729.00757595082473
 20
204.24999999999861
 30
0.0
 11
708.49999999999989
 21
224.75757595082359
 31
0.0
1001
ACAD
1010
0.0
1020
0.0
1030
0.0
  0
LINE
  5
10C15
  8
OS
 10
732.5
 20
210.65707088743511
 30
0.0
 11
708.49999999999989
 21
234.6570708874352
 31
0.0
1001
ACAD
1010
0.0
1020
0.0
1030
0.0
  0
LINE
  5
10C16
  8
OS
 10
732.5
 20
220.5565658240468
 30
0.0
 11
708.49999999999989
 21
244.55656582404691
 31
0.0
1001
ACAD
1010
0.0
1020
0.0
1030
0.0
  0
LINE
  5
10C17
  8
OS
 10
732.5
 20
230.4560607606584
 30
0.0
 11
714.20600984435384
 21
248.7500509163047
 31
0.0
1001
ACAD
1010
0.0
1020
0.0
1030
0.0
  0
LINE
  5
10C18
  8
OS
 10
732.5
 20
240.35555569727009
 30
0.0
 11
711.50550578096545
 21
261.35004991630473
 31
0.0
1001
ACAD
1010
0.0
1020
0.0
1030
0.0
  0
LINE
  5
10C19
  8
OS
 10
732.5
 20
250.25505063388169
 30
0.0
 11
708.49999999999977
 21
274.25505063388192
 31
0.0
1001
ACAD
1010
0.0
1020
0.0
1030
0.0
  0
LINE
  5
10C1B
  8
OS
 10
732.5
 20
260.15454557049338
 30
0.0
 11
708.49999999999989
 21
284.1545455704935
 31
0.0
1001
ACAD
1010
0.0
1020
0.0
1030
0.0
  0
LINE
  5
10C1C
  8
OS
 10
732.5
 20
270.05404050710513
 30
0.0
 11
708.49999999999989
 21
294.05404050710519
 31
0.0
1001
ACAD
1010
0.0
1020
0.0
1030
0.0
  0
LINE
  5
10C1D
  8
OS
 10
732.5
 20
279.95353544371682
 30
0.0
 11
708.49999999999989
 21
303.95353544371687
 31
0.0
1001
ACAD
1010
0.0
1020
0.0
1030
0.0
  0
LINE
  5
10C1E
  8
OS
 10
732.5
 20
289.85303038032839
 30
0.0
 11
708.49999999999989
 21
313.85303038032851
 31
0.0
1001
ACAD
1010
0.0
1020
0.0
1030
0.0
  0
LINE
  5
10C1F
  8
OS
 10
732.5
 20
299.75252531694008
 30
0.0
 11
708.49999999999989
 21
323.75252531694019
 31
0.0
1001
ACAD
1010
0.0
1020
0.0
1030
0.0
  0
LINE
  5
10C20
  8
OS
 10
732.5
 20
309.65202025355183
 30
0.0
 11
708.49999999999989
 21
333.65202025355188
 31
0.0
1001
ACAD
1010
0.0
1020
0.0
1030
0.0
  0
LINE
  5
10C21
  8
OS
 10
732.5
 20
319.5515151901634
 30
0.0
 11
708.49999999999989
 21
343.55151519016351
 31
0.0
1001
ACAD
1010
0.0
1020
0.0
1030
0.0
  0
LINE
  5
10C22
  8
OS
 10
732.5
 20
329.45101012677497
 30
0.0
 11
708.49999999999989
 21
353.4510101267752
 31
0.0
1001
ACAD
1010
0.0
1020
0.0
1030
0.0
  0
LINE
  5
10C23
  8
OS
 10
732.5
 20
339.35050506338678
 30
0.0
 11
715.60050506338803
 21
356.24999999999858
 31
0.0
1001
ACAD
1010
0.0
1020
0.0
1030
0.0
  0
LINE
  5
10C24
  8
OS
 10
732.5
 20
349.24999999999841
 30
0.0
 11
725.49999999999977
 21
356.24999999999858
 31
0.0
1001
ACAD
1010
0.0
1020
0.0
1030
0.0
  0
LINE
  5
10C25
  8
OS
 10
432.49999999999989
 20
349.24999999999989
 30
0.0
 11
439.5
 21
356.25
 31
0.0
1001
ACAD
1010
0.0
1020
0.0
1030
0.0
  0
LINE
  5
10C26
  8
OS
 10
432.49999999999989
 20
339.35050506338831
 30
0.0
 11
449.39949493661169
 21
356.25
 31
0.0
1001
ACAD
1010
0.0
1020
0.0
1030
0.0
  0
LINE
  5
10C27
  8
OS
 10
432.49999999999989
 20
329.45101012677651
 30
0.0
 11
456.49999999999989
 21
353.45101012677651
 31
0.0
1001
ACAD
1010
0.0
1020
0.0
1030
0.0
  0
LINE
  5
10C28
  8
OS
 10
432.49999999999989
 20
319.55151519016482
 30
0.0
 11
456.49999999999989
 21
343.55151519016488
 31
0.0
1001
ACAD
1010
0.0
1020
0.0
1030
0.0
  0
LINE
  5
10C29
  8
OS
 10
432.49999999999989
 20
309.65202025355319
 30
0.0
 11
456.49999999999977
 21
333.65202025355319
 31
0.0
1001
ACAD
1010
0.0
1020
0.0
1030
0.0
  0
LINE
  5
10C2A
  8
OS
 10
432.49999999999989
 20
299.75252531694161
 30
0.0
 11
456.49999999999989
 21
323.75252531694161
 31
0.0
1001
ACAD
1010
0.0
1020
0.0
1030
0.0
  0
LINE
  5
10C2B
  8
OS
 10
432.49999999999989
 20
289.85303038032993
 30
0.0
 11
456.49999999999989
 21
313.85303038032993
 31
0.0
1001
ACAD
1010
0.0
1020
0.0
1030
0.0
  0
LINE
  5
10C2C
  8
OS
 10
432.49999999999989
 20
279.95353544371818
 30
0.0
 11
456.49999999999977
 21
303.95353544371818
 31
0.0
1001
ACAD
1010
0.0
1020
0.0
1030
0.0
  0
LINE
  5
10C2D
  8
OS
 10
432.49999999999989
 20
270.05404050710661
 30
0.0
 11
456.49999999999977
 21
294.05404050710649
 31
0.0
1001
ACAD
1010
0.0
1020
0.0
1030
0.0
  0
LINE
  5
10C2E
  8
OS
 10
432.5
 20
260.15454557049492
 30
0.0
 11
456.49999999999989
 21
284.15454557049492
 31
0.0
1001
ACAD
1010
0.0
1020
0.0
1030
0.0
  0
LINE
  5
10C2F
  8
OS
 10
432.49999999999989
 20
250.2550506338832
 30
0.0
 11
456.5
 21
274.25505063388317
 31
0.0
1001
ACAD
1010
0.0
1020
0.0
1030
0.0
  0
LINE
  5
10C31
  8
OS
 10
432.49999999999989
 20
240.3555556972716
 30
0.0
 11
453.49449421903302
 21
261.35004991630473
 31
0.0
1001
ACAD
1010
0.0
1020
0.0
1030
0.0
  0
LINE
  5
10C32
  8
OS
 10
432.49999999999989
 20
230.45606076065999
 30
0.0
 11
450.79399015564462
 21
248.7500509163047
 31
0.0
1001
ACAD
1010
0.0
1020
0.0
1030
0.0
  0
LINE
  5
10C33
  8
OS
 10
432.49999999999989
 20
220.55656582404819
 30
0.0
 11
456.49999999999989
 21
244.55656582404819
 31
0.0
1001
ACAD
1010
0.0
1020
0.0
1030
0.0
  0
LINE
  5
10C34
  8
OS
 10
432.49999999999989
 20
210.65707088743659
 30
0.0
 11
456.49999999999977
 21
234.65707088743659
 31
0.0
1001
ACAD
1010
0.0
1020
0.0
1030
0.0
  0
LINE
  5
10C35
  8
OS
 10
435.99242404917487
 20
204.25
 30
0.0
 11
456.49999999999977
 21
224.7575759508249
 31
0.0
1001
ACAD
1010
0.0
1020
0.0
1030
0.0
  0
LINE
  5
10C36
  8
OS
 10
445.89191898578667
 20
204.25
 30
0.0
 11
456.49999999999989
 21
214.85808101421321
 31
0.0
1001
ACAD
1010
0.0
1020
0.0
1030
0.0
  0
TEXT
  5
10C37
  8
SU
 10
321.19999999999987
 20
345.63166666666609
 30
0.0
 40
7.0
  1
11
 50
90.0
 41
0.8299999999999999
  0
TEXT
  5
10C3A
  8
SU
 10
321.19999999999982
 20
271.53499999999872
 30
0.0
 40
7.0
  1
130
 50
90.0
 41
0.8299999999999999
  0
TEXT
  5
10C3C
  8
SU
 10
321.19999999999982
 20
204.63166666666609
 30
0.0
 40
7.0
  1
11
 50
90.0
 41
0.8299999999999999
  0
TEXT
  5
10C40
  8
SU
 10
336.19999999999987
 20
357.79067341503878
 30
0.0
 40
7.0
  1
12.5
 50
90.0
 41
0.8299999999999999
  0
TEXT
  5
10C41
  8
SU
 10
336.19999999999982
 20
271.53499999999872
 30
0.0
 40
7.0
  1
105
 50
90.0
 41
0.8299999999999999
  0
TEXT
  5
10C44
  8
SU
 10
336.19999999999987
 20
181.41946122703169
 30
0.0
 40
7.0
  1
12.5
 50
90.0
 41
0.8299999999999999
  0
TEXT
  5
10C45
  8
SU
 10
438.82833333333321
 20
377.55000000000001
 30
0.0
 40
7.0
  1
24
 41
0.8299999999999999
  0
TEXT
  5
10C4A
  8
SU
 10
714.82833333333315
 20
377.55000000000001
 30
0.0
 40
7.0
  1
24
 41
0.8299999999999999
  0
TEXT
  5
10C4F
  8
SU
 10
522.19999999787774
 20
271.53500000000003
 30
0.0
 40
7.0
  1
152
 50
90.0
 41
0.8299999999999999
  0
TEXT
  5
10C59
  8
SU
 10
507.19999999787763
 20
222.71666666668281
 30
0.0
 40
7.0
  1
33
 50
90.0
 41
0.8299999999999999
  0
TEXT
  5
10C5C
  8
SU
 10
492.19999999787763
 20
215.83025403785661
 30
0.0
 40
7.0
  1
7.5
 50
90.0
 41
0.8299999999999999
  0
TEXT
  5
10C5D
  8
SU
 10
579.17999999999995
 20
100.5500000000161
 30
0.0
 40
7.0
  1
W
 41
0.8299999999999999
  0
TEXT
  5
10C5E
  8
SU
 10
438.82833333227222
 20
115.5500000000161
 30
0.0
 40
7.0
  1
24
 41
0.8299999999999999
  0
TEXT
  5
10C62
  8
SU
 10
466.33025403784421
 20
130.5500000000161
 30
0.0
 40
7.0
  1
4
 41
0.8299999999999999
  0
TEXT
  5
10C63
  8
SU
 10
576.92766666560374
 20
115.5500000000161
 30
0.0
 40
7.0
  1
ドアW（DW）=W-（KDW+61）
 41
0.8299999999999999
  0
TEXT
  5
10C67
  8
SU
 10
692.8597459621534
 20
130.5500000000161
 30
0.0
 40
7.0
  1
4
 41
0.8299999999999999
  0
TEXT
  5
10C68
  8
SU
 10
714.82833333333213
 20
115.5500000000161
 30
0.0
 40
7.0
  1
24
 41
0.8299999999999999
  0
TEXT
  5
10C6A
  8
SU
 10
568.17733396822427
 20
145.5500000000161
 30
0.0
 40
7.0
  1
有効開口2=W-173
 41
0.8299999999999999
  0
TEXT
  5
10C6D
  8
SU
 10
679.56666666666536
 20
145.55000000001621
 30
0.0
 40
7.0
  1
86.5
 41
0.8299999999999999
  0
TEXT
  5
10C6F
  8
SU
 10
469.13833333121039
 20
115.5500000000161
 30
0.0
 40
7.0
  1
子ドアW（KDW）=405
 41
0.8299999999999999
  0
TEXT
  5
10C71
  8
SU
 10
570.83025403572037
 20
130.5500000000161
 30
0.0
 40
7.0
  1
5
 41
0.8299999999999999
  0
TEXT
  5
10C72
  8
SU
 10
466.0666666645443
 20
145.5500000000159
 30
0.0
 40
7.0
  1
86.5
 41
0.8299999999999999
  0
TEXT
  5
10C77
  8
SU
 10
592.31281960961826
 20
306.05000616218717
 30
0.0
 40
6.0
  1
有効開口1=W-（KDW+124.5）
 41
0.8299999999999999
  0
TEXT
  5
10C78
  8
SU
 10
553.40499999787653
 20
291.05000616218712
 30
0.0
 40
7.0
  1
25
 41
0.8299999999999999
  0
TEXT
  5
10C7A
  8
SU
 10
571.64559888382746
 20
276.05000616218717
 30
0.0
 40
7.0
  1
（10）
 41
0.8299999999999999
  0
ARC
  5
10C7D
  8
SU
 10
570.49999999787656
 20
274.75000616218722
 30
0.0
 40
0.6
 50
180.0
 51
0.0
  0
ARC
  5
10C7E
  8
SU
 10
570.49999999787656
 20
274.75000616218722
 30
0.0
 40
0.6
 50
0.0
 51
180.0
  0
ARC
  5
10C7F
  8
SU
 10
560.4999999978761
 20
274.75000616218722
 30
0.0
 40
0.6
 50
0.0
 51
180.0
  0
ARC
  5
10C80
  8
SU
 10
560.4999999978761
 20
274.75000616218722
 30
0.0
 40
0.6
 50
180.0
 51
0.0
  0
ARC
  5
10C81
  8
SU
 10
545.49999999787644
 20
289.75000616218711
 30
0.0
 40
0.6
 50
0.0
 51
180.0
  0
ARC
  5
10C82
  8
SU
 10
545.49999999787644
 20
289.75000616218711
 30
0.0
 40
0.6
 50
180.0
 51
0.0
  0
ARC
  5
10C83
  8
SU
 10
645.99999999786814
 20
289.75000616218722
 30
0.0
 40
0.6
 50
180.0
 51
0.0
  0
ARC
  5
10C84
  8
SU
 10
645.99999999786814
 20
289.75000616218722
 30
0.0
 40
0.6
 50
0.0
 51
180.0
  0
ARC
  5
10C85
  8
SU
 10
570.49999999787656
 20
289.75000616218722
 30
0.0
 40
0.6
 50
0.0
 51
180.0
  0
ARC
  5
10C86
  8
SU
 10
570.49999999787656
 20
289.75000616218722
 30
0.0
 40
0.6
 50
180.0
 51
0.0
  0
ARC
  5
10C87
  8
SU
 10
432.49999999787769
 20
144.25000000001589
 30
0.0
 40
0.6
 50
0.0
 51
180.0
  0
ARC
  5
10C88
  8
SU
 10
432.49999999787769
 20
144.25000000001589
 30
0.0
 40
0.6
 50
180.0
 51
0.0
  0
ARC
  5
10C89
  8
SU
 10
560.4999999978761
 20
114.2500000000161
 30
0.0
 40
0.6
 50
180.0
 51
0.0
  0
ARC
  5
10C8A
  8
SU
 10
560.4999999978761
 20
114.2500000000161
 30
0.0
 40
0.6
 50
0.0
 51
180.0
  0
ARC
  5
10C8B
  8
SU
 10
732.49999999999989
 20
144.25000000001609
 30
0.0
 40
0.6
 50
180.0
 51
0.0
  0
ARC
  5
10C8C
  8
SU
 10
732.49999999999989
 20
144.25000000001609
 30
0.0
 40
0.6
 50
0.0
 51
180.0
  0
ARC
  5
10C8D
  8
SU
 10
518.99999999787769
 20
144.25000000001609
 30
0.0
 40
0.6
 50
0.0
 51
180.0
  0
ARC
  5
10C8E
  8
SU
 10
518.99999999787769
 20
144.25000000001609
 30
0.0
 40
0.6
 50
180.0
 51
0.0
  0
ARC
  5
10C8F
  8
SU
 10
645.99999999999784
 20
144.25000000001609
 30
0.0
 40
0.6
 50
180.0
 51
0.0
  0
ARC
  5
10C90
  8
SU
 10
645.99999999999784
 20
144.25000000001609
 30
0.0
 40
0.6
 50
0.0
 51
180.0
  0
ARC
  5
10C91
  8
SU
 10
732.49999999999989
 20
114.2500000000161
 30
0.0
 40
0.6
 50
180.0
 51
0.0
  0
ARC
  5
10C92
  8
SU
 10
732.49999999999989
 20
114.2500000000161
 30
0.0
 40
0.6
 50
0.0
 51
180.0
  0
ARC
  5
10C93
  8
SU
 10
708.49999999999784
 20
114.2500000000159
 30
0.0
 40
0.6
 50
180.0
 51
0.0
  0
ARC
  5
10C94
  8
SU
 10
708.49999999999784
 20
114.2500000000159
 30
0.0
 40
0.6
 50
0.0
 51
180.0
  0
ARC
  5
10C95
  8
SU
 10
565.4999999978761
 20
114.2500000000161
 30
0.0
 40
0.6
 50
0.0
 51
180.0
  0
ARC
  5
10C96
  8
SU
 10
565.4999999978761
 20
114.2500000000161
 30
0.0
 40
0.6
 50
180.0
 51
0.0
  0
ARC
  5
10C97
  8
SU
 10
704.49999999999784
 20
114.2500000000161
 30
0.0
 40
0.6
 50
180.0
 51
0.0
  0
ARC
  5
10C98
  8
SU
 10
704.49999999999784
 20
114.2500000000161
 30
0.0
 40
0.6
 50
0.0
 51
180.0
  0
ARC
  5
10C99
  8
SU
 10
460.49999999999989
 20
114.2500000000162
 30
0.0
 40
0.6
 50
0.0
 51
180.0
  0
ARC
  5
10C9A
  8
SU
 10
460.49999999999989
 20
114.2500000000162
 30
0.0
 40
0.6
 50
180.0
 51
0.0
  0
ARC
  5
10C9B
  8
SU
 10
456.49999999787769
 20
114.2500000000161
 30
0.0
 40
0.6
 50
180.0
 51
0.0
  0
ARC
  5
10C9C
  8
SU
 10
456.49999999787769
 20
114.2500000000161
 30
0.0
 40
0.6
 50
0.0
 51
180.0
  0
ARC
  5
10C9D
  8
SU
 10
432.49999999999989
 20
114.2500000000161
 30
0.0
 40
0.6
 50
0.0
 51
180.0
  0
ARC
  5
10C9E
  8
SU
 10
432.49999999999989
 20
114.2500000000161
 30
0.0
 40
0.6
 50
180.0
 51
0.0
  0
ARC
  5
10C9F
  8
SU
 10
508.49999999787792
 20
204.25
 30
0.0
 40
0.6
 50
90.0
 51
270.0
  0
ARC
  5
10CA0
  8
SU
 10
508.49999999787792
 20
204.25
 30
0.0
 40
0.6
 50
270.0
 51
90.0
  0
ARC
  5
10CA1
  8
SU
 10
508.49999999787758
 20
211.7500000000241
 30
0.0
 40
0.6
 50
90.0
 51
270.0
  0
ARC
  5
10CA2
  8
SU
 10
508.49999999787758
 20
211.7500000000241
 30
0.0
 40
0.6
 50
270.0
 51
90.0
  0
ARC
  5
10CA3
  8
SU
 10
508.49999999787758
 20
244.75000000000799
 30
0.0
 40
0.6
 50
90.0
 51
270.0
  0
ARC
  5
10CA4
  8
SU
 10
508.49999999787758
 20
244.75000000000799
 30
0.0
 40
0.6
 50
270.0
 51
90.0
  0
ARC
  5
10CAB
  8
SU
 10
523.49999999787781
 20
356.25
 30
0.0
 40
0.6
 50
270.0
 51
90.0
  0
ARC
  5
10CAC
  8
SU
 10
523.49999999787781
 20
356.25
 30
0.0
 40
0.6
 50
90.0
 51
270.0
  0
ARC
  5
10CAD
  8
SU
 10
523.49999999787769
 20
204.25
 30
0.0
 40
0.6
 50
90.0
 51
270.0
  0
ARC
  5
10CAE
  8
SU
 10
523.49999999787769
 20
204.25
 30
0.0
 40
0.6
 50
270.0
 51
90.0
  0
ARC
  5
10CB1
  8
SU
 10
732.5
 20
376.25
 30
0.0
 40
0.6
 50
180.0
 51
0.0
  0
ARC
  5
10CB2
  8
SU
 10
732.5
 20
376.25
 30
0.0
 40
0.6
 50
0.0
 51
180.0
  0
ARC
  5
10CB3
  8
SU
 10
708.49999999999989
 20
376.25
 30
0.0
 40
0.6
 50
0.0
 51
180.0
  0
ARC
  5
10CB4
  8
SU
 10
708.49999999999989
 20
376.25
 30
0.0
 40
0.6
 50
180.0
 51
0.0
  0
ARC
  5
10CB7
  8
SU
 10
432.49999999999989
 20
376.25
 30
0.0
 40
0.6
 50
0.0
 51
180.0
  0
ARC
  5
10CB8
  8
SU
 10
432.49999999999989
 20
376.25
 30
0.0
 40
0.6
 50
180.0
 51
0.0
  0
ARC
  5
10CB9
  8
SU
 10
456.49999999999977
 20
376.25
 30
0.0
 40
0.6
 50
180.0
 51
0.0
  0
ARC
  5
10CBA
  8
SU
 10
456.49999999999977
 20
376.25
 30
0.0
 40
0.6
 50
0.0
 51
180.0
  0
ARC
  5
10CBB
  8
SU
 10
337.5
 20
215.24999999999861
 30
0.0
 40
0.6
 50
90.0
 51
270.0
  0
ARC
  5
10CBC
  8
SU
 10
337.5
 20
215.24999999999861
 30
0.0
 40
0.6
 50
270.0
 51
90.0
  0
ARC
  5
10CBD
  8
SU
 10
337.49999999999989
 20
227.74999999999861
 30
0.0
 40
0.6
 50
90.0
 51
270.0
  0
ARC
  5
10CBE
  8
SU
 10
337.49999999999989
 20
227.74999999999861
 30
0.0
 40
0.6
 50
270.0
 51
90.0
  0
ARC
  5
10CBF
  8
SU
 10
337.5
 20
332.74999999999858
 30
0.0
 40
0.6
 50
90.0
 51
270.0
  0
ARC
  5
10CC0
  8
SU
 10
337.5
 20
332.74999999999858
 30
0.0
 40
0.6
 50
270.0
 51
90.0
  0
ARC
  5
10CC1
  8
SU
 10
337.5
 20
345.24999999999858
 30
0.0
 40
0.6
 50
270.0
 51
90.0
  0
ARC
  5
10CC2
  8
SU
 10
337.5
 20
345.24999999999858
 30
0.0
 40
0.6
 50
90.0
 51
270.0
  0
ARC
  5
10CC3
  8
SU
 10
322.49999999999989
 20
204.25
 30
0.0
 40
0.6
 50
90.0
 51
270.0
  0
ARC
  5
10CC4
  8
SU
 10
322.49999999999989
 20
204.25
 30
0.0
 40
0.6
 50
270.0
 51
90.0
  0
ARC
  5
10CC5
  8
SU
 10
322.49999999999989
 20
215.24999999999861
 30
0.0
 40
0.6
 50
90.0
 51
270.0
  0
ARC
  5
10CC6
  8
SU
 10
322.49999999999989
 20
215.24999999999861
 30
0.0
 40
0.6
 50
270.0
 51
90.0
  0
ARC
  5
10CC7
  8
SU
 10
322.5
 20
345.24999999999858
 30
0.0
 40
0.6
 50
90.0
 51
270.0
  0
ARC
  5
10CC8
  8
SU
 10
322.5
 20
345.24999999999858
 30
0.0
 40
0.6
 50
270.0
 51
90.0
  0
ARC
  5
10CC9
  8
SU
 10
322.5
 20
356.25
 30
0.0
 40
0.6
 50
270.0
 51
90.0
  0
ARC
  5
10CCA
  8
SU
 10
322.5
 20
356.25
 30
0.0
 40
0.6
 50
90.0
 51
270.0
  0
LINE
  5
113A7
  8
SU
 10
289.4999962
 20
225.2499999999923
 30
0.0
 11
277.5
 21
225.2499999999923
 31
0.0
  0
LINE
  5
113A8
  8
SU
 10
289.37999630000002
 20
225.0500001999923
 30
0.0
 11
277.6199999000001
 21
225.0500001999923
 31
0.0
  0
LINE
  5
113A9
  8
SU
 10
289.25999639999998
 20
224.8500003999923
 30
0.0
 11
277.73999979999991
 21
224.8500003999923
 31
0.0
  0
LINE
  5
113AA
  8
SU
 10
289.13999650000011
 20
224.6500005999923
 30
0.0
 11
277.8599997
 21
224.6500005999923
 31
0.0
  0
LINE
  5
113AB
  8
SU
 10
289.01999660000001
 20
224.4500007999923
 30
0.0
 11
277.97999950000002
 21
224.4500007999923
 31
0.0
  0
LINE
  5
113AC
  8
SU
 10
288.89999680000011
 20
224.2500009999923
 30
0.0
 11
278.0999994
 21
224.2500009999923
 31
0.0
  0
LINE
  5
113AD
  8
SU
 10
288.77999690000001
 20
224.0500010999923
 30
0.0
 11
278.21999929999998
 21
224.0500010999923
 31
0.0
  0
LINE
  5
113AE
  8
SU
 10
288.65999790000001
 20
223.8500012999923
 30
0.0
 11
278.33999920000002
 21
223.8500012999923
 31
0.0
  0
LINE
  5
113AF
  8
SU
 10
288.53999809999999
 20
223.6500014999923
 30
0.0
 11
278.4599991
 21
223.6500014999923
 31
0.0
  0
LINE
  5
113B0
  8
SU
 10
288.41999820000001
 20
223.4500016999923
 30
0.0
 11
278.5799990000001
 21
223.4500016999923
 31
0.0
  0
LINE
  5
113B1
  8
SU
 10
288.29999830000003
 20
223.2500018999923
 30
0.0
 11
278.69999890000003
 21
223.2500018999923
 31
0.0
  0
LINE
  5
113B2
  8
SU
 10
288.17999839999999
 20
223.0500020999923
 30
0.0
 11
278.81999869999999
 21
223.0500020999923
 31
0.0
  0
LINE
  5
113B3
  8
SU
 10
288.05999850000001
 20
222.8500022999923
 30
0.0
 11
278.93999860000002
 21
222.8500022999923
 31
0.0
  0
LINE
  5
113B4
  8
SU
 10
287.93999860000002
 20
222.6500024999923
 30
0.0
 11
279.05999850000001
 21
222.6500024999923
 31
0.0
  0
LINE
  5
113B5
  8
SU
 10
287.69999890000003
 20
222.2500028999923
 30
0.0
 11
279.29999830000003
 21
222.2500028999923
 31
0.0
  0
LINE
  5
113B6
  8
SU
 10
287.81999869999999
 20
222.4500026999923
 30
0.0
 11
279.17999839999999
 21
222.4500026999923
 31
0.0
  0
LINE
  5
113B7
  8
SU
 10
286.97999950000002
 20
221.0500039999923
 30
0.0
 11
280.01999760000001
 21
221.0500039999923
 31
0.0
  0
LINE
  5
113B8
  8
SU
 10
286.86000059999998
 20
220.8500041999923
 30
0.0
 11
280.13999750000011
 21
220.8500041999923
 31
0.0
  0
LINE
  5
113B9
  8
SU
 10
286.7400007
 20
220.6500043999923
 30
0.0
 11
280.25999739999992
 21
220.6500043999923
 31
0.0
  0
LINE
  5
113BA
  8
SU
 10
286.6200007999999
 20
220.4500045999923
 30
0.0
 11
280.37999730000001
 21
220.4500045999923
 31
0.0
  0
LINE
  5
113BB
  8
SU
 10
286.500001
 20
220.2500047999923
 30
0.0
 11
280.49999709999997
 21
220.2500047999923
 31
0.0
  0
LINE
  5
113BC
  8
SU
 10
286.38000110000002
 20
220.0500049999923
 30
0.0
 11
280.61999700000001
 21
220.0500049999923
 31
0.0
  0
LINE
  5
113BD
  8
SU
 10
286.26000120000009
 20
219.8500050999923
 30
0.0
 11
280.73999689999999
 21
219.8500050999923
 31
0.0
  0
LINE
  5
113BE
  8
SU
 10
286.14000129999999
 20
219.6500052999923
 30
0.0
 11
280.85999679999998
 21
219.6500052999923
 31
0.0
  0
LINE
  5
113BF
  8
SU
 10
286.02000140000001
 20
219.4500054999923
 30
0.0
 11
280.97999670000002
 21
219.4500054999923
 31
0.0
  0
LINE
  5
113C0
  8
SU
 10
285.90000149999997
 20
219.2500056999923
 30
0.0
 11
281.09999660000011
 21
219.2500056999923
 31
0.0
  0
LINE
  5
113C1
  8
SU
 10
285.78000159999999
 20
219.0500058999923
 30
0.0
 11
281.21999649999998
 21
219.0500058999923
 31
0.0
  0
LINE
  5
113C2
  8
SU
 10
285.66000269999989
 20
218.8500060999923
 30
0.0
 11
281.33999630000011
 21
218.8500060999923
 31
0.0
  0
LINE
  5
113C3
  8
SU
 10
285.54000280000002
 20
218.6500062999923
 30
0.0
 11
281.45999619999998
 21
218.6500062999923
 31
0.0
  0
LINE
  5
113C4
  8
SU
 10
285.42000289999999
 20
218.4500064999923
 30
0.0
 11
281.57999610000002
 21
218.4500064999923
 31
0.0
  0
LINE
  5
113C5
  8
SU
 10
285.30000310000003
 20
218.2500066999923
 30
0.0
 11
281.699996
 21
218.2500066999923
 31
0.0
  0
LINE
  5
113C6
  8
SU
 10
285.18000319999999
 20
218.05000689999221
 30
0.0
 11
281.81999589999998
 21
218.05000689999221
 31
0.0
  0
LINE
  5
113C7
  8
SU
 10
285.06000330000001
 20
217.8500070999923
 30
0.0
 11
281.93999580000002
 21
217.8500070999923
 31
0.0
  0
LINE
  5
113C8
  8
SU
 10
284.94000340000002
 20
217.6500071999923
 30
0.0
 11
282.05999569999989
 21
217.6500071999923
 31
0.0
  0
LINE
  5
113C9
  8
SU
 10
284.70000359999989
 20
217.2500075999923
 30
0.0
 11
282.2999954
 21
217.2500075999923
 31
0.0
  0
LINE
  5
113CA
  8
SU
 10
284.82000349999998
 20
217.4500073999923
 30
0.0
 11
282.17999550000002
 21
217.4500073999923
 31
0.0
  0
LINE
  5
113CB
  8
SU
 10
284.58000370000002
 20
217.0500077999923
 30
0.0
 11
282.41999529999998
 21
217.0500077999923
 31
0.0
  0
LINE
  5
113CC
  8
SU
 10
284.46000385000002
 20
216.8500079999923
 30
0.0
 11
282.53999519000001
 21
216.8500079999923
 31
0.0
  0
LINE
  5
113CD
  8
SU
 10
284.34000397
 20
216.6500081999923
 30
0.0
 11
282.65999507999999
 21
216.6500081999923
 31
0.0
  0
LINE
  5
113CE
  8
SU
 10
284.2200050400001
 20
216.4500083999923
 30
0.0
 11
282.77999496000001
 21
216.4500083999923
 31
0.0
  0
LINE
  5
113CF
  8
SU
 10
284.10000515000002
 20
216.2500085999923
 30
0.0
 11
282.89999484999998
 21
216.2500085999923
 31
0.0
  0
LINE
  5
113D0
  8
SU
 10
283.86000252000002
 20
215.85000895999229
 30
0.0
 11
283.13999461999998
 21
215.85000895999229
 31
0.0
  0
LINE
  5
113D1
  8
SU
 10
283.98000525999998
 20
216.0500087699923
 30
0.0
 11
283.01999474000002
 21
216.0500087699923
 31
0.0
  0
LINE
  5
113D2
  8
SU
 10
283.74000262999999
 20
215.65000915999229
 30
0.0
 11
283.25999451000001
 21
215.65000915999229
 31
0.0
  0
LINE
  5
113D3
  8
SU
 10
283.5000020224893
 20
215.24999581901881
 30
0.0
 11
277.50000009999991
 21
225.24999959999229
 31
0.0
  0
LINE
  5
113D4
  8
SU
 10
283.62000751000011
 20
215.45001220999231
 30
0.0
 11
283.37999249000001
 21
215.45001220999231
 31
0.0
  0
LINE
  5
113D5
  8
SU
 10
283.49999993819199
 20
215.24999981984141
 30
0.0
 11
289.4999957
 21
225.2499998999923
 31
0.0
  0
LINE
  5
113D6
  8
SU
 10
287.1000004
 20
221.2500037999923
 30
0.0
 11
279.89999769999997
 21
221.2500037999923
 31
0.0
  0
LINE
  5
113D7
  8
SU
 10
287.22000030000009
 20
221.4500035999923
 30
0.0
 11
279.77999779999999
 21
221.4500035999923
 31
0.0
  0
LINE
  5
113D8
  8
SU
 10
287.33999919999991
 20
221.6500033999923
 30
0.0
 11
279.65999790000001
 21
221.6500033999923
 31
0.0
  0
LINE
  5
113D9
  8
SU
 10
287.4599991
 20
221.8500031999923
 30
0.0
 11
279.53999809999999
 21
221.8500031999923
 31
0.0
  0
LINE
  5
113DA
  8
SU
 10
287.57999899999999
 20
222.05000309999221
 30
0.0
 11
279.41999820000001
 21
222.05000309999221
 31
0.0
  0
LINE
  5
113DB
  8
KI1
 10
61.5
 20
445.24999999999221
 30
0.0
 11
213.5
 21
445.24999999999221
 31
0.0
  0
LINE
  5
113DC
  8
KI1
 10
213.5
 20
445.24999999999221
 30
0.0
 11
213.5
 21
319.24999999999233
 31
0.0
  0
LINE
  5
113DD
  8
KI1
 10
61.49999999999995
 20
319.24999999999233
 30
0.0
 11
61.5
 21
445.24999999999221
 31
0.0
  0
LINE
  5
113DE
  8
KI1
 10
172.9999999999998
 20
418.24999999999221
 30
0.0
 11
206.0
 21
418.24999999999221
 31
0.0
1001
GENIUS_GENREC_14
1002
{
1000
PYDIR
1011
172.9999999999998
1021
0.0
1031
0.0
1021
62.182052160362097
1031
0.0
1002
}
1002
{
1000
PXDIR
1011
210.5
1021
0.0
1031
0.0
1021
418.24999999999221
1031
0.0
1002
}
1002
{
1000
PORI
1011
172.9999999999998
1021
0.0
1031
0.0
1021
418.24999999999221
1031
0.0
1002
}
1002
{
1000
PINS
1011
172.9999999999998
1021
0.0
1031
0.0
1021
418.24999999999221
1031
0.0
1002
}
1002
{
1000
PINS2
1011
210.5
1021
0.0
1031
0.0
1021
62.182052160362097
1031
0.0
1002
}
1002
{
1000
C
1070
     1
1002
}
1001
GENIUS_GENOBJ-N-REC_13
1002
{
1000
OWNER
1000
GEN
1002
}
1001
GENIUS_GENODEF_13
1002
{
1000
HIER
1070
     0
1002
}
1002
{
1000
MANEDIT
1070
     0
1002
}
1002
{
1000
NOSEL
1070
     0
1002
}
1002
{
1000
BEHIND
1070
     0
1002
}
1002
{
1000
OTHER
1070
     0
1002
}
1002
{
1000
REACTOR
1002
}
  0
LINE
  5
113DF
  8
KI1
 10
206.0
 20
418.24999999999221
 30
0.0
 11
206.0
 21
319.24999999999233
 31
0.0
1001
GENIUS_GENREC_14
1002
{
1000
PYDIR
1011
172.9999999999998
1021
0.0
1031
0.0
1021
62.182052160362097
1031
0.0
1002
}
1002
{
1000
PXDIR
1011
210.5
1021
0.0
1031
0.0
1021
418.24999999999221
1031
0.0
1002
}
1002
{
1000
PORI
1011
172.9999999999998
1021
0.0
1031
0.0
1021
418.24999999999221
1031
0.0
1002
}
1002
{
1000
PINS
1011
172.9999999999998
1021
0.0
1031
0.0
1021
418.24999999999221
1031
0.0
1002
}
1002
{
1000
PINS2
1011
210.5
1021
0.0
1031
0.0
1021
62.182052160362097
1031
0.0
1002
}
1002
{
1000
C
1070
     1
1002
}
1001
GENIUS_GENOBJ-N-REC_13
1002
{
1000
OWNER
1000
GEN
1002
}
1001
GENIUS_GENODEF_13
1002
{
1000
HIER
1070
     0
1002
}
1002
{
1000
MANEDIT
1070
     0
1002
}
1002
{
1000
NOSEL
1070
     0
1002
}
1002
{
1000
BEHIND
1070
     0
1002
}
1002
{
1000
OTHER
1070
     0
1002
}
1002
{
1000
REACTOR
1002
}
  0
LINE
  5
113E0
  8
KI1
 10
172.9999999999998
 20
319.24999999999233
 30
0.0
 11
172.9999999999998
 21
418.24999999999221
 31
0.0
1001
GENIUS_GENREC_14
1002
{
1000
PYDIR
1011
172.9999999999998
1021
0.0
1031
0.0
1021
62.182052160362097
1031
0.0
1002
}
1002
{
1000
PXDIR
1011
210.5
1021
0.0
1031
0.0
1021
418.24999999999221
1031
0.0
1002
}
1002
{
1000
PORI
1011
172.9999999999998
1021
0.0
1031
0.0
1021
418.24999999999221
1031
0.0
1002
}
1002
{
1000
PINS
1011
172.9999999999998
1021
0.0
1031
0.0
1021
418.24999999999221
1031
0.0
1002
}
1002
{
1000
PINS2
1011
210.5
1021
0.0
1031
0.0
1021
62.182052160362097
1031
0.0
1002
}
1002
{
1000
C
1070
     1
1002
}
1001
GENIUS_GENOBJ-N-REC_13
1002
{
1000
OWNER
1000
GEN
1002
}
1001
GENIUS_GENODEF_13
1002
{
1000
HIER
1070
     0
1002
}
1002
{
1000
MANEDIT
1070
     0
1002
}
1002
{
1000
NOSEL
1070
     0
1002
}
1002
{
1000
BEHIND
1070
     0
1002
}
1002
{
1000
OTHER
1070
     0
1002
}
1002
{
1000
REACTOR
1002
}
  0
LINE
  5
113E1
  8
OS
 10
177.99999999999989
 20
206.2499999999923
 30
0.0
 11
41.5
 21
206.2499999999923
 31
0.0
  0
LINE
  5
113E2
  8
OS
 10
177.99999999999989
 20
209.24999999999221
 30
0.0
 11
41.5
 21
209.24999999999221
 31
0.0
  0
LINE
  5
113E3
  8
OS
 10
177.99999999999989
 20
212.24999999999221
 30
0.0
 11
41.5
 21
212.2499999999923
 31
0.0
  0
LINE
  5
113E4
  8
OS
 10
177.99999999999989
 20
215.2499999999923
 30
0.0
 11
41.5
 21
215.2499999999923
 31
0.0
  0
LINE
  5
113E5
  8
OS
 10
177.99999999999989
 20
203.2499999999923
 30
0.0
 11
41.5
 21
203.2499999999923
 31
0.0
  0
LINE
  5
113E6
  8
KI1
 10
61.500000000000107
 20
317.24999999999233
 30
0.0
 11
61.500000000000107
 21
215.2499999999923
 31
0.0
  0
LINE
  5
113E7
  8
KI1
 10
213.5
 20
317.24999999999233
 30
0.0
 11
213.5
 21
215.2499999999923
 31
0.0
  0
LINE
  5
113E8
  8
KI1
 10
177.99999999999989
 20
203.2499999999925
 30
0.0
 11
202.99999999999989
 21
203.2499999999925
 31
0.0
  0
LINE
  5
113E9
  8
KI1
 10
177.99999999999989
 20
203.2499999999925
 30
0.0
 11
177.99999999999989
 21
215.24999999998431
 31
0.0
  0
LINE
  5
113EA
  8
KI1
 10
202.99999999999989
 20
203.2499999999925
 30
0.0
 11
202.99999999999989
 21
215.24999999998431
 31
0.0
  0
LINE
  5
113EB
  8
OS
 10
233.5
 20
215.2499999999923
 30
0.0
 11
202.99999999999989
 21
215.2499999999923
 31
0.0
  0
LINE
  5
113EC
  8
OS
 10
233.5
 20
212.2499999999923
 30
0.0
 11
202.99999999999989
 21
212.2499999999923
 31
0.0
  0
LINE
  5
113ED
  8
OS
 10
233.5
 20
209.24999999999221
 30
0.0
 11
202.99999999999989
 21
209.24999999999221
 31
0.0
  0
LINE
  5
113EE
  8
OS
 10
233.5
 20
203.2499999999923
 30
0.0
 11
202.99999999999989
 21
203.2499999999923
 31
0.0
  0
LINE
  5
113EF
  8
OS
 10
233.5
 20
206.2499999999923
 30
0.0
 11
202.99999999999989
 21
206.2499999999923
 31
0.0
  0
LINE
  5
113F0
  8
KI1
 10
195.9999999999998
 20
205.24999999999241
 30
0.0
 11
195.9999999999998
 21
213.34999847411339
 31
0.0
  0
LINE
  5
113F1
  8
KI1
 10
196.9999999999998
 20
213.74999999999241
 30
0.0
 11
196.9999999999998
 21
204.74999999999241
 31
0.0
  0
LINE
  5
113F2
  8
KI1
 10
184.9999999999998
 20
213.34999847411339
 30
0.0
 11
184.9999999999998
 21
205.24999999999241
 31
0.0
  0
LINE
  5
113F3
  8
KI1
 10
183.9999999999998
 20
204.74999999999241
 30
0.0
 11
183.9999999999998
 21
213.74999999999241
 31
0.0
  0
LINE
  5
113F4
  8
KI1
 10
195.9999999999998
 20
203.7499999999925
 30
0.0
 11
184.9999999999998
 21
203.7499999999925
 31
0.0
  0
LINE
  5
113F5
  8
KI1
 10
190.79999923706029
 20
204.74999999999241
 30
0.0
 11
195.4999999999998
 21
204.74999999999241
 31
0.0
  0
ARC
  5
113F6
  8
KI1
 10
184.9999999999998
 20
204.74999999999241
 30
0.0
 40
1.0
 50
179.99999134857859
 51
270.000000683243
  0
ARC
  5
113F7
  8
KI1
 10
185.4999999999998
 20
205.24999999999241
 30
0.0
 40
0.5
 50
179.99999134857859
 51
270.000000683243
  0
LINE
  5
113F8
  8
KI1
 10
190.50000113796469
 20
204.45000159739689
 30
0.0
 11
190.8000003695486
 21
204.7500008344575
 31
0.0
  0
LINE
  5
113F9
  8
KI1
 10
190.20000126957871
 20
204.75000143050389
 30
0.0
 11
190.50000113796469
 21
204.45000159739689
 31
0.0
  0
LINE
  5
113FA
  8
KI1
 10
185.4999999999998
 20
204.74999999999241
 30
0.0
 11
190.20000076293931
 21
204.74999999999241
 31
0.0
  0
ARC
  5
113FB
  8
KI1
 10
195.9999999999998
 20
204.74999999999241
 30
0.0
 40
1.0
 50
269.99999749551819
 51
0.0
  0
ARC
  5
113FC
  8
KI1
 10
195.4999999999998
 20
205.24999999999241
 30
0.0
 40
0.5
 50
269.99999749551819
 51
0.0
  0
ARC
  5
113FD
  8
KI1
 10
179.9999999999998
 20
214.72867965697449
 30
0.0
 40
0.2000000029802
 50
45.000001252234298
 51
180.00000500895689
  0
LINE
  5
113FE
  8
KI1
 10
181.4999980926512
 20
215.34999847411339
 30
0.0
 11
179.74644212636429
 21
217.10355348672601
 31
0.0
  0
ARC
  5
113FF
  8
KI1
 10
179.39288883191139
 20
216.74999999999241
 30
0.0
 40
0.5
 50
45.000015580204142
 51
90.0
1001
GENIUS_GENOBJ-N-FIL_13
1002
{
1000
OWNER
1000
GEN
1002
}
1001
GENIUS_GENODEF_13
1002
{
1000
HIER
1070
     0
1002
}
1002
{
1000
MANEDIT
1070
     0
1002
}
1002
{
1000
NOSEL
1070
     0
1002
}
1002
{
1000
BEHIND
1070
     0
1002
}
1002
{
1000
OTHER
1070
     0
1002
}
1002
{
1000
REACTOR
1002
}
  0
LINE
  5
11400
  8
KI1
 10
179.39288883191139
 20
217.24999999999241
 30
0.0
 11
174.00001300731881
 21
217.24999999999241
 31
0.0
  0
ARC
  5
11401
  8
KI1
 10
170.4999999999998
 20
215.6253791883494
 30
0.0
 40
0.5
 50
107.45439221042299
 51
180.0
1001
GENIUS_GENODEF_13
1002
{
1000
HIER
1070
     0
1002
}
1002
{
1000
MANEDIT
1070
     0
1002
}
1002
{
1000
NOSEL
1070
     0
1002
}
1002
{
1000
BEHIND
1070
     0
1002
}
1002
{
1000
OTHER
1070
     0
1002
}
1002
{
1000
REACTOR
1002
}
1001
GENIUS_GENOBJ-N-FIL_13
1002
{
1000
OWNER
1000
GEN
1002
}
  0
LINE
  5
11402
  8
KI1
 10
169.9999999999998
 20
215.6253791883494
 30
0.0
 11
169.9999999999998
 21
215.24999999999241
 31
0.0
  0
ARC
  5
11403
  8
KI1
 10
179.39999771118181
 20
212.95000076293201
 30
0.0
 40
0.4000000059605
 50
179.99999134857859
 51
0.0000100179073766
  0
ARC
  5
11404
  8
KI1
 10
178.70000076293979
 20
215.65000152587041
 30
0.0
 40
0.3000000119209
 50
0.0
 51
90.000002504475205
  0
LINE
  5
11405
  8
KI1
 10
172.00001907348681
 20
215.24999999999241
 30
0.0
 11
174.00002098083479
 21
215.95000076293141
 31
0.0
  0
LINE
  5
11406
  8
KI1
 10
174.00001907348681
 20
215.95000076293141
 30
0.0
 11
178.70000076293979
 21
215.95000076293141
 31
0.0
  0
LINE
  5
11407
  8
KI1
 10
178.9999999999998
 20
215.65000152587041
 30
0.0
 11
178.9999999999998
 21
212.95000076293201
 31
0.0
  0
LINE
  5
11408
  8
KI1
 10
172.00001907348681
 20
215.24999999999241
 30
0.0
 11
169.9999999999998
 21
215.24999999999241
 31
0.0
  0
LINE
  5
11409
  8
KI1
 10
170.35002673009311
 20
216.1023571944603
 30
0.0
 11
174.00001300731881
 21
217.24999999999241
 31
0.0
  0
LINE
  5
1140A
  8
KI1
 10
179.7999992370608
 20
212.95000076293201
 30
0.0
 11
179.7999992370608
 21
214.72867965697449
 31
0.0
  0
ARC
  5
1140B
  8
KI1
 10
184.9999999999998
 20
214.84999847411339
 30
0.0
 40
0.5
 50
0.0
 51
90.000002504475205
  0
ARC
  5
1140C
  8
KI1
 10
183.70000076293931
 20
213.74999999999241
 30
0.0
 40
0.3000000119209
 50
0.0
 51
90.000002504475205
  0
LINE
  5
1140D
  8
KI1
 10
183.70000076293931
 20
214.04999923705239
 30
0.0
 11
180.96152114868141
 21
214.04999923705239
 31
0.0
  0
LINE
  5
1140E
  8
KI1
 10
184.9999999999998
 20
215.34999847411339
 30
0.0
 11
181.4999999999998
 21
215.34999847411339
 31
0.0
  0
LINE
  5
1140F
  8
KI1
 10
184.9999999999998
 20
213.34999847411339
 30
0.0
 11
185.4999999999998
 21
213.34999847411339
 31
0.0
  0
LINE
  5
11410
  8
KI1
 10
185.4999999999998
 20
213.34999847411339
 30
0.0
 11
185.4999999999998
 21
214.84999847411339
 31
0.0
  0
LINE
  5
11411
  8
KI1
 10
180.1414232254028
 20
214.87010192870241
 30
0.0
 11
180.96152400970439
 21
214.05000114440139
 31
0.0
  0
LINE
  5
11412
  8
KI1
 10
206.9999680125587
 20
217.24999999999241
 30
0.0
 11
201.6071063997162
 21
217.24999999999241
 31
0.0
  0
LINE
  5
11413
  8
KI1
 10
202.3000030517569
 20
215.95000076293141
 30
0.0
 11
206.99997711181581
 21
215.95000076293141
 31
0.0
  0
ARC
  5
11414
  8
KI1
 10
201.6071063997162
 20
216.74999999999241
 30
0.0
 40
0.5
 50
90.0
 51
134.99998441981859
1001
GENIUS_GENODEF_13
1002
{
1000
HIER
1070
     0
1002
}
1002
{
1000
MANEDIT
1070
     0
1002
}
1002
{
1000
NOSEL
1070
     0
1002
}
1002
{
1000
BEHIND
1070
     0
1002
}
1002
{
1000
OTHER
1070
     0
1002
}
1002
{
1000
REACTOR
1002
}
1001
GENIUS_GENOBJ-N-FIL_13
1002
{
1000
OWNER
1000
GEN
1002
}
  0
ARC
  5
11415
  8
KI1
 10
201.59999847412081
 20
212.95000076293201
 30
0.0
 40
0.4000000059605
 50
179.99999134857859
 51
0.0000100179073766
  0
ARC
  5
11416
  8
KI1
 10
195.9999999999998
 20
214.84999847411339
 30
0.0
 40
0.5
 50
90.000002504475205
 51
180.00000500895689
  0
ARC
  5
11417
  8
KI1
 10
197.30000305175761
 20
213.74999999999241
 30
0.0
 40
0.3000000119209
 50
90.000002504475205
 51
180.00000500895689
  0
ARC
  5
11418
  8
KI1
 10
202.3000030517569
 20
215.65000152587041
 30
0.0
 40
0.3000000119209
 50
90.000002504475205
 51
180.00000500895689
  0
ARC
  5
11419
  8
KI1
 10
200.9999999999998
 20
214.72867965697449
 30
0.0
 40
0.2000000029802
 50
0.0
 51
135.0000003416219
  0
LINE
  5
1141A
  8
KI1
 10
200.03847503662089
 20
214.04999923705239
 30
0.0
 11
197.30000305175761
 21
214.04999923705239
 31
0.0
  0
LINE
  5
1141B
  8
KI1
 10
201.9999999999998
 20
212.95000076293201
 30
0.0
 11
201.9999999999998
 21
215.65000152587041
 31
0.0
  0
LINE
  5
1141C
  8
KI1
 10
201.25355310526319
 20
217.1035534867259
 30
0.0
 11
199.49999618530251
 21
215.34999752043839
 31
0.0
  0
LINE
  5
1141D
  8
KI1
 10
199.4999999999998
 20
215.34999847411339
 30
0.0
 11
195.9999999999998
 21
215.34999847411339
 31
0.0
  0
LINE
  5
1141E
  8
KI1
 10
195.4999999999998
 20
213.34999847411339
 30
0.0
 11
195.9999999999998
 21
213.34999847411339
 31
0.0
  0
LINE
  5
1141F
  8
KI1
 10
195.4999999999998
 20
214.84999847411339
 30
0.0
 11
195.4999999999998
 21
213.34999847411339
 31
0.0
  0
LINE
  5
11420
  8
KI1
 10
200.03847599029521
 20
214.04999923705239
 30
0.0
 11
200.8585767745968
 21
214.87010002135449
 31
0.0
  0
LINE
  5
11421
  8
KI1
 10
201.1999969482419
 20
214.72867965697449
 30
0.0
 11
201.1999969482419
 21
212.95000076293201
 31
0.0
  0
ARC
  5
11422
  8
KI1
 10
210.4999999999998
 20
215.62537347067581
 30
0.0
 40
0.5
 50
0.0
 51
72.545611362732629
1001
GENIUS_GENOBJ-N-FIL_13
1002
{
1000
OWNER
1000
GEN
1002
}
1001
GENIUS_GENODEF_13
1002
{
1000
HIER
1070
     0
1002
}
1002
{
1000
MANEDIT
1070
     0
1002
}
1002
{
1000
NOSEL
1070
     0
1002
}
1002
{
1000
BEHIND
1070
     0
1002
}
1002
{
1000
OTHER
1070
     0
1002
}
1002
{
1000
REACTOR
1002
}
  0
LINE
  5
11423
  8
KI1
 10
210.9999999999998
 20
215.62537347067581
 30
0.0
 11
210.9999999999998
 21
215.24999999999241
 31
0.0
  0
LINE
  5
11424
  8
KI1
 10
206.99997711181581
 20
215.94999885558249
 30
0.0
 11
208.99997711181581
 21
215.24999904631741
 31
0.0
  0
LINE
  5
11425
  8
KI1
 10
210.9999999999998
 20
215.24999999999241
 30
0.0
 11
208.99997711181581
 21
215.24999999999241
 31
0.0
  0
LINE
  5
11426
  8
KI1
 10
206.9999680125587
 20
217.24999999999241
 30
0.0
 11
210.64997324016059
 21
216.10235148613941
 31
0.0
  0
LINE
  5
11427
  8
KI1
 10
194.69999980926491
 20
215.34999847411331
 30
0.0
 11
186.30000019073469
 21
215.34999847411331
 31
0.0
  0
LINE
  5
11428
  8
KI1
 10
200.1000003814695
 20
216.64999847411329
 30
0.0
 11
180.8999996185301
 21
216.64999847411329
 31
0.0
  0
ARC
  5
11429
  8
KI1
 10
186.20737504959089
 20
210.34999848007379
 30
0.0
 40
0.4000000059605
 50
195.00000565373881
 51
15.000000417414331
  0
LINE
  5
1142A
  8
KI1
 10
181.69999999999979
 20
215.34999847411331
 30
0.0
 11
180.75730825457509
 21
216.3098590228953
 31
0.0
  0
ARC
  5
1142B
  8
KI1
 10
180.89999999999981
 20
216.4499984741133
 30
0.0
 40
0.2
 50
90.0
 51
224.4829717565718
  0
LINE
  5
1142C
  8
KI1
 10
185.4999999999998
 20
215.34999847411331
 30
0.0
 11
181.69999999999979
 21
215.34999847411331
 31
0.0
  0
ARC
  5
1142D
  8
KI1
 10
185.4999999999998
 20
212.6035883486193
 30
0.0
 40
0.3000000119209
 50
120.00000333930301
 51
195.00000201127381
  0
LINE
  5
1142E
  8
KI1
 10
186.29999971389751
 20
211.54979920982541
 30
0.0
 11
186.5937454700468
 21
210.45352602600281
 31
0.0
  0
LINE
  5
1142F
  8
KI1
 10
185.82100486755351
 20
210.24647093414481
 30
0.0
 11
185.2102222442625
 21
212.52594256996329
 31
0.0
  0
LINE
  5
11430
  8
KI1
 10
186.30000019073469
 20
211.54979920982541
 30
0.0
 11
186.30000019073469
 21
215.34999847411331
 31
0.0
  0
LINE
  5
11431
  8
KI1
 10
185.3500003814695
 20
212.8633959352893
 30
0.0
 11
185.4999999999998
 21
212.94999838470639
 31
0.0
  0
LINE
  5
11432
  8
KI1
 10
185.4999999999998
 20
215.34999847411331
 30
0.0
 11
185.4999999999998
 21
212.94999838470639
 31
0.0
  0
ARC
  5
11433
  8
KI1
 10
194.79262495040871
 20
210.34999848007379
 30
0.0
 40
0.4000000059605
 50
164.9999943462611
 51
345.00001301559303
  0
LINE
  5
11434
  8
KI1
 10
199.29999999999981
 20
215.34999847411331
 30
0.0
 11
200.24269174542451
 21
216.3098590228953
 31
0.0
  0
ARC
  5
11435
  8
KI1
 10
200.09999999999991
 20
216.4499984741133
 30
0.0
 40
0.2
 50
315.51702824342362
 51
90.0
  0
LINE
  5
11436
  8
KI1
 10
199.29999999999981
 20
215.34999847411331
 30
0.0
 11
195.4999999999998
 21
215.34999847411331
 31
0.0
  0
ARC
  5
11437
  8
KI1
 10
195.4999999999998
 20
212.6035883486193
 30
0.0
 40
0.3000000119209
 50
344.99999958258559
 51
60.000001669652299
  0
LINE
  5
11438
  8
KI1
 10
194.4062545299528
 20
210.45352602600281
 30
0.0
 11
194.7000002861021
 21
211.54979920982541
 31
0.0
  0
LINE
  5
11439
  8
KI1
 10
195.78977775573711
 20
212.52594256996329
 30
0.0
 11
195.17899513244609
 21
210.24647093414481
 31
0.0
  0
LINE
  5
1143A
  8
KI1
 10
194.69999980926491
 20
215.34999847411331
 30
0.0
 11
194.69999980926491
 21
211.54979920982541
 31
0.0
  0
LINE
  5
1143B
  8
KI1
 10
195.4999999999998
 20
212.94999838470639
 30
0.0
 11
195.6499996185301
 21
212.8633959352893
 31
0.0
  0
LINE
  5
1143C
  8
KI1
 10
195.4999999999998
 20
212.94999838470639
 30
0.0
 11
195.4999999999998
 21
215.34999847411331
 31
0.0
  0
LINE
  5
1143D
  8
KI1
 10
206.0
 20
317.24999999999233
 30
0.0
 11
206.0
 21
225.2500000000004
 31
0.0
  0
LINE
  5
1143E
  8
KI1
 10
173.0
 20
317.24999999999233
 30
0.0
 11
173.00000000000011
 21
225.2500000000004
 31
0.0
  0
LINE
  5
1143F
  8
KI1
 10
173.00000000000011
 20
225.2500000000004
 30
0.0
 11
206.0
 21
225.2500000000004
 31
0.0
  0
LINE
  5
11440
  8
KI1
 10
202.99999999999989
 20
215.2499999999923
 30
0.0
 11
213.5
 21
215.2499999999923
 31
0.0
  0
LINE
  5
11441
  8
KI1
 10
61.500000000000107
 20
215.2499999999923
 30
0.0
 11
177.99999999999989
 21
215.2499999999923
 31
0.0
  0
LINE
  5
11442
  8
OS
 10
177.99999999999989
 20
215.2499999999923
 30
0.0
 11
177.99999999999989
 21
203.2499999999925
 31
0.0
  0
LINE
  5
11443
  8
OS
 10
202.99999999999989
 20
215.2499999999923
 30
0.0
 11
202.99999999999989
 21
203.2499999999923
 31
0.0
  0
LINE
  5
11444
  8
OS
 10
233.5
 20
55.249999999992269
 30
0.0
 11
41.5
 21
55.249999999992269
 31
0.0
  0
LINE
  5
11445
  8
KI1
 10
61.50000000000005
 20
165.2499999999923
 30
0.0
 11
61.50000000000005
 21
100.2593274886836
 31
0.0
  0
LINE
  5
11446
  8
KI1
 10
213.5
 20
165.2499999999923
 30
0.0
 11
213.5
 21
55.249999999992269
 31
0.0
  0
LINE
  5
11447
  8
OS
 10
233.5
 20
52.249999999992262
 30
0.0
 11
41.5
 21
52.249999999992262
 31
0.0
  0
LINE
  5
11448
  8
OS
 10
233.5
 20
43.249999999992269
 30
0.0
 11
41.5
 21
43.249999999992269
 31
0.0
  0
LINE
  5
11449
  8
OS
 10
233.5
 20
46.249999999992269
 30
0.0
 11
41.5
 21
46.249999999992269
 31
0.0
  0
LINE
  5
1144A
  8
OS
 10
233.5
 20
49.249999999992269
 30
0.0
 11
41.5
 21
49.249999999992269
 31
0.0
  0
LINE
  5
1144B
  8
KI1
 10
152.0417424305046
 20
56.449999999992251
 30
0.0
 11
146.10000000000019
 21
56.449999999992322
 31
0.0
  0
LINE
  5
1144C
  8
KI1
 10
145.4000000000002
 20
55.249999999992269
 30
0.0
 11
171.60000000000019
 21
55.249999999992269
 31
0.0
  0
LINE
  5
1144D
  8
KI1
 10
146.20000000000019
 20
58.849999999992292
 30
0.0
 11
145.90000000000009
 21
58.849999999992228
 31
0.0
  0
ARC
  5
1144E
  8
KI1
 10
145.4000000000002
 20
55.749999999992269
 30
0.0
 40
0.5
 50
180.0
 51
270.0
1001
GENIUS_GENOBJ-N-FIL_13
1002
{
1000
OWNER
1000
GEN
1002
}
1001
GENIUS_GENODEF_13
1002
{
1000
HIER
1070
     0
1002
}
1002
{
1000
MANEDIT
1070
     0
1002
}
1002
{
1000
NOSEL
1070
     0
1002
}
1002
{
1000
BEHIND
1070
     0
1002
}
1002
{
1000
OTHER
1070
     0
1002
}
1002
{
1000
REACTOR
1002
}
  0
LINE
  5
1144F
  8
KI1
 10
145.8000000000001
 20
56.749999999992269
 30
0.0
 11
145.8000000000001
 21
57.608342613218319
 31
0.0
  0
LINE
  5
11450
  8
KI1
 10
144.90000000000009
 20
57.849999999992228
 30
0.0
 11
144.9000000000002
 21
55.749999999992269
 31
0.0
  0
ARC
  5
11451
  8
KI1
 10
146.10000000000019
 20
56.749999999992269
 30
0.0
 40
0.3
 50
180.0
 51
270.0
1001
GENIUS_GENOBJ-N-FIL_13
1002
{
1000
OWNER
1000
GEN
1002
}
1001
GENIUS_GENODEF_13
1002
{
1000
HIER
1070
     0
1002
}
1002
{
1000
MANEDIT
1070
     0
1002
}
1002
{
1000
NOSEL
1070
     0
1002
}
1002
{
1000
BEHIND
1070
     0
1002
}
1002
{
1000
OTHER
1070
     0
1002
}
1002
{
1000
REACTOR
1002
}
  0
LINE
  5
11452
  8
KI1
 10
145.98935997373221
 20
58.000136913942917
 30
0.0
 11
146.386384015761
 21
58.314923419557552
 31
0.0
  0
ARC
  5
11453
  8
KI1
 10
146.30000000000021
 20
57.608342613218319
 30
0.0
 40
0.5
 50
128.40967106341299
 51
180.0
1001
GENIUS_GENODEF_13
1002
{
1000
HIER
1070
     0
1002
}
1002
{
1000
MANEDIT
1070
     0
1002
}
1002
{
1000
NOSEL
1070
     0
1002
}
1002
{
1000
BEHIND
1070
     0
1002
}
1002
{
1000
OTHER
1070
     0
1002
}
1002
{
1000
REACTOR
1002
}
1001
GENIUS_GENOBJ-N-FIL_13
1002
{
1000
OWNER
1000
GEN
1002
}
  0
ARC
  5
11454
  8
KI1
 10
146.20000000000019
 20
58.549999999992281
 30
0.0
 40
0.3
 50
308.40967106341299
 51
90.0
  0
ARC
  5
11455
  8
KI1
 10
145.90000000000009
 20
57.849999999992228
 30
0.0
 40
1.0
 50
90.000000000003254
 51
180.0
1001
GENIUS_GENOBJ-N-FIL_13
1002
{
1000
OWNER
1000
GEN
1002
}
1001
GENIUS_GENODEF_13
1002
{
1000
HIER
1070
     0
1002
}
1002
{
1000
MANEDIT
1070
     0
1002
}
1002
{
1000
NOSEL
1070
     0
1002
}
1002
{
1000
BEHIND
1070
     0
1002
}
1002
{
1000
OTHER
1070
     0
1002
}
1002
{
1000
REACTOR
1002
}
  0
ARC
  5
11456
  8
KI1
 10
170.80000000000021
 20
58.549999999992281
 30
0.0
 40
0.3
 50
90.0
 51
231.59032893658701
  0
LINE
  5
11457
  8
KI1
 10
170.90000000000029
 20
56.449999999992322
 30
0.0
 11
164.9582575694958
 21
56.449999999992251
 31
0.0
  0
ARC
  5
11458
  8
KI1
 10
158.5000000000002
 20
56.649999999992239
 30
0.0
 40
0.5
 50
203.5781784782003
 51
336.42182152179959
  0
LINE
  5
11459
  8
KI1
 10
158.0417424305046
 20
56.449999999992251
 30
0.0
 11
152.9582575694958
 21
56.449999999992251
 31
0.0
  0
ARC
  5
1145A
  8
KI1
 10
152.5000000000002
 20
56.649999999992239
 30
0.0
 40
0.5
 50
203.5781784782003
 51
336.42182152179959
  0
ARC
  5
1145B
  8
KI1
 10
164.5000000000002
 20
56.649999999992239
 30
0.0
 40
0.5
 50
203.5781784782003
 51
336.42182152179959
  0
LINE
  5
1145C
  8
KI1
 10
164.0417424305046
 20
56.449999999992251
 30
0.0
 11
158.9582575694958
 21
56.449999999992251
 31
0.0
  0
LINE
  5
1145D
  8
KI1
 10
170.80000000000021
 20
58.849999999992292
 30
0.0
 11
171.10000000000031
 21
58.849999999992292
 31
0.0
  0
ARC
  5
1145E
  8
KI1
 10
171.60000000000019
 20
55.749999999992269
 30
0.0
 40
0.5
 50
270.0
 51
0.0
1001
GENIUS_GENOBJ-N-FIL_13
1002
{
1000
OWNER
1000
GEN
1002
}
1001
GENIUS_GENODEF_13
1002
{
1000
HIER
1070
     0
1002
}
1002
{
1000
MANEDIT
1070
     0
1002
}
1002
{
1000
NOSEL
1070
     0
1002
}
1002
{
1000
BEHIND
1070
     0
1002
}
1002
{
1000
OTHER
1070
     0
1002
}
1002
{
1000
REACTOR
1002
}
  0
LINE
  5
1145F
  8
KI1
 10
171.2000000000003
 20
56.749999999992269
 30
0.0
 11
171.2000000000003
 21
57.608342613218319
 31
0.0
  0
LINE
  5
11460
  8
KI1
 10
172.10000000000031
 20
57.849999999992228
 30
0.0
 11
172.10000000000019
 21
55.749999999992269
 31
0.0
  0
ARC
  5
11461
  8
KI1
 10
170.90000000000029
 20
56.749999999992269
 30
0.0
 40
0.3
 50
270.0
 51
0.0
1001
GENIUS_GENOBJ-N-FIL_13
1002
{
1000
OWNER
1000
GEN
1002
}
1001
GENIUS_GENODEF_13
1002
{
1000
HIER
1070
     0
1002
}
1002
{
1000
MANEDIT
1070
     0
1002
}
1002
{
1000
NOSEL
1070
     0
1002
}
1002
{
1000
BEHIND
1070
     0
1002
}
1002
{
1000
OTHER
1070
     0
1002
}
1002
{
1000
REACTOR
1002
}
  0
ARC
  5
11462
  8
KI1
 10
170.70000000000019
 20
57.608342613218319
 30
0.0
 40
0.5
 50
0.0
 51
51.590328936586999
1001
GENIUS_GENODEF_13
1002
{
1000
HIER
1070
     0
1002
}
1002
{
1000
MANEDIT
1070
     0
1002
}
1002
{
1000
NOSEL
1070
     0
1002
}
1002
{
1000
BEHIND
1070
     0
1002
}
1002
{
1000
OTHER
1070
     0
1002
}
1002
{
1000
REACTOR
1002
}
1001
GENIUS_GENOBJ-N-FIL_13
1002
{
1000
OWNER
1000
GEN
1002
}
  0
LINE
  5
11463
  8
KI1
 10
171.01064002626819
 20
58.000136913942917
 30
0.0
 11
170.6136159842394
 21
58.314923419557552
 31
0.0
  0
ARC
  5
11464
  8
KI1
 10
171.10000000000031
 20
57.849999999992292
 30
0.0
 40
1.0
 50
359.99999999999682
 51
89.999999999993491
1001
GENIUS_GENOBJ-N-FIL_13
1002
{
1000
OWNER
1000
GEN
1002
}
1001
GENIUS_GENODEF_13
1002
{
1000
HIER
1070
     0
1002
}
1002
{
1000
MANEDIT
1070
     0
1002
}
1002
{
1000
NOSEL
1070
     0
1002
}
1002
{
1000
BEHIND
1070
     0
1002
}
1002
{
1000
OTHER
1070
     0
1002
}
1002
{
1000
REACTOR
1002
}
  0
LINE
  5
11465
  8
KI1
 10
61.50000000000005
 20
55.249999999992269
 30
0.0
 11
213.5
 21
55.249999999992269
 31
0.0
  0
LINE
  5
11466
  8
KI1
 10
177.29215236292251
 20
56.599650298687997
 30
0.0
 11
172.5
 21
60.049999999992217
 31
0.0
  0
LINE
  5
11467
  8
KI1
 10
176.55738820434451
 20
55.649999999992247
 30
0.0
 11
171.83516598212219
 21
59.049999999992231
 31
0.0
  0
LINE
  5
11468
  8
KI1
 10
169.5
 20
59.049999999992231
 30
0.0
 11
147.5
 21
59.049999999992231
 31
0.0
  0
LINE
  5
11469
  8
KI1
 10
172.5
 20
60.049999999992217
 30
0.0
 11
144.5
 21
60.049999999992217
 31
0.0
  0
ARC
  5
1146A
  8
KI1
 10
140.0
 20
56.193883127962238
 30
0.0
 40
0.5
 50
125.75388725443651
 51
180.0
1001
GENIUS_GENOBJ-N-FIL_13
1002
{
1000
OWNER
1000
GEN
1002
}
1001
GENIUS_GENODEF_13
1002
{
1000
HIER
1070
     0
1002
}
1002
{
1000
MANEDIT
1070
     0
1002
}
1002
{
1000
NOSEL
1070
     0
1002
}
1002
{
1000
BEHIND
1070
     0
1002
}
1002
{
1000
OTHER
1070
     0
1002
}
1002
{
1000
REACTOR
1002
}
  0
LINE
  5
1146B
  8
KI1
 10
140.44261179565549
 20
55.649999999992247
 30
0.0
 11
145.16483401787769
 21
59.049999999992231
 31
0.0
  0
LINE
  5
1146C
  8
KI1
 10
139.5
 20
55.649999999992247
 30
0.0
 11
140.44261179565549
 21
55.649999999992247
 31
0.0
  0
LINE
  5
1146D
  8
KI1
 10
139.5
 20
55.649999999992247
 30
0.0
 11
139.5
 21
56.193883127962238
 31
0.0
  0
LINE
  5
1146E
  8
KI1
 10
139.70784763707741
 20
56.599650298687997
 30
0.0
 11
144.5
 21
60.049999999992217
 31
0.0
  0
LINE
  5
1146F
  8
KI1
 10
146.59999999999999
 20
59.049999999992231
 30
0.0
 11
145.16483401787769
 21
59.049999999992231
 31
0.0
  0
LINE
  5
11470
  8
KI1
 10
146.59999999999999
 20
58.549999999992217
 30
0.0
 11
146.29674390621429
 21
58.270651218749371
 31
0.0
  0
LINE
  5
11471
  8
KI1
 10
146.23046433738321
 20
57.918278602422212
 30
0.0
 11
146.74061911651111
 21
56.874371469898847
 31
0.0
  0
ARC
  5
11472
  8
KI1
 10
146.49999999999989
 20
58.049999999992217
 30
0.0
 40
0.3
 50
132.6501740956694
 51
206.04464303945349
  0
ARC
  5
11473
  8
KI1
 10
147.09999999999999
 20
57.049999999992217
 30
0.0
 40
0.4
 50
206.04464303945349
 51
0.0
  0
LINE
  5
11474
  8
KI1
 10
147.5
 20
59.049999999992231
 30
0.0
 11
147.5
 21
57.049999999992217
 31
0.0
  0
LINE
  5
11475
  8
KI1
 10
146.59999999999999
 20
59.049999999992231
 30
0.0
 11
146.59999999999999
 21
58.549999999992217
 31
0.0
  0
ARC
  5
11476
  8
KI1
 10
170.5
 20
58.049999999992217
 30
0.0
 40
0.3
 50
333.95535696054651
 51
47.349825904330558
  0
LINE
  5
11477
  8
KI1
 10
171.83516598212219
 20
59.049999999992231
 30
0.0
 11
170.40000000000001
 21
59.049999999992231
 31
0.0
  0
LINE
  5
11478
  8
KI1
 10
170.7695356626167
 20
57.918278602422212
 30
0.0
 11
170.25938088348889
 21
56.874371469898847
 31
0.0
  0
LINE
  5
11479
  8
KI1
 10
170.40000000000001
 20
59.049999999992231
 30
0.0
 11
170.40000000000001
 21
58.549999999992217
 31
0.0
  0
LINE
  5
1147A
  8
KI1
 10
170.40000000000001
 20
58.549999999992217
 30
0.0
 11
170.70325609378571
 21
58.270651218749371
 31
0.0
  0
LINE
  5
1147B
  8
KI1
 10
169.5
 20
59.049999999992231
 30
0.0
 11
169.5
 21
57.049999999992217
 31
0.0
  0
ARC
  5
1147C
  8
KI1
 10
169.90000000000001
 20
57.049999999992217
 30
0.0
 40
0.4
 50
180.0
 51
333.95535696054651
  0
ARC
  5
1147D
  8
KI1
 10
177.0
 20
56.193883127962238
 30
0.0
 40
0.5
 50
0.0
 51
54.246112745563508
1001
GENIUS_GENOBJ-N-FIL_13
1002
{
1000
OWNER
1000
GEN
1002
}
1001
GENIUS_GENODEF_13
1002
{
1000
HIER
1070
     0
1002
}
1002
{
1000
MANEDIT
1070
     0
1002
}
1002
{
1000
NOSEL
1070
     0
1002
}
1002
{
1000
BEHIND
1070
     0
1002
}
1002
{
1000
OTHER
1070
     0
1002
}
1002
{
1000
REACTOR
1002
}
  0
LINE
  5
1147E
  8
KI1
 10
177.5
 20
55.649999999992247
 30
0.0
 11
177.5
 21
56.193883127962238
 31
0.0
  0
LINE
  5
1147F
  8
KI1
 10
177.5
 20
55.649999999992247
 30
0.0
 11
176.55738820434451
 21
55.649999999992247
 31
0.0
  0
LINE
  5
11480
  8
KI1
 10
206.00000000000011
 20
165.2499999999923
 30
0.0
 11
206.00000000000011
 21
68.250000000000568
 31
0.0
  0
LINE
  5
11481
  8
KI1
 10
173.0000000000002
 20
165.2499999999923
 30
0.0
 11
173.0000000000002
 21
68.250000000000455
 31
0.0
  0
LINE
  5
11482
  8
KI1
 10
173.0000000000002
 20
68.250000000000455
 30
0.0
 11
206.00000000000011
 21
68.250000000000455
 31
0.0
  0
LINE
  5
11483
  8
OS
 10
437.99999999999972
 20
432.25000000000028
 30
0.0
 11
301.5
 21
432.25000000000028
 31
0.0
  0
LINE
  5
11484
  8
OS
 10
437.99999999999972
 20
435.25000000000028
 30
0.0
 11
301.5
 21
435.25000000000028
 31
0.0
  0
LINE
  5
11485
  8
OS
 10
437.99999999999972
 20
438.25000000000028
 30
0.0
 11
301.5
 21
438.25000000000028
 31
0.0
  0
LINE
  5
11486
  8
OS
 10
437.99999999999972
 20
441.25000000000023
 30
0.0
 11
301.5
 21
441.25000000000028
 31
0.0
  0
LINE
  5
11487
  8
OS
 10
436.99999999999972
 20
429.25000000000028
 30
0.0
 11
301.5
 21
429.25000000000028
 31
0.0
  0
LINE
  5
11488
  8
TS
 10
321.5
 20
429.2500000000083
 30
0.0
 11
473.5
 21
429.2500000000083
 31
0.0
  0
LINE
  5
1148A
  8
KI1
 10
321.5
 20
521.25000000000034
 30
0.0
 11
321.5
 21
441.25000000000028
 31
0.0
  0
LINE
  5
1148B
  8
TS
 10
321.5
 20
441.25000000000028
 30
0.0
 11
321.5
 21
429.2500000000083
 31
0.0
  0
LINE
  5
1148C
  8
KI1
 10
462.99999999999977
 20
429.25000000000051
 30
0.0
 11
462.99999999999977
 21
441.24999999999221
 31
0.0
  0
LINE
  5
1148D
  8
KI1
 10
437.99999999999977
 20
429.25000000000051
 30
0.0
 11
437.99999999999977
 21
441.24999999999221
 31
0.0
  0
LINE
  5
1148F
  8
KI1
 10
473.5
 20
521.25000000000034
 30
0.0
 11
473.5
 21
441.25000000000028
 31
0.0
  0
LINE
  5
11490
  8
TS
 10
473.5
 20
441.25000000000028
 30
0.0
 11
473.5
 21
429.2500000000083
 31
0.0
  0
LINE
  5
11491
  8
OS
 10
493.5
 20
429.25000000000028
 30
0.0
 11
462.99999999999977
 21
429.2500000000083
 31
0.0
  0
LINE
  5
11492
  8
OS
 10
493.5
 20
438.25000000000028
 30
0.0
 11
462.99999999999972
 21
438.25000000000028
 31
0.0
  0
LINE
  5
11493
  8
OS
 10
493.5
 20
435.25000000000028
 30
0.0
 11
462.99999999999972
 21
435.25000000000023
 31
0.0
  0
LINE
  5
11494
  8
OS
 10
493.5
 20
432.25000000000028
 30
0.0
 11
462.99999999999972
 21
432.25000000000028
 31
0.0
  0
LINE
  5
11495
  8
KI1
 10
437.99999999999977
 20
429.25000000000051
 30
0.0
 11
462.99999999999977
 21
429.25000000000051
 31
0.0
  0
LINE
  5
11496
  8
OS
 10
493.5
 20
441.25000000000028
 30
0.0
 11
462.99999999999972
 21
441.25000000000028
 31
0.0
  0
LINE
  5
11497
  8
KI1
 10
581.5
 20
429.2500000000083
 30
0.0
 11
584.49999999999989
 21
429.2500000000083
 31
0.0
  0
LINE
  5
11498
  8
KI1
 10
581.5
 20
521.25000000000034
 30
0.0
 11
581.5
 21
441.25000000000028
 31
0.0
  0
LINE
  5
11499
  8
TS
 10
581.5
 20
441.25000000000028
 30
0.0
 11
581.5
 21
429.2500000000083
 31
0.0
  0
LINE
  5
1149A
  8
OS
 10
753.5
 20
429.25000000000028
 30
0.0
 11
561.5
 21
429.25000000000028
 31
0.0
  0
LINE
  5
1149B
  8
OS
 10
584.49999999999989
 20
441.25000000000028
 30
0.0
 11
561.5
 21
441.25000000000028
 31
0.0
  0
LINE
  5
1149C
  8
OS
 10
584.49999999999989
 20
438.25000000000028
 30
0.0
 11
561.5
 21
438.25000000000028
 31
0.0
  0
LINE
  5
1149D
  8
OS
 10
584.49999999999989
 20
435.25000000000028
 30
0.0
 11
561.5
 21
435.25000000000028
 31
0.0
  0
LINE
  5
1149E
  8
OS
 10
584.49999999999989
 20
432.25000000000028
 30
0.0
 11
561.5
 21
432.25000000000028
 31
0.0
  0
LINE
  5
1149F
  8
OS
 10
753.5
 20
432.25000000000028
 30
0.0
 11
730.49999999999989
 21
432.25000000000028
 31
0.0
  0
LINE
  5
114A0
  8
OS
 10
753.5
 20
435.25000000000028
 30
0.0
 11
730.49999999999989
 21
435.25000000000028
 31
0.0
  0
LINE
  5
114A1
  8
OS
 10
753.5
 20
438.25000000000028
 30
0.0
 11
730.49999999999989
 21
438.25000000000028
 31
0.0
  0
LINE
  5
114A2
  8
OS
 10
753.5
 20
441.25000000000028
 30
0.0
 11
730.49999999999989
 21
441.25000000000028
 31
0.0
  0
LINE
  5
114A3
  8
KI1
 10
733.49999999999989
 20
521.25000000000034
 30
0.0
 11
733.49999999999989
 21
441.25000000000028
 31
0.0
  0
LINE
  5
114A4
  8
TS
 10
733.49999999999989
 20
441.25000000000028
 30
0.0
 11
733.49999999999989
 21
429.2500000000083
 31
0.0
  0
LINE
  5
114A5
  8
KI1
 10
455.99999999999972
 20
431.25000000000051
 30
0.0
 11
455.99999999999972
 21
439.34999847412149
 31
0.0
  0
LINE
  5
114A6
  8
KI1
 10
456.99999999999972
 20
439.75000000000051
 30
0.0
 11
456.99999999999972
 21
430.75000000000051
 31
0.0
  0
LINE
  5
114A7
  8
KI1
 10
444.99999999999972
 20
439.34999847412149
 30
0.0
 11
444.99999999999972
 21
431.25000000000051
 31
0.0
  0
LINE
  5
114A8
  8
KI1
 10
443.99999999999972
 20
430.75000000000051
 30
0.0
 11
443.99999999999972
 21
439.75000000000051
 31
0.0
  0
LINE
  5
114A9
  8
KI1
 10
455.99999999999972
 20
429.75000000000051
 30
0.0
 11
444.99999999999972
 21
429.75000000000051
 31
0.0
  0
LINE
  5
114AA
  8
KI1
 10
450.79999923706021
 20
430.75000000000051
 30
0.0
 11
455.49999999999972
 21
430.75000000000051
 31
0.0
  0
ARC
  5
114AB
  8
KI1
 10
444.99999999999972
 20
430.75000000000051
 30
0.0
 40
1.0
 50
179.99999134857859
 51
270.000000683243
  0
ARC
  5
114AC
  8
KI1
 10
445.49999999999972
 20
431.25000000000051
 30
0.0
 40
0.5
 50
179.99999134857859
 51
270.000000683243
  0
LINE
  5
114AD
  8
KI1
 10
450.5000011379646
 20
430.45000159740488
 30
0.0
 11
450.80000036954851
 21
430.75000083446548
 31
0.0
  0
LINE
  5
114AE
  8
KI1
 10
450.20000126957859
 20
430.75000143051187
 30
0.0
 11
450.5000011379646
 21
430.45000159740488
 31
0.0
  0
LINE
  5
114AF
  8
KI1
 10
445.49999999999972
 20
430.75000000000051
 30
0.0
 11
450.20000076293923
 21
430.75000000000051
 31
0.0
  0
ARC
  5
114B0
  8
KI1
 10
455.99999999999972
 20
430.75000000000051
 30
0.0
 40
1.0
 50
269.99999749551819
 51
0.0
  0
ARC
  5
114B1
  8
KI1
 10
455.49999999999972
 20
431.25000000000051
 30
0.0
 40
0.5
 50
269.99999749551819
 51
0.0
  0
ARC
  5
114B2
  8
KI1
 10
439.99999999999972
 20
440.72867965698248
 30
0.0
 40
0.2000000029802
 50
45.000001252234007
 51
180.00000500895689
  0
LINE
  5
114B3
  8
KI1
 10
441.4999980926512
 20
441.34999847412138
 30
0.0
 11
439.74644212636417
 21
443.10355348673409
 31
0.0
  0
ARC
  5
114B4
  8
KI1
 10
439.39288883191142
 20
442.75000000000051
 30
0.0
 40
0.5
 50
45.000015580204142
 51
90.0
1001
GENIUS_GENOBJ-N-FIL_13
1002
{
1000
OWNER
1000
GEN
1002
}
1001
GENIUS_GENODEF_13
1002
{
1000
HIER
1070
     0
1002
}
1002
{
1000
MANEDIT
1070
     0
1002
}
1002
{
1000
NOSEL
1070
     0
1002
}
1002
{
1000
BEHIND
1070
     0
1002
}
1002
{
1000
OTHER
1070
     0
1002
}
1002
{
1000
REACTOR
1002
}
  0
LINE
  5
114B5
  8
KI1
 10
439.39288883191142
 20
443.25000000000051
 30
0.0
 11
434.00001300731873
 21
443.25000000000051
 31
0.0
  0
ARC
  5
114B6
  8
KI1
 10
430.49999999999972
 20
441.62537918835739
 30
0.0
 40
0.5
 50
107.45439221042299
 51
180.0
1001
GENIUS_GENODEF_13
1002
{
1000
HIER
1070
     0
1002
}
1002
{
1000
MANEDIT
1070
     0
1002
}
1002
{
1000
NOSEL
1070
     0
1002
}
1002
{
1000
BEHIND
1070
     0
1002
}
1002
{
1000
OTHER
1070
     0
1002
}
1002
{
1000
REACTOR
1002
}
1001
GENIUS_GENOBJ-N-FIL_13
1002
{
1000
OWNER
1000
GEN
1002
}
  0
LINE
  5
114B7
  8
KI1
 10
429.99999999999977
 20
441.62537918835739
 30
0.0
 11
429.99999999999977
 21
441.2500000000004
 31
0.0
  0
ARC
  5
114B8
  8
KI1
 10
439.3999977111817
 20
438.95000076294002
 30
0.0
 40
0.4000000059605
 50
179.99999134857859
 51
0.0000100179073766
  0
ARC
  5
114B9
  8
KI1
 10
438.70000076293979
 20
441.65000152587851
 30
0.0
 40
0.3000000119209
 50
0.0
 51
90.000002504475205
  0
LINE
  5
114BA
  8
KI1
 10
432.00001907348678
 20
441.2500000000004
 30
0.0
 11
434.00002098083479
 21
441.95000076293951
 31
0.0
  0
LINE
  5
114BB
  8
KI1
 10
434.00001907348673
 20
441.95000076293951
 30
0.0
 11
438.70000076293979
 21
441.95000076293951
 31
0.0
  0
LINE
  5
114BC
  8
KI1
 10
438.99999999999972
 20
441.65000152587851
 30
0.0
 11
438.99999999999972
 21
438.95000076294002
 31
0.0
  0
LINE
  5
114BD
  8
KI1
 10
432.00001907348678
 20
441.2500000000004
 30
0.0
 11
429.99999999999977
 21
441.2500000000004
 31
0.0
  0
LINE
  5
114BE
  8
KI1
 10
430.35002673009308
 20
442.10235719446831
 30
0.0
 11
434.00001300731873
 21
443.25000000000051
 31
0.0
  0
LINE
  5
114BF
  8
KI1
 10
439.79999923706072
 20
438.95000076294002
 30
0.0
 11
439.79999923706072
 21
440.72867965698248
 31
0.0
  0
ARC
  5
114C0
  8
KI1
 10
444.99999999999972
 20
440.84999847412138
 30
0.0
 40
0.5
 50
0.0
 51
90.000002504475205
  0
ARC
  5
114C1
  8
KI1
 10
443.70000076293923
 20
439.75000000000051
 30
0.0
 40
0.3000000119209
 50
0.0
 51
90.000002504475205
  0
LINE
  5
114C2
  8
KI1
 10
443.70000076293923
 20
440.04999923706049
 30
0.0
 11
440.9615211486813
 21
440.04999923706049
 31
0.0
  0
LINE
  5
114C3
  8
KI1
 10
444.99999999999972
 20
441.34999847412138
 30
0.0
 11
441.49999999999977
 21
441.34999847412138
 31
0.0
  0
LINE
  5
114C4
  8
KI1
 10
444.99999999999972
 20
439.34999847412149
 30
0.0
 11
445.49999999999972
 21
439.34999847412149
 31
0.0
  0
LINE
  5
114C5
  8
KI1
 10
445.49999999999972
 20
439.34999847412149
 30
0.0
 11
445.49999999999972
 21
440.84999847412138
 31
0.0
  0
LINE
  5
114C6
  8
KI1
 10
440.14142322540272
 20
440.87010192871048
 30
0.0
 11
440.96152400970442
 21
440.05000114440952
 31
0.0
  0
LINE
  5
114C7
  8
KI1
 10
466.9999680125585
 20
443.25000000000051
 30
0.0
 11
461.6071063997162
 21
443.25000000000051
 31
0.0
  0
LINE
  5
114C8
  8
KI1
 10
462.30000305175679
 20
441.95000076293951
 30
0.0
 11
466.99997711181572
 21
441.95000076293951
 31
0.0
  0
ARC
  5
114C9
  8
KI1
 10
461.6071063997162
 20
442.75000000000051
 30
0.0
 40
0.5
 50
90.0
 51
134.99998441981859
1001
GENIUS_GENODEF_13
1002
{
1000
HIER
1070
     0
1002
}
1002
{
1000
MANEDIT
1070
     0
1002
}
1002
{
1000
NOSEL
1070
     0
1002
}
1002
{
1000
BEHIND
1070
     0
1002
}
1002
{
1000
OTHER
1070
     0
1002
}
1002
{
1000
REACTOR
1002
}
1001
GENIUS_GENOBJ-N-FIL_13
1002
{
1000
OWNER
1000
GEN
1002
}
  0
ARC
  5
114CA
  8
KI1
 10
461.5999984741207
 20
438.95000076294002
 30
0.0
 40
0.4000000059605
 50
179.99999134857859
 51
0.0000100179073766
  0
ARC
  5
114CB
  8
KI1
 10
455.99999999999972
 20
440.84999847412138
 30
0.0
 40
0.5
 50
90.000002504475205
 51
180.00000500895689
  0
ARC
  5
114CC
  8
KI1
 10
457.30000305175753
 20
439.75000000000051
 30
0.0
 40
0.3000000119209
 50
90.000002504475205
 51
180.00000500895689
  0
ARC
  5
114CD
  8
KI1
 10
462.30000305175679
 20
441.65000152587851
 30
0.0
 40
0.3000000119209
 50
90.000002504475205
 51
180.00000500895689
  0
ARC
  5
114CE
  8
KI1
 10
460.99999999999972
 20
440.72867965698248
 30
0.0
 40
0.2000000029802
 50
0.0
 51
135.00000034162221
  0
LINE
  5
114CF
  8
KI1
 10
460.03847503662092
 20
440.04999923706049
 30
0.0
 11
457.30000305175753
 21
440.04999923706049
 31
0.0
  0
LINE
  5
114D0
  8
KI1
 10
461.99999999999972
 20
438.95000076294002
 30
0.0
 11
461.99999999999972
 21
441.65000152587851
 31
0.0
  0
LINE
  5
114D1
  8
KI1
 10
461.25355310526311
 20
443.10355348673397
 30
0.0
 11
459.49999618530239
 21
441.34999752044649
 31
0.0
  0
LINE
  5
114D2
  8
KI1
 10
459.49999999999972
 20
441.34999847412138
 30
0.0
 11
455.99999999999972
 21
441.34999847412138
 31
0.0
  0
LINE
  5
114D3
  8
KI1
 10
455.49999999999972
 20
439.34999847412149
 30
0.0
 11
455.99999999999972
 21
439.34999847412149
 31
0.0
  0
LINE
  5
114D4
  8
KI1
 10
455.49999999999972
 20
440.84999847412138
 30
0.0
 11
455.49999999999972
 21
439.34999847412149
 31
0.0
  0
LINE
  5
114D5
  8
KI1
 10
460.03847599029518
 20
440.04999923706049
 30
0.0
 11
460.85857677459671
 21
440.87010002136248
 31
0.0
  0
LINE
  5
114D6
  8
KI1
 10
461.19999694824168
 20
440.72867965698248
 30
0.0
 11
461.19999694824168
 21
438.95000076294002
 31
0.0
  0
ARC
  5
114D7
  8
KI1
 10
470.49999999999972
 20
441.62537347068383
 30
0.0
 40
0.5
 50
0.0
 51
72.545611362732629
1001
GENIUS_GENOBJ-N-FIL_13
1002
{
1000
OWNER
1000
GEN
1002
}
1001
GENIUS_GENODEF_13
1002
{
1000
HIER
1070
     0
1002
}
1002
{
1000
MANEDIT
1070
     0
1002
}
1002
{
1000
NOSEL
1070
     0
1002
}
1002
{
1000
BEHIND
1070
     0
1002
}
1002
{
1000
OTHER
1070
     0
1002
}
1002
{
1000
REACTOR
1002
}
  0
LINE
  5
114D8
  8
KI1
 10
470.99999999999977
 20
441.62537347068383
 30
0.0
 11
470.99999999999977
 21
441.2500000000004
 31
0.0
  0
LINE
  5
114D9
  8
KI1
 10
466.99997711181572
 20
441.94999885559048
 30
0.0
 11
468.99997711181578
 21
441.2499990463254
 31
0.0
  0
LINE
  5
114DA
  8
KI1
 10
470.99999999999977
 20
441.2500000000004
 30
0.0
 11
468.99997711181578
 21
441.2500000000004
 31
0.0
  0
LINE
  5
114DB
  8
KI1
 10
466.9999680125585
 20
443.25000000000051
 30
0.0
 11
470.64997324016059
 21
442.10235148614748
 31
0.0
  0
LINE
  5
114DC
  8
KI1
 10
454.6999998092648
 20
441.34999847412132
 30
0.0
 11
446.30000019073458
 21
441.34999847412132
 31
0.0
  0
LINE
  5
114DD
  8
KI1
 10
460.1000003814695
 20
442.64999847412128
 30
0.0
 11
440.89999961852999
 21
442.64999847412128
 31
0.0
  0
ARC
  5
114DE
  8
KI1
 10
446.20737504959078
 20
436.34999848008181
 30
0.0
 40
0.4000000059605
 50
195.00000565373881
 51
15.00000041741394
  0
LINE
  5
114DF
  8
KI1
 10
441.69999999999982
 20
441.34999847412132
 30
0.0
 11
440.75730825457498
 21
442.30985902290342
 31
0.0
  0
ARC
  5
114E0
  8
KI1
 10
440.89999999999981
 20
442.44999847412129
 30
0.0
 40
0.2
 50
90.0
 51
224.4829717565718
  0
LINE
  5
114E1
  8
KI1
 10
445.49999999999972
 20
441.34999847412132
 30
0.0
 11
441.69999999999982
 21
441.34999847412132
 31
0.0
  0
ARC
  5
114E2
  8
KI1
 10
445.49999999999972
 20
438.60358834862728
 30
0.0
 40
0.3000000119209
 50
120.00000333930301
 51
195.00000201127381
  0
LINE
  5
114E3
  8
KI1
 10
446.29999971389742
 20
437.5497992098334
 30
0.0
 11
446.59374547004671
 21
436.45352602601082
 31
0.0
  0
LINE
  5
114E4
  8
KI1
 10
445.82100486755343
 20
436.2464709341528
 30
0.0
 11
445.21022224426252
 21
438.52594256997128
 31
0.0
  0
LINE
  5
114E5
  8
KI1
 10
446.30000019073458
 20
437.5497992098334
 30
0.0
 11
446.30000019073458
 21
441.34999847412132
 31
0.0
  0
LINE
  5
114E6
  8
KI1
 10
445.3500003814695
 20
438.86339593529732
 30
0.0
 11
445.49999999999972
 21
438.94999838471438
 31
0.0
  0
LINE
  5
114E7
  8
KI1
 10
445.49999999999972
 20
441.34999847412132
 30
0.0
 11
445.49999999999972
 21
438.94999838471438
 31
0.0
  0
ARC
  5
114E8
  8
KI1
 10
454.79262495040871
 20
436.34999848008181
 30
0.0
 40
0.4000000059605
 50
164.9999943462611
 51
345.00001301559303
  0
LINE
  5
114E9
  8
KI1
 10
459.29999999999978
 20
441.34999847412132
 30
0.0
 11
460.24269174542439
 21
442.30985902290342
 31
0.0
  0
ARC
  5
114EA
  8
KI1
 10
460.0999999999998
 20
442.44999847412129
 30
0.0
 40
0.2
 50
315.51702824342362
 51
90.0
  0
LINE
  5
114EB
  8
KI1
 10
459.29999999999978
 20
441.34999847412132
 30
0.0
 11
455.49999999999972
 21
441.34999847412132
 31
0.0
  0
ARC
  5
114EC
  8
KI1
 10
455.49999999999972
 20
438.60358834862728
 30
0.0
 40
0.3000000119209
 50
344.99999958258599
 51
60.000001669652299
  0
LINE
  5
114ED
  8
KI1
 10
454.40625452995272
 20
436.45352602601082
 30
0.0
 11
454.70000028610201
 21
437.5497992098334
 31
0.0
  0
LINE
  5
114EE
  8
KI1
 10
455.78977775573708
 20
438.52594256997128
 30
0.0
 11
455.178995132446
 21
436.2464709341528
 31
0.0
  0
LINE
  5
114EF
  8
KI1
 10
454.6999998092648
 20
441.34999847412132
 30
0.0
 11
454.6999998092648
 21
437.5497992098334
 31
0.0
  0
LINE
  5
114F0
  8
KI1
 10
455.49999999999972
 20
438.94999838471438
 30
0.0
 11
455.64999961852999
 21
438.86339593529732
 31
0.0
  0
LINE
  5
114F1
  8
KI1
 10
455.49999999999972
 20
438.94999838471438
 30
0.0
 11
455.49999999999972
 21
441.34999847412132
 31
0.0
  0
LINE
  5
114F2
  8
KI1
 10
726.0
 20
521.25000000000034
 30
0.0
 11
726.0
 21
451.25000000000841
 31
0.0
  0
LINE
  5
114F3
  8
KI1
 10
693.0
 20
521.25000000000034
 30
0.0
 11
693.00000000000011
 21
451.25000000000853
 31
0.0
  0
LINE
  5
114F4
  8
KI1
 10
693.00000000000011
 20
451.25000000000853
 30
0.0
 11
726.0
 21
451.25000000000841
 31
0.0
  0
LINE
  5
114F5
  8
KI1
 10
465.99999999999989
 20
521.25000000000034
 30
0.0
 11
465.99999999999989
 21
451.25000000000841
 31
0.0
  0
LINE
  5
114F6
  8
KI1
 10
432.99999999999989
 20
521.25000000000034
 30
0.0
 11
433.0
 21
451.25000000000853
 31
0.0
  0
LINE
  5
114F7
  8
KI1
 10
433.0
 20
451.25000000000853
 30
0.0
 11
465.99999999999989
 21
451.25000000000841
 31
0.0
  0
LINE
  5
114F8
  8
TS
 10
733.49999999999989
 20
429.2500000000083
 30
0.0
 11
584.49999999999989
 21
429.2500000000083
 31
0.0
  0
LINE
  5
114F9
  8
OS
 10
437.99999999999977
 20
441.24999999999221
 30
0.0
 11
437.99999999999977
 21
429.25000000000028
 31
0.0
  0
LINE
  5
114FA
  8
OS
 10
462.99999999999977
 20
441.24999999999221
 30
0.0
 11
462.99999999999977
 21
429.2500000000083
 31
0.0
  0
LINE
  5
114FB
  8
OS
 10
584.49999999999989
 20
441.25000000000028
 30
0.0
 11
584.49999999999989
 21
429.2500000000083
 31
0.0
  0
LINE
  5
114FC
  8
OS
 10
730.49999999999989
 20
441.25000000000028
 30
0.0
 11
730.49999999999989
 21
429.25000000000028
 31
0.0
  0
LINE
  5
114FD
  8
SU
 10
72.5
 20
487.25000000000028
 30
0.0
 11
72.5
 21
524.25000000000034
 31
0.0
  0
LINE
  5
114FE
  8
SU
 10
61.5
 20
446.24999999999233
 30
0.0
 11
61.500000000000007
 21
524.25000000000034
 31
0.0
  0
LINE
  5
114FF
  8
SU
 10
72.5
 20
521.25000000000034
 30
0.0
 11
61.500000000000007
 21
521.25000000000034
 31
0.0
  0
ARC
  5
11500
  8
SU
 10
72.5
 20
521.25000000000034
 30
0.0
 40
0.6
 50
180.0
 51
0.0
  0
ARC
  5
11501
  8
SU
 10
72.5
 20
521.25000000000034
 30
0.0
 40
0.6
 50
0.0
 51
180.0
  0
ARC
  5
11502
  8
SU
 10
61.500000000000007
 20
521.25000000000034
 30
0.0
 40
0.6
 50
0.0
 51
180.0
  0
ARC
  5
11503
  8
SU
 10
61.500000000000007
 20
521.25000000000034
 30
0.0
 40
0.6
 50
180.0
 51
0.0
  0
TEXT
  5
11504
  8
SU
 10
61.881666666666668
 20
522.55000000000018
 30
0.0
 40
7.0
  1
11
 41
0.8299999999999999
  0
LINE
  5
11505
  8
SU
 10
202.49999999999969
 20
487.25000000000028
 30
0.0
 11
202.49999999999969
 21
524.25000000000034
 31
0.0
  0
LINE
  5
11506
  8
SU
 10
72.5
 20
521.25000000000034
 30
0.0
 11
202.49999999999969
 21
521.25000000000034
 31
0.0
  0
ARC
  5
11507
  8
SU
 10
202.49999999999969
 20
521.25000000000034
 30
0.0
 40
0.6
 50
180.0
 51
0.0
  0
ARC
  5
11508
  8
SU
 10
202.49999999999969
 20
521.25000000000034
 30
0.0
 40
0.6
 50
0.0
 51
180.0
  0
TEXT
  5
11509
  8
SU
 10
128.7849999999998
 20
522.55000000000018
 30
0.0
 40
7.0
  1
130
 41
0.8299999999999999
  0
LINE
  5
1150A
  8
SU
 10
213.5
 20
446.24999999999233
 30
0.0
 11
213.5
 21
524.25000000000045
 31
0.0
  0
LINE
  5
1150B
  8
SU
 10
202.49999999999969
 20
521.25000000000045
 30
0.0
 11
213.5
 21
521.25000000000045
 31
0.0
  0
ARC
  5
1150C
  8
SU
 10
213.5
 20
521.25000000000045
 30
0.0
 40
0.6
 50
180.0
 51
0.0
  0
ARC
  5
1150D
  8
SU
 10
213.5
 20
521.25000000000045
 30
0.0
 40
0.6
 50
0.0
 51
180.0
  0
TEXT
  5
1150E
  8
SU
 10
202.88166666666649
 20
522.5500000000003
 30
0.0
 40
7.0
  1
11
 41
0.8299999999999999
  0
LINE
  5
1150F
  8
SU
 10
85.0
 20
487.25000000000028
 30
0.0
 11
85.0
 21
509.25000000000028
 31
0.0
  0
LINE
  5
11510
  8
SU
 10
189.99999999999969
 20
487.25000000000028
 30
0.0
 11
189.99999999999969
 21
509.25000000000028
 31
0.0
  0
LINE
  5
11511
  8
SU
 10
85.0
 20
506.25000000000028
 30
0.0
 11
189.99999999999969
 21
506.25000000000028
 31
0.0
  0
ARC
  5
11512
  8
SU
 10
85.0
 20
506.25000000000028
 30
0.0
 40
0.6
 50
0.0
 51
180.0
  0
ARC
  5
11513
  8
SU
 10
85.0
 20
506.25000000000028
 30
0.0
 40
0.6
 50
180.0
 51
0.0
  0
ARC
  5
11514
  8
SU
 10
189.99999999999969
 20
506.25000000000028
 30
0.0
 40
0.6
 50
180.0
 51
0.0
  0
ARC
  5
11515
  8
SU
 10
189.99999999999969
 20
506.25000000000028
 30
0.0
 40
0.6
 50
0.0
 51
180.0
  0
TEXT
  5
11516
  8
SU
 10
128.7849999999998
 20
507.5500000000003
 30
0.0
 40
7.0
  1
105
 41
0.8299999999999999
  0
LINE
  5
11517
  8
SU
 10
85.0
 20
506.2500000000004
 30
0.0
 11
72.5
 21
506.2500000000004
 31
0.0
  0
LINE
  5
11518
  8
SU
 10
40.236198089720922
 20
506.2500000000004
 30
0.0
 11
72.5
 21
506.2500000000004
 31
0.0
  0
TEXT
  5
11519
  8
SU
 10
39.87619808972093
 20
507.55000000000041
 30
0.0
 40
7.0
  1
12.5
 41
0.8299999999999999
  0
ARC
  5
1151A
  8
SU
 10
72.5
 20
506.2500000000004
 30
0.0
 40
0.6
 50
0.0
 51
180.0
  0
ARC
  5
1151B
  8
SU
 10
72.5
 20
506.2500000000004
 30
0.0
 40
0.6
 50
180.0
 51
0.0
  0
LINE
  5
1151C
  8
SU
 10
189.99999999999969
 20
506.2500000000004
 30
0.0
 11
202.49999999999969
 21
506.2500000000004
 31
0.0
  0
LINE
  5
1151D
  8
SU
 10
233.7834032537065
 20
506.2500000000004
 30
0.0
 11
202.49999999999969
 21
506.2500000000004
 31
0.0
  0
TEXT
  5
1151E
  8
SU
 10
213.94673658703991
 20
507.55000000000041
 30
0.0
 40
7.0
  1
12.5
 41
0.8299999999999999
  0
ARC
  5
1151F
  8
SU
 10
202.49999999999969
 20
506.2500000000004
 30
0.0
 40
0.6
 50
180.0
 51
0.0
  0
ARC
  5
11520
  8
SU
 10
202.49999999999969
 20
506.2500000000004
 30
0.0
 40
0.6
 50
0.0
 51
180.0
  0
TEXT
  5
11521
  8
MJ
 10
41.5
 20
546.25000000000034
 30
0.0
 40
7.0
  1
ジャストカット枠
 41
0.8299999999999999
  0
LINE
  5
11522
  8
SU
 10
60.5
 20
445.24999999999221
 30
0.0
 11
38.500000000000007
 21
445.24999999999221
 31
0.0
  0
LINE
  5
11523
  8
SU
 10
63.499999999999993
 20
421.24999999999233
 30
0.0
 11
38.5
 21
421.24999999999233
 31
0.0
  0
LINE
  5
11524
  8
SU
 10
41.500000000000007
 20
445.24999999999221
 30
0.0
 11
41.5
 21
421.24999999999233
 31
0.0
  0
ARC
  5
11525
  8
SU
 10
41.500000000000007
 20
445.24999999999221
 30
0.0
 40
0.6
 50
270.0
 51
90.0
  0
ARC
  5
11526
  8
SU
 10
41.500000000000007
 20
445.24999999999221
 30
0.0
 40
0.6
 50
90.0
 51
270.0
  0
ARC
  5
11527
  8
SU
 10
41.5
 20
421.24999999999233
 30
0.0
 40
0.6
 50
90.0
 51
270.0
  0
ARC
  5
11528
  8
SU
 10
41.5
 20
421.24999999999233
 30
0.0
 40
0.6
 50
270.0
 51
90.0
  0
TEXT
  5
11529
  8
SU
 10
40.199999999999932
 20
427.57833333332559
 30
0.0
 40
7.0
  1
24
 50
90.0
 41
0.8299999999999999
  0
LINE
  5
1152A
  8
SU
 10
151.0
 20
409.24999999999221
 30
0.0
 11
38.49999999999995
 21
409.24999999999221
 31
0.0
  0
LINE
  5
1152B
  8
SU
 10
41.499999999999943
 20
421.24999999999233
 30
0.0
 11
41.499999999999943
 21
409.24999999999221
 31
0.0
  0
LINE
  5
1152C
  8
SU
 10
41.499999999999943
 20
409.24999999999221
 30
0.0
 11
41.499999999999943
 21
394.69723312429443
 31
0.0
  0
ARC
  5
1152D
  8
SU
 10
41.499999999999943
 20
409.24999999999221
 30
0.0
 40
0.6
 50
90.0
 51
270.0
  0
ARC
  5
1152E
  8
SU
 10
41.499999999999943
 20
409.24999999999221
 30
0.0
 40
0.6
 50
270.0
 51
90.0
  0
TEXT
  5
1152F
  8
SU
 10
40.199999999999868
 20
395.80246299721603
 30
0.0
 40
7.0
  1
12
 50
90.0
 41
0.8299999999999999
  0
LINE
  5
11530
  8
SU
 10
214.5
 20
445.24999999999221
 30
0.0
 11
286.50000000000011
 21
445.24999999999221
 31
0.0
  0
LINE
  5
11531
  8
SU
 10
234.5
 20
215.2499999999923
 30
0.0
 11
286.5
 21
215.2499999999923
 31
0.0
  0
LINE
  5
11532
  8
SU
 10
283.5
 20
445.24999999999221
 30
0.0
 11
283.5
 21
215.2499999999923
 31
0.0
  0
TEXT
  5
11533
  8
SU
 10
282.19999999999987
 20
325.90238095237328
 30
0.0
 40
10.0
  1
H
 50
90.0
 41
0.8299999999999999
  0
LINE
  5
11534
  8
SU
 10
289.4999962
 20
435.2499999999921
 30
0.0
 11
277.5
 21
435.2499999999921
 31
0.0
  0
LINE
  5
11535
  8
SU
 10
289.37999630000002
 20
435.44999979999221
 30
0.0
 11
277.6199999000001
 21
435.44999979999221
 31
0.0
  0
LINE
  5
11536
  8
SU
 10
289.25999639999998
 20
435.6499995999921
 30
0.0
 11
277.73999979999991
 21
435.6499995999921
 31
0.0
  0
LINE
  5
11537
  8
SU
 10
289.13999650000011
 20
435.84999939999221
 30
0.0
 11
277.8599997
 21
435.84999939999221
 31
0.0
  0
LINE
  5
11538
  8
SU
 10
289.01999660000001
 20
436.04999919999221
 30
0.0
 11
277.97999950000002
 21
436.04999919999221
 31
0.0
  0
LINE
  5
11539
  8
SU
 10
288.89999680000011
 20
436.24999899999221
 30
0.0
 11
278.0999994
 21
436.24999899999221
 31
0.0
  0
LINE
  5
1153A
  8
SU
 10
288.77999690000001
 20
436.44999889999218
 30
0.0
 11
278.21999929999998
 21
436.44999889999218
 31
0.0
  0
LINE
  5
1153B
  8
SU
 10
288.65999790000001
 20
436.64999869999212
 30
0.0
 11
278.33999920000002
 21
436.64999869999218
 31
0.0
  0
LINE
  5
1153C
  8
SU
 10
288.53999809999999
 20
436.84999849999213
 30
0.0
 11
278.4599991
 21
436.84999849999218
 31
0.0
  0
LINE
  5
1153D
  8
SU
 10
288.41999820000001
 20
437.04999829999218
 30
0.0
 11
278.5799990000001
 21
437.04999829999218
 31
0.0
  0
LINE
  5
1153E
  8
SU
 10
288.29999830000003
 20
437.24999809999218
 30
0.0
 11
278.69999890000003
 21
437.24999809999218
 31
0.0
  0
LINE
  5
1153F
  8
SU
 10
288.17999839999999
 20
437.44999789999218
 30
0.0
 11
278.81999869999999
 21
437.44999789999218
 31
0.0
  0
LINE
  5
11540
  8
SU
 10
288.05999850000001
 20
437.64999769999213
 30
0.0
 11
278.93999860000002
 21
437.64999769999218
 31
0.0
  0
LINE
  5
11541
  8
SU
 10
287.93999860000002
 20
437.84999749999218
 30
0.0
 11
279.05999850000001
 21
437.84999749999218
 31
0.0
  0
LINE
  5
11542
  8
SU
 10
287.69999890000003
 20
438.24999709999219
 30
0.0
 11
279.29999830000003
 21
438.24999709999219
 31
0.0
  0
LINE
  5
11543
  8
SU
 10
287.81999869999999
 20
438.04999729999213
 30
0.0
 11
279.17999839999999
 21
438.04999729999219
 31
0.0
  0
LINE
  5
11544
  8
SU
 10
286.97999950000002
 20
439.4499959999921
 30
0.0
 11
280.01999760000001
 21
439.4499959999921
 31
0.0
  0
LINE
  5
11545
  8
SU
 10
286.86000059999998
 20
439.64999579999221
 30
0.0
 11
280.13999750000011
 21
439.64999579999221
 31
0.0
  0
LINE
  5
11546
  8
SU
 10
286.7400007
 20
439.84999559999221
 30
0.0
 11
280.25999739999992
 21
439.84999559999221
 31
0.0
  0
LINE
  5
11547
  8
SU
 10
286.6200007999999
 20
440.04999539999221
 30
0.0
 11
280.37999730000001
 21
440.04999539999221
 31
0.0
  0
LINE
  5
11548
  8
SU
 10
286.500001
 20
440.24999519999221
 30
0.0
 11
280.49999709999997
 21
440.24999519999221
 31
0.0
  0
LINE
  5
11549
  8
SU
 10
286.38000110000002
 20
440.44999499999221
 30
0.0
 11
280.61999700000001
 21
440.44999499999221
 31
0.0
  0
LINE
  5
1154A
  8
SU
 10
286.26000120000009
 20
440.64999489999212
 30
0.0
 11
280.73999689999999
 21
440.64999489999218
 31
0.0
  0
LINE
  5
1154B
  8
SU
 10
286.14000129999999
 20
440.84999469999212
 30
0.0
 11
280.85999679999998
 21
440.84999469999218
 31
0.0
  0
LINE
  5
1154C
  8
SU
 10
286.02000140000001
 20
441.04999449999212
 30
0.0
 11
280.97999670000002
 21
441.04999449999218
 31
0.0
  0
LINE
  5
1154D
  8
SU
 10
285.90000149999997
 20
441.24999429999218
 30
0.0
 11
281.09999660000011
 21
441.24999429999218
 31
0.0
  0
LINE
  5
1154E
  8
SU
 10
285.78000159999999
 20
441.44999409999213
 30
0.0
 11
281.21999649999998
 21
441.44999409999218
 31
0.0
  0
LINE
  5
1154F
  8
SU
 10
285.66000269999989
 20
441.64999389999218
 30
0.0
 11
281.33999630000011
 21
441.64999389999218
 31
0.0
  0
LINE
  5
11550
  8
SU
 10
285.54000280000002
 20
441.84999369999213
 30
0.0
 11
281.45999619999998
 21
441.84999369999218
 31
0.0
  0
LINE
  5
11551
  8
SU
 10
285.42000289999999
 20
442.04999349999218
 30
0.0
 11
281.57999610000002
 21
442.04999349999218
 31
0.0
  0
LINE
  5
11552
  8
SU
 10
285.30000310000003
 20
442.24999329999213
 30
0.0
 11
281.699996
 21
442.24999329999218
 31
0.0
  0
LINE
  5
11553
  8
SU
 10
285.18000319999999
 20
442.44999309999213
 30
0.0
 11
281.81999589999998
 21
442.44999309999218
 31
0.0
  0
LINE
  5
11554
  8
SU
 10
285.06000330000001
 20
442.64999289999218
 30
0.0
 11
281.93999580000002
 21
442.64999289999218
 31
0.0
  0
LINE
  5
11555
  8
SU
 10
284.94000340000002
 20
442.84999279999209
 30
0.0
 11
282.05999569999989
 21
442.84999279999209
 31
0.0
  0
LINE
  5
11556
  8
SU
 10
284.70000359999989
 20
443.2499923999921
 30
0.0
 11
282.2999954
 21
443.2499923999921
 31
0.0
  0
LINE
  5
11557
  8
SU
 10
284.82000349999998
 20
443.04999259999221
 30
0.0
 11
282.17999550000002
 21
443.04999259999221
 31
0.0
  0
LINE
  5
11558
  8
SU
 10
284.58000370000002
 20
443.44999219999221
 30
0.0
 11
282.41999529999998
 21
443.44999219999221
 31
0.0
  0
LINE
  5
11559
  8
SU
 10
284.46000385000002
 20
443.6499919999921
 30
0.0
 11
282.53999519000001
 21
443.6499919999921
 31
0.0
  0
LINE
  5
1155A
  8
SU
 10
284.34000397
 20
443.84999179999221
 30
0.0
 11
282.65999507999999
 21
443.84999179999221
 31
0.0
  0
LINE
  5
1155B
  8
SU
 10
284.2200050400001
 20
444.04999159999221
 30
0.0
 11
282.77999496000001
 21
444.04999159999221
 31
0.0
  0
LINE
  5
1155C
  8
SU
 10
284.10000515000002
 20
444.24999139999221
 30
0.0
 11
282.89999484999998
 21
444.24999139999221
 31
0.0
  0
LINE
  5
1155D
  8
SU
 10
283.86000252000002
 20
444.64999103999207
 30
0.0
 11
283.13999461999998
 21
444.64999103999219
 31
0.0
  0
LINE
  5
1155E
  8
SU
 10
283.98000525999998
 20
444.44999122999218
 30
0.0
 11
283.01999474000002
 21
444.44999122999218
 31
0.0
  0
LINE
  5
1155F
  8
SU
 10
283.74000262999999
 20
444.84999083999219
 30
0.0
 11
283.25999451000001
 21
444.84999083999219
 31
0.0
  0
LINE
  5
11560
  8
SU
 10
283.5000020224893
 20
445.25000418096562
 30
0.0
 11
277.50000009999991
 21
435.25000039999219
 31
0.0
  0
LINE
  5
11561
  8
SU
 10
283.62000751000011
 20
445.0499877899922
 30
0.0
 11
283.37999249000001
 21
445.0499877899922
 31
0.0
  0
LINE
  5
11562
  8
SU
 10
283.49999993819199
 20
445.25000018014299
 30
0.0
 11
289.4999957
 21
435.25000009999212
 31
0.0
  0
LINE
  5
11563
  8
SU
 10
287.1000004
 20
439.24999619999221
 30
0.0
 11
279.89999769999997
 21
439.24999619999221
 31
0.0
  0
LINE
  5
11564
  8
SU
 10
287.22000030000009
 20
439.0499963999921
 30
0.0
 11
279.77999779999999
 21
439.0499963999921
 31
0.0
  0
LINE
  5
11565
  8
SU
 10
287.33999919999991
 20
438.84999659999221
 30
0.0
 11
279.65999790000001
 21
438.84999659999221
 31
0.0
  0
LINE
  5
11566
  8
SU
 10
287.4599991
 20
438.64999679999221
 30
0.0
 11
279.53999809999999
 21
438.64999679999221
 31
0.0
  0
LINE
  5
11567
  8
SU
 10
287.57999899999999
 20
438.44999689999219
 30
0.0
 11
279.41999820000001
 21
438.44999689999219
 31
0.0
  0
LINE
  5
11568
  8
SU
 10
207.0
 20
225.2500000000006
 30
0.0
 11
271.49999999999989
 21
225.2500000000006
 31
0.0
  0
LINE
  5
11569
  8
SU
 10
207.0
 20
418.24999999999221
 30
0.0
 11
271.5
 21
418.24999999999221
 31
0.0
  0
LINE
  5
1156A
  8
SU
 10
268.50000000000011
 20
225.2500000000006
 30
0.0
 11
268.5
 21
418.24999999999221
 31
0.0
  0
ARC
  5
1156B
  8
SU
 10
268.5
 20
225.2500000000006
 30
0.0
 40
0.6
 50
90.0
 51
270.0
  0
ARC
  5
1156C
  8
SU
 10
268.5
 20
225.2500000000006
 30
0.0
 40
0.6
 50
270.0
 51
90.0
  0
ARC
  5
1156D
  8
SU
 10
268.5
 20
418.24999999999221
 30
0.0
 40
0.6
 50
270.0
 51
90.0
  0
ARC
  5
1156E
  8
SU
 10
268.5
 20
418.24999999999221
 30
0.0
 40
0.6
 50
90.0
 51
270.0
  0
TEXT
  5
1156F
  8
SU
 10
267.19999999999987
 20
283.60366666666312
 30
0.0
 40
7.0
  1
ドアH（DH）=H-37
 50
90.0
 41
0.8299999999999999
  0
LINE
  5
11570
  8
SU
 10
211.5
 20
421.24999999999233
 30
0.0
 11
271.50000000000023
 21
421.24999999999233
 31
0.0
  0
LINE
  5
11571
  8
SU
 10
268.50000000000023
 20
418.24999999999221
 30
0.0
 11
268.50000000000023
 21
421.24999999999233
 31
0.0
  0
LINE
  5
11572
  8
SU
 10
268.50000000000023
 20
419.74999999999221
 30
0.0
 11
253.50000000000011
 21
427.11025403783663
 31
0.0
  0
LINE
  5
11573
  8
SU
 10
253.50000000000011
 20
427.11025403783663
 30
0.0
 11
253.50000000000011
 21
433.58358737116993
 31
0.0
  0
TEXT
  5
11574
  8
SU
 10
252.19999999999999
 20
427.58025403783671
 30
0.0
 40
7.0
  1
3
 50
90.0
 41
0.8299999999999999
  0
ARC
  5
11575
  8
SU
 10
268.50000000000023
 20
421.24999999999233
 30
0.0
 40
0.6
 50
270.0
 51
90.0
  0
ARC
  5
11576
  8
SU
 10
268.50000000000023
 20
421.24999999999233
 30
0.0
 40
0.6
 50
90.0
 51
270.0
  0
LINE
  5
11577
  8
SU
 10
268.5
 20
421.24999999999233
 30
0.0
 11
268.5
 21
445.24999999999221
 31
0.0
  0
ARC
  5
11578
  8
SU
 10
268.5
 20
445.24999999999221
 30
0.0
 40
0.6
 50
270.0
 51
90.0
  0
ARC
  5
11579
  8
SU
 10
268.5
 20
445.24999999999221
 30
0.0
 40
0.6
 50
90.0
 51
270.0
  0
TEXT
  5
1157A
  8
SU
 10
267.19999999999987
 20
427.5783333333257
 30
0.0
 40
7.0
  1
24
 50
90.0
 41
0.8299999999999999
  0
LINE
  5
1157B
  8
SU
 10
207.9999680125587
 20
217.24999999999241
 30
0.0
 11
271.50000000000011
 21
217.24999999999241
 31
0.0
  0
LINE
  5
1157C
  8
SU
 10
268.50000000000011
 20
225.2500000000006
 30
0.0
 11
268.50000000000011
 21
217.24999999999241
 31
0.0
  0
ARC
  5
1157D
  8
SU
 10
268.50000000000011
 20
217.24999999999241
 30
0.0
 40
0.6
 50
90.0
 51
270.0
  0
ARC
  5
1157E
  8
SU
 10
268.50000000000011
 20
217.24999999999241
 30
0.0
 40
0.6
 50
270.0
 51
90.0
  0
LINE
  5
1157F
  8
SU
 10
268.5
 20
215.2499999999923
 30
0.0
 11
268.5
 21
204.82610361706449
 31
0.0
  0
LINE
  5
11580
  8
SU
 10
268.5
 20
217.24999999999241
 30
0.0
 11
268.5
 21
215.2499999999923
 31
0.0
  0
ARC
  5
11581
  8
SU
 10
268.5
 20
215.2499999999923
 30
0.0
 40
0.6
 50
270.0
 51
90.0
  0
ARC
  5
11582
  8
SU
 10
268.5
 20
215.2499999999923
 30
0.0
 40
0.6
 50
90.0
 51
270.0
  0
TEXT
  5
11583
  8
SU
 10
267.19999999999999
 20
205.2961036170644
 30
0.0
 40
7.0
  1
2
 50
90.0
 41
0.8299999999999999
  0
LINE
  5
11584
  8
SU
 10
177.99999999999989
 20
202.2499999999923
 30
0.0
 11
177.99999999999989
 21
180.24999999999221
 31
0.0
  0
LINE
  5
11585
  8
SU
 10
202.99999999999989
 20
202.2499999999923
 30
0.0
 11
202.99999999999989
 21
180.24999999999221
 31
0.0
  0
LINE
  5
11586
  8
SU
 10
177.99999999999989
 20
183.2499999999923
 30
0.0
 11
202.99999999999989
 21
183.2499999999923
 31
0.0
  0
ARC
  5
11587
  8
SU
 10
177.99999999999989
 20
183.2499999999923
 30
0.0
 40
0.6
 50
0.0
 51
180.0
  0
ARC
  5
11588
  8
SU
 10
177.99999999999989
 20
183.2499999999923
 30
0.0
 40
0.6
 50
180.0
 51
0.0
  0
ARC
  5
11589
  8
SU
 10
202.99999999999989
 20
183.2499999999923
 30
0.0
 40
0.6
 50
180.0
 51
0.0
  0
ARC
  5
1158A
  8
SU
 10
202.99999999999989
 20
183.2499999999923
 30
0.0
 40
0.6
 50
0.0
 51
180.0
  0
TEXT
  5
1158B
  8
SU
 10
184.9666666666665
 20
184.54999999999231
 30
0.0
 40
7.0
  1
25
 41
0.8299999999999999
  0
LINE
  5
1158C
  8
SU
 10
213.5
 20
214.2499999999923
 30
0.0
 11
213.5
 21
180.24999999999241
 31
0.0
  0
LINE
  5
1158D
  8
SU
 10
202.99999999999989
 20
183.2499999999923
 30
0.0
 11
213.5
 21
183.24999999999241
 31
0.0
  0
LINE
  5
1158E
  8
SU
 10
213.5
 20
183.24999999999241
 30
0.0
 11
237.7766666666667
 21
183.24999999999241
 31
0.0
  0
ARC
  5
1158F
  8
SU
 10
213.5
 20
183.24999999999241
 30
0.0
 40
0.6
 50
180.0
 51
0.0
  0
ARC
  5
11590
  8
SU
 10
213.5
 20
183.24999999999241
 30
0.0
 40
0.6
 50
0.0
 51
180.0
  0
TEXT
  5
11591
  8
SU
 10
217.94
 20
184.54999999999239
 30
0.0
 40
7.0
  1
10.5
 41
0.8299999999999999
  0
LINE
  5
11592
  8
SU
 10
170.0
 20
216.99230043587971
 30
0.0
 11
170.0
 21
251.25000000000051
 31
0.0
  0
LINE
  5
11593
  8
SU
 10
210.9999999999998
 20
216.9922947421928
 30
0.0
 11
210.9999999999998
 21
251.25000000000051
 31
0.0
  0
LINE
  5
11594
  8
SU
 10
170.0
 20
248.25000000000051
 30
0.0
 11
210.9999999999998
 21
248.25000000000051
 31
0.0
  0
ARC
  5
11595
  8
SU
 10
170.0
 20
248.25000000000051
 30
0.0
 40
0.6
 50
0.0
 51
180.0
  0
ARC
  5
11596
  8
SU
 10
170.0
 20
248.25000000000051
 30
0.0
 40
0.6
 50
180.0
 51
0.0
  0
ARC
  5
11597
  8
SU
 10
210.9999999999998
 20
248.25000000000051
 30
0.0
 40
0.6
 50
180.0
 51
0.0
  0
ARC
  5
11598
  8
SU
 10
210.9999999999998
 20
248.25000000000051
 30
0.0
 40
0.6
 50
0.0
 51
180.0
  0
TEXT
  5
11599
  8
SU
 10
185.79666666666651
 20
249.55000000000049
 30
0.0
 40
7.0
  1
41
 41
0.8299999999999999
  0
LINE
  5
1159A
  8
SU
 10
213.5
 20
216.2499999999923
 30
0.0
 11
213.5
 21
251.25000000000051
 31
0.0
  0
LINE
  5
1159B
  8
SU
 10
210.9999999999998
 20
248.25000000000051
 30
0.0
 11
213.5
 21
248.25000000000051
 31
0.0
  0
LINE
  5
1159C
  8
SU
 10
213.5
 20
248.25000000000051
 30
0.0
 11
233.07333333333341
 21
248.25000000000051
 31
0.0
  0
ARC
  5
1159D
  8
SU
 10
213.5
 20
248.25000000000051
 30
0.0
 40
0.6
 50
180.0
 51
0.0
  0
ARC
  5
1159E
  8
SU
 10
213.5
 20
248.25000000000051
 30
0.0
 40
0.6
 50
0.0
 51
180.0
  0
TEXT
  5
1159F
  8
SU
 10
218.77000000000001
 20
249.55000000000049
 30
0.0
 40
7.0
  1
2.5
 41
0.8299999999999999
  0
LINE
  5
115A0
  8
SU
 10
234.5
 20
55.249999999992269
 30
0.0
 11
286.49999999999989
 21
55.249999999992269
 31
0.0
  0
LINE
  5
115A1
  8
SU
 10
283.49999999999989
 20
55.249999999992269
 30
0.0
 11
283.5
 21
165.2499999999923
 31
0.0
  0
TEXT
  5
115A2
  8
SU
 10
282.19999999999987
 20
105.90238095237321
 30
0.0
 40
10.0
  1
H
 50
90.0
 41
0.8299999999999999
  0
LINE
  5
115A3
  8
SU
 10
207.00000000000011
 20
68.250000000000455
 30
0.0
 11
271.49999999999989
 21
68.250000000000441
 31
0.0
  0
LINE
  5
115A4
  8
SU
 10
268.5
 20
68.250000000000441
 30
0.0
 11
268.5
 21
165.2499999999923
 31
0.0
  0
ARC
  5
115A5
  8
SU
 10
268.5
 20
68.250000000000441
 30
0.0
 40
0.6
 50
90.0
 51
270.0
  0
ARC
  5
115A6
  8
SU
 10
268.5
 20
68.250000000000441
 30
0.0
 40
0.6
 50
270.0
 51
90.0
  0
TEXT
  5
115A7
  8
SU
 10
267.19999999999987
 20
79.976333333329734
 30
0.0
 40
7.0
  1
ドアH（DH）=H-40
 50
90.0
 41
0.8299999999999999
  0
LINE
  5
115A8
  8
SU
 10
173.5
 20
60.049999999992217
 30
0.0
 11
271.49999999999989
 21
60.049999999992203
 31
0.0
  0
LINE
  5
115A9
  8
SU
 10
268.49999999999989
 20
68.250000000000441
 30
0.0
 11
268.49999999999989
 21
60.049999999992203
 31
0.0
  0
LINE
  5
115AA
  8
SU
 10
268.49999999999989
 20
64.149999999996325
 30
0.0
 11
253.5
 21
71.510254037840525
 31
0.0
  0
LINE
  5
115AB
  8
SU
 10
253.5
 20
71.510254037840525
 30
0.0
 11
253.5
 21
85.066254037840523
 31
0.0
  0
TEXT
  5
115AC
  8
SU
 10
252.19999999999999
 20
69.324254037840561
 30
0.0
 40
7.0
  1
（8）
 50
90.0
 41
0.8299999999999999
  0
ARC
  5
115AD
  8
SU
 10
268.49999999999989
 20
60.049999999992203
 30
0.0
 40
0.6
 50
90.0
 51
270.0
  0
ARC
  5
115AE
  8
SU
 10
268.49999999999989
 20
60.049999999992203
 30
0.0
 40
0.6
 50
270.0
 51
90.0
  0
LINE
  5
115AF
  8
SU
 10
268.49999999999977
 20
60.049999999992203
 30
0.0
 11
268.49999999999977
 21
55.249999999992269
 31
0.0
  0
LINE
  5
115B0
  8
SU
 10
268.49999999999977
 20
55.249999999992269
 30
0.0
 11
268.49999999999977
 21
36.893999999992282
 31
0.0
  0
ARC
  5
115B1
  8
SU
 10
268.49999999999977
 20
55.249999999992269
 30
0.0
 40
0.6
 50
90.0
 51
270.0
  0
ARC
  5
115B2
  8
SU
 10
268.49999999999977
 20
55.249999999992269
 30
0.0
 40
0.6
 50
270.0
 51
90.0
  0
TEXT
  5
115B3
  8
SU
 10
267.1999999999997
 20
34.707999999992317
 30
0.0
 40
7.0
  1
（5）
 50
90.0
 41
0.8299999999999999
  0
LINE
  5
115B4
  8
SU
 10
289.4999962
 20
65.249999999992269
 30
0.0
 11
277.5
 21
65.249999999992269
 31
0.0
  0
LINE
  5
115B5
  8
SU
 10
289.37999630000002
 20
65.050000199992269
 30
0.0
 11
277.6199999000001
 21
65.050000199992269
 31
0.0
  0
LINE
  5
115B6
  8
SU
 10
289.25999639999998
 20
64.850000399992268
 30
0.0
 11
277.73999979999991
 21
64.850000399992268
 31
0.0
  0
LINE
  5
115B7
  8
SU
 10
289.13999650000011
 20
64.650000599992254
 30
0.0
 11
277.8599997
 21
64.650000599992254
 31
0.0
  0
LINE
  5
115B8
  8
SU
 10
289.01999660000001
 20
64.450000799992267
 30
0.0
 11
277.97999950000002
 21
64.450000799992267
 31
0.0
  0
LINE
  5
115B9
  8
SU
 10
288.89999680000011
 20
64.250000999992267
 30
0.0
 11
278.0999994
 21
64.250000999992267
 31
0.0
  0
LINE
  5
115BA
  8
SU
 10
288.77999690000001
 20
64.050001099992272
 30
0.0
 11
278.21999929999998
 21
64.050001099992272
 31
0.0
  0
LINE
  5
115BB
  8
SU
 10
288.65999790000001
 20
63.850001299992272
 30
0.0
 11
278.33999920000002
 21
63.850001299992272
 31
0.0
  0
LINE
  5
115BC
  8
SU
 10
288.53999809999999
 20
63.650001499992271
 30
0.0
 11
278.4599991
 21
63.650001499992271
 31
0.0
  0
LINE
  5
115BD
  8
SU
 10
288.41999820000001
 20
63.450001699992271
 30
0.0
 11
278.5799990000001
 21
63.450001699992271
 31
0.0
  0
LINE
  5
115BE
  8
SU
 10
288.29999830000003
 20
63.25000189999227
 30
0.0
 11
278.69999890000003
 21
63.25000189999227
 31
0.0
  0
LINE
  5
115BF
  8
SU
 10
288.17999839999999
 20
63.05000209999227
 30
0.0
 11
278.81999869999999
 21
63.05000209999227
 31
0.0
  0
LINE
  5
115C0
  8
SU
 10
288.05999850000001
 20
62.850002299992262
 30
0.0
 11
278.93999860000002
 21
62.850002299992262
 31
0.0
  0
LINE
  5
115C1
  8
SU
 10
287.93999860000002
 20
62.650002499992269
 30
0.0
 11
279.05999850000001
 21
62.650002499992269
 31
0.0
  0
LINE
  5
115C2
  8
SU
 10
287.69999890000003
 20
62.250002899992261
 30
0.0
 11
279.29999830000003
 21
62.250002899992261
 31
0.0
  0
LINE
  5
115C3
  8
SU
 10
287.81999869999999
 20
62.450002699992268
 30
0.0
 11
279.17999839999999
 21
62.450002699992268
 31
0.0
  0
LINE
  5
115C4
  8
SU
 10
286.97999950000002
 20
61.050003999992271
 30
0.0
 11
280.01999760000001
 21
61.050003999992271
 31
0.0
  0
LINE
  5
115C5
  8
SU
 10
286.86000059999998
 20
60.85000419999227
 30
0.0
 11
280.13999750000011
 21
60.85000419999227
 31
0.0
  0
LINE
  5
115C6
  8
SU
 10
286.7400007
 20
60.65000439999227
 30
0.0
 11
280.25999739999992
 21
60.65000439999227
 31
0.0
  0
LINE
  5
115C7
  8
SU
 10
286.6200007999999
 20
60.450004599992269
 30
0.0
 11
280.37999730000001
 21
60.450004599992269
 31
0.0
  0
LINE
  5
115C8
  8
SU
 10
286.500001
 20
60.250004799992269
 30
0.0
 11
280.49999709999997
 21
60.250004799992269
 31
0.0
  0
LINE
  5
115C9
  8
SU
 10
286.38000110000002
 20
60.050004999992261
 30
0.0
 11
280.61999700000001
 21
60.050004999992261
 31
0.0
  0
LINE
  5
115CA
  8
SU
 10
286.26000120000009
 20
59.850005099992281
 30
0.0
 11
280.73999689999999
 21
59.850005099992281
 31
0.0
  0
LINE
  5
115CB
  8
SU
 10
286.14000129999999
 20
59.650005299992273
 30
0.0
 11
280.85999679999998
 21
59.650005299992273
 31
0.0
  0
LINE
  5
115CC
  8
SU
 10
286.02000140000001
 20
59.450005499992272
 30
0.0
 11
280.97999670000002
 21
59.450005499992272
 31
0.0
  0
LINE
  5
115CD
  8
SU
 10
285.90000149999997
 20
59.250005699992272
 30
0.0
 11
281.09999660000011
 21
59.250005699992272
 31
0.0
  0
LINE
  5
115CE
  8
SU
 10
285.78000159999999
 20
59.050005899992271
 30
0.0
 11
281.21999649999998
 21
59.050005899992271
 31
0.0
  0
LINE
  5
115CF
  8
SU
 10
285.66000269999989
 20
58.850006099992271
 30
0.0
 11
281.33999630000011
 21
58.850006099992271
 31
0.0
  0
LINE
  5
115D0
  8
SU
 10
285.54000280000002
 20
58.65000629999227
 30
0.0
 11
281.45999619999998
 21
58.65000629999227
 31
0.0
  0
LINE
  5
115D1
  8
SU
 10
285.42000289999999
 20
58.45000649999227
 30
0.0
 11
281.57999610000002
 21
58.45000649999227
 31
0.0
  0
LINE
  5
115D2
  8
SU
 10
285.30000310000003
 20
58.250006699992262
 30
0.0
 11
281.699996
 21
58.250006699992262
 31
0.0
  0
LINE
  5
115D3
  8
SU
 10
285.18000319999999
 20
58.050006899992269
 30
0.0
 11
281.81999589999998
 21
58.050006899992269
 31
0.0
  0
LINE
  5
115D4
  8
SU
 10
285.06000330000001
 20
57.850007099992268
 30
0.0
 11
281.93999580000002
 21
57.850007099992268
 31
0.0
  0
LINE
  5
115D5
  8
SU
 10
284.94000340000002
 20
57.650007199992267
 30
0.0
 11
282.05999569999989
 21
57.650007199992267
 31
0.0
  0
LINE
  5
115D6
  8
SU
 10
284.70000359999989
 20
57.250007599992273
 30
0.0
 11
282.2999954
 21
57.250007599992273
 31
0.0
  0
LINE
  5
115D7
  8
SU
 10
284.82000349999998
 20
57.450007399992273
 30
0.0
 11
282.17999550000002
 21
57.450007399992273
 31
0.0
  0
LINE
  5
115D8
  8
SU
 10
284.58000370000002
 20
57.050007799992272
 30
0.0
 11
282.41999529999998
 21
57.050007799992272
 31
0.0
  0
LINE
  5
115D9
  8
SU
 10
284.46000385000002
 20
56.850007999992272
 30
0.0
 11
282.53999519000001
 21
56.850007999992272
 31
0.0
  0
LINE
  5
115DA
  8
SU
 10
284.34000397
 20
56.650008199992271
 30
0.0
 11
282.65999507999999
 21
56.650008199992271
 31
0.0
  0
LINE
  5
115DB
  8
SU
 10
284.2200050400001
 20
56.450008399992271
 30
0.0
 11
282.77999496000001
 21
56.450008399992271
 31
0.0
  0
LINE
  5
115DC
  8
SU
 10
284.10000515000002
 20
56.25000859999227
 30
0.0
 11
282.89999484999998
 21
56.25000859999227
 31
0.0
  0
LINE
  5
115DD
  8
SU
 10
283.86000252000002
 20
55.850008959992259
 30
0.0
 11
283.13999461999998
 21
55.850008959992259
 31
0.0
  0
LINE
  5
115DE
  8
SU
 10
283.98000525999998
 20
56.050008769992267
 30
0.0
 11
283.01999474000002
 21
56.050008769992267
 31
0.0
  0
LINE
  5
115DF
  8
SU
 10
283.74000262999999
 20
55.650009159992273
 30
0.0
 11
283.25999451000001
 21
55.650009159992273
 31
0.0
  0
LINE
  5
115E0
  8
SU
 10
283.5000020224893
 20
55.249995819018778
 30
0.0
 11
277.50000009999991
 21
65.249999599992265
 31
0.0
  0
LINE
  5
115E1
  8
SU
 10
283.62000751000011
 20
55.450012209992281
 30
0.0
 11
283.37999249000001
 21
55.450012209992252
 31
0.0
  0
LINE
  5
115E2
  8
SU
 10
283.49999993819199
 20
55.249999819841427
 30
0.0
 11
289.4999957
 21
65.249999899992275
 31
0.0
  0
LINE
  5
115E3
  8
SU
 10
287.1000004
 20
61.250003799992271
 30
0.0
 11
279.89999769999997
 21
61.250003799992271
 31
0.0
  0
LINE
  5
115E4
  8
SU
 10
287.22000030000009
 20
61.450003599992272
 30
0.0
 11
279.77999779999999
 21
61.450003599992272
 31
0.0
  0
LINE
  5
115E5
  8
SU
 10
287.33999919999991
 20
61.650003399992272
 30
0.0
 11
279.65999790000001
 21
61.650003399992272
 31
0.0
  0
LINE
  5
115E6
  8
SU
 10
287.4599991
 20
61.850003199992273
 30
0.0
 11
279.53999809999999
 21
61.850003199992273
 31
0.0
  0
LINE
  5
115E7
  8
SU
 10
287.57999899999999
 20
62.050003099992267
 30
0.0
 11
279.41999820000001
 21
62.050003099992267
 31
0.0
  0
LINE
  5
115E8
  8
SU
 10
139.5
 20
57.449999999992222
 30
0.0
 11
139.5
 21
91.250000000000554
 31
0.0
  0
LINE
  5
115E9
  8
SU
 10
177.5
 20
57.449999999992222
 30
0.0
 11
177.5
 21
91.250000000000554
 31
0.0
  0
LINE
  5
115EA
  8
SU
 10
139.5
 20
88.250000000000568
 30
0.0
 11
177.5
 21
88.250000000000568
 31
0.0
  0
ARC
  5
115EB
  8
SU
 10
139.5
 20
88.250000000000568
 30
0.0
 40
0.6
 50
0.0
 51
180.0
  0
ARC
  5
115EC
  8
SU
 10
139.5
 20
88.250000000000568
 30
0.0
 40
0.6
 50
180.0
 51
0.0
  0
ARC
  5
115ED
  8
SU
 10
177.5
 20
88.250000000000568
 30
0.0
 40
0.6
 50
180.0
 51
0.0
  0
ARC
  5
115EE
  8
SU
 10
177.5
 20
88.250000000000568
 30
0.0
 40
0.6
 50
0.0
 51
180.0
  0
TEXT
  5
115EF
  8
SU
 10
152.96666666666661
 20
89.550000000000566
 30
0.0
 40
7.0
  1
38
 41
0.8299999999999999
  0
LINE
  5
115F0
  8
SU
 10
213.5
 20
56.249999999992269
 30
0.0
 11
213.5
 21
91.250000000000554
 31
0.0
  0
LINE
  5
115F1
  8
SU
 10
177.5
 20
88.250000000000568
 30
0.0
 11
213.5
 21
88.250000000000568
 31
0.0
  0
ARC
  5
115F4
  8
SU
 10
213.5
 20
88.250000000000568
 30
0.0
 40
0.6
 50
180.0
 51
0.0
  0
ARC
  5
115F5
  8
SU
 10
213.5
 20
88.250000000000568
 30
0.0
 40
0.6
 50
0.0
 51
180.0
  0
LINE
  5
115F6
  8
SU
 10
494.5
 20
441.25000000000028
 30
0.0
 11
546.49999999999989
 21
441.25000000000028
 31
0.0
  0
LINE
  5
115F7
  8
SU
 10
543.5
 20
441.25000000000028
 30
0.0
 11
543.5
 21
521.25000000000034
 31
0.0
  0
TEXT
  5
115F8
  8
SU
 10
542.19999999999993
 20
476.90238095238129
 30
0.0
 40
10.0
  1
H
 50
90.0
 41
0.8299999999999999
  0
LINE
  5
115F9
  8
SU
 10
467.0
 20
451.25000000000853
 30
0.0
 11
531.5
 21
451.25000000000853
 31
0.0
  0
LINE
  5
115FA
  8
SU
 10
528.5
 20
451.25000000000853
 30
0.0
 11
528.5
 21
521.25000000000034
 31
0.0
  0
ARC
  5
115FB
  8
SU
 10
528.5
 20
451.25000000000853
 30
0.0
 40
0.6
 50
90.0
 51
270.0
  0
ARC
  5
115FC
  8
SU
 10
528.5
 20
451.25000000000853
 30
0.0
 40
0.6
 50
270.0
 51
90.0
  0
TEXT
  5
115FD
  8
SU
 10
527.19999999999993
 20
465.97633333333772
 30
0.0
 40
7.0
  1
ドアH（DH）
 50
90.0
 41
0.8299999999999999
  0
LINE
  5
115FE
  8
SU
 10
466.9999680125585
 20
443.25000000000051
 30
0.0
 11
531.49999999999977
 21
443.25000000000051
 31
0.0
  0
LINE
  5
115FF
  8
SU
 10
528.49999999999989
 20
451.25000000000853
 30
0.0
 11
528.49999999999989
 21
443.25000000000051
 31
0.0
  0
ARC
  5
11600
  8
SU
 10
528.49999999999989
 20
443.25000000000051
 30
0.0
 40
0.6
 50
90.0
 51
270.0
  0
ARC
  5
11601
  8
SU
 10
528.49999999999989
 20
443.25000000000051
 30
0.0
 40
0.6
 50
270.0
 51
90.0
  0
LINE
  5
11602
  8
SU
 10
528.49999999999966
 20
441.25000000000028
 30
0.0
 11
528.49999999999966
 21
433.48816863963089
 31
0.0
  0
LINE
  5
11603
  8
SU
 10
528.49999999999966
 20
443.25000000000051
 30
0.0
 11
528.49999999999966
 21
441.25000000000028
 31
0.0
  0
ARC
  5
11604
  8
SU
 10
528.49999999999966
 20
441.25000000000028
 30
0.0
 40
0.6
 50
270.0
 51
90.0
  0
ARC
  5
11605
  8
SU
 10
528.49999999999966
 20
441.25000000000028
 30
0.0
 40
0.6
 50
90.0
 51
270.0
  0
TEXT
  5
11606
  8
SU
 10
527.1999999999997
 20
433.95816863963103
 30
0.0
 40
7.0
  1
2
 50
90.0
 41
0.8299999999999999
  0
LINE
  5
11607
  8
SU
 10
549.49999620000006
 20
451.25000000000028
 30
0.0
 11
537.5
 21
451.25000000000028
 31
0.0
  0
LINE
  5
11608
  8
SU
 10
549.3799962999999
 20
451.05000020000028
 30
0.0
 11
537.61999990000004
 21
451.05000020000028
 31
0.0
  0
LINE
  5
11609
  8
SU
 10
549.25999639999998
 20
450.85000040000028
 30
0.0
 11
537.73999979999985
 21
450.85000040000028
 31
0.0
  0
LINE
  5
1160A
  8
SU
 10
549.13999650000005
 20
450.65000060000028
 30
0.0
 11
537.8599997
 21
450.65000060000028
 31
0.0
  0
LINE
  5
1160B
  8
SU
 10
549.01999660000001
 20
450.45000080000028
 30
0.0
 11
537.97999949999985
 21
450.45000080000028
 31
0.0
  0
LINE
  5
1160C
  8
SU
 10
548.89999680000005
 20
450.25000100000028
 30
0.0
 11
538.09999939999989
 21
450.25000100000028
 31
0.0
  0
LINE
  5
1160D
  8
SU
 10
548.77999690000001
 20
450.05000110000032
 30
0.0
 11
538.21999930000004
 21
450.05000110000037
 31
0.0
  0
LINE
  5
1160E
  8
SU
 10
548.65999790000001
 20
449.85000130000032
 30
0.0
 11
538.33999919999997
 21
449.85000130000032
 31
0.0
  0
LINE
  5
1160F
  8
SU
 10
548.53999810000005
 20
449.65000150000031
 30
0.0
 11
538.45999909999989
 21
449.65000150000043
 31
0.0
  0
LINE
  5
11610
  8
SU
 10
548.4199981999999
 20
449.45000170000031
 30
0.0
 11
538.57999900000004
 21
449.45000170000031
 31
0.0
  0
LINE
  5
11611
  8
SU
 10
548.29999829999997
 20
449.25000190000031
 30
0.0
 11
538.69999889999985
 21
449.25000190000031
 31
0.0
  0
LINE
  5
11612
  8
SU
 10
548.17999840000004
 20
449.05000210000031
 30
0.0
 11
538.81999870000004
 21
449.05000210000031
 31
0.0
  0
LINE
  5
11613
  8
SU
 10
548.05999850000001
 20
448.8500023000002
 30
0.0
 11
538.93999859999985
 21
448.85000230000031
 31
0.0
  0
LINE
  5
11614
  8
SU
 10
547.93999859999985
 20
448.65000250000031
 30
0.0
 11
539.05999850000001
 21
448.65000250000043
 31
0.0
  0
LINE
  5
11615
  8
SU
 10
547.69999889999985
 20
448.25000290000031
 30
0.0
 11
539.29999829999997
 21
448.25000290000042
 31
0.0
  0
LINE
  5
11616
  8
SU
 10
547.81999870000004
 20
448.4500027000002
 30
0.0
 11
539.17999840000004
 21
448.45000270000031
 31
0.0
  0
LINE
  5
11617
  8
SU
 10
546.97999949999985
 20
447.05000400000029
 30
0.0
 11
540.01999760000001
 21
447.05000400000029
 31
0.0
  0
LINE
  5
11618
  8
SU
 10
546.86000060000003
 20
446.85000420000028
 30
0.0
 11
540.13999750000005
 21
446.85000420000028
 31
0.0
  0
LINE
  5
11619
  8
SU
 10
546.7400007
 20
446.65000440000028
 30
0.0
 11
540.25999739999997
 21
446.65000440000028
 31
0.0
  0
LINE
  5
1161A
  8
SU
 10
546.62000079999984
 20
446.45000460000028
 30
0.0
 11
540.3799972999999
 21
446.45000460000028
 31
0.0
  0
LINE
  5
1161B
  8
SU
 10
546.50000099999988
 20
446.25000480000028
 30
0.0
 11
540.49999709999986
 21
446.25000480000028
 31
0.0
  0
LINE
  5
1161C
  8
SU
 10
546.38000109999996
 20
446.05000500000028
 30
0.0
 11
540.61999700000001
 21
446.05000500000028
 31
0.0
  0
LINE
  5
1161D
  8
SU
 10
546.26000120000003
 20
445.85000510000032
 30
0.0
 11
540.73999690000005
 21
445.85000510000037
 31
0.0
  0
LINE
  5
1161E
  8
SU
 10
546.14000129999999
 20
445.65000530000032
 30
0.0
 11
540.85999679999986
 21
445.65000530000032
 31
0.0
  0
LINE
  5
1161F
  8
SU
 10
546.02000139999996
 20
445.45000550000032
 30
0.0
 11
540.97999670000002
 21
445.45000550000037
 31
0.0
  0
LINE
  5
11620
  8
SU
 10
545.90000149999992
 20
445.25000570000032
 30
0.0
 11
541.09999660000005
 21
445.25000570000032
 31
0.0
  0
LINE
  5
11621
  8
SU
 10
545.78000159999999
 20
445.05000590000031
 30
0.0
 11
541.21999649999998
 21
445.05000590000031
 31
0.0
  0
LINE
  5
11622
  8
SU
 10
545.66000269999995
 20
444.85000610000031
 30
0.0
 11
541.33999630000005
 21
444.85000610000031
 31
0.0
  0
LINE
  5
11623
  8
SU
 10
545.54000280000002
 20
444.6500063000002
 30
0.0
 11
541.45999619999986
 21
444.65000630000031
 31
0.0
  0
LINE
  5
11624
  8
SU
 10
545.42000289999987
 20
444.45000650000031
 30
0.0
 11
541.57999610000002
 21
444.45000650000043
 31
0.0
  0
LINE
  5
11625
  8
SU
 10
545.30000310000003
 20
444.25000670000031
 30
0.0
 11
541.69999600000006
 21
444.25000670000031
 31
0.0
  0
LINE
  5
11626
  8
SU
 10
545.18000319999999
 20
444.05000690000031
 30
0.0
 11
541.81999589999987
 21
444.05000690000043
 31
0.0
  0
LINE
  5
11627
  8
SU
 10
545.06000329999995
 20
443.85000710000031
 30
0.0
 11
541.93999580000002
 21
443.85000710000031
 31
0.0
  0
LINE
  5
11628
  8
SU
 10
544.94000339999991
 20
443.65000720000029
 30
0.0
 11
542.05999569999994
 21
443.65000720000029
 31
0.0
  0
LINE
  5
11629
  8
SU
 10
544.70000359999995
 20
443.25000760000029
 30
0.0
 11
542.29999539999994
 21
443.25000760000029
 31
0.0
  0
LINE
  5
1162A
  8
SU
 10
544.82000349999998
 20
443.45000740000029
 30
0.0
 11
542.17999550000002
 21
443.45000740000029
 31
0.0
  0
LINE
  5
1162B
  8
SU
 10
544.58000370000002
 20
443.05000780000029
 30
0.0
 11
542.41999529999987
 21
443.05000780000029
 31
0.0
  0
LINE
  5
1162C
  8
SU
 10
544.46000384999991
 20
442.85000800000029
 30
0.0
 11
542.53999519000001
 21
442.85000800000029
 31
0.0
  0
LINE
  5
1162D
  8
SU
 10
544.34000397
 20
442.65000820000029
 30
0.0
 11
542.65999508000004
 21
442.65000820000029
 31
0.0
  0
LINE
  5
1162E
  8
SU
 10
544.22000504000005
 20
442.45000840000029
 30
0.0
 11
542.77999495999995
 21
442.45000840000029
 31
0.0
  0
LINE
  5
1162F
  8
SU
 10
544.10000515000002
 20
442.25000860000029
 30
0.0
 11
542.89999484999987
 21
442.25000860000029
 31
0.0
  0
LINE
  5
11630
  8
SU
 10
543.86000251999985
 20
441.8500089600002
 30
0.0
 11
543.13999462000004
 21
441.85000896000031
 31
0.0
  0
LINE
  5
11631
  8
SU
 10
543.98000525999987
 20
442.05000877000032
 30
0.0
 11
543.01999474000002
 21
442.05000877000037
 31
0.0
  0
LINE
  5
11632
  8
SU
 10
543.74000263000005
 20
441.65000916000031
 30
0.0
 11
543.25999450999996
 21
441.65000916000042
 31
0.0
  0
LINE
  5
11633
  8
SU
 10
543.5000020224893
 20
441.24999581902671
 30
0.0
 11
537.50000009999997
 21
451.24999960000031
 31
0.0
  0
LINE
  5
11634
  8
SU
 10
543.62000751000005
 20
441.4500122100003
 30
0.0
 11
543.37999248999995
 21
441.4500122100003
 31
0.0
  0
LINE
  5
11635
  8
SU
 10
543.49999993819188
 20
441.24999981984939
 30
0.0
 11
549.4999957
 21
451.24999990000032
 31
0.0
  0
LINE
  5
11636
  8
SU
 10
547.1000004
 20
447.25000380000029
 30
0.0
 11
539.89999769999986
 21
447.25000380000029
 31
0.0
  0
LINE
  5
11637
  8
SU
 10
547.22000030000004
 20
447.45000360000029
 30
0.0
 11
539.77999780000005
 21
447.45000360000029
 31
0.0
  0
LINE
  5
11638
  8
SU
 10
547.33999919999997
 20
447.65000340000029
 30
0.0
 11
539.65999790000001
 21
447.65000340000029
 31
0.0
  0
LINE
  5
11639
  8
SU
 10
547.45999909999989
 20
447.85000320000029
 30
0.0
 11
539.53999810000005
 21
447.85000320000029
 31
0.0
  0
LINE
  5
1163A
  8
SU
 10
547.57999900000004
 20
448.05000310000031
 30
0.0
 11
539.4199981999999
 21
448.05000310000031
 31
0.0
  0
LINE
  5
1163B
  8
SU
 10
430.0
 20
442.99230043588773
 30
0.0
 11
430.0
 21
477.25000000000858
 31
0.0
  0
LINE
  5
1163C
  8
SU
 10
470.99999999999977
 20
442.99229474220078
 30
0.0
 11
470.99999999999977
 21
477.25000000000858
 31
0.0
  0
LINE
  5
1163D
  8
SU
 10
430.0
 20
474.25000000000858
 30
0.0
 11
470.99999999999977
 21
474.25000000000858
 31
0.0
  0
ARC
  5
1163E
  8
SU
 10
430.0
 20
474.25000000000858
 30
0.0
 40
0.6
 50
0.0
 51
180.0
  0
ARC
  5
1163F
  8
SU
 10
430.0
 20
474.25000000000858
 30
0.0
 40
0.6
 50
180.0
 51
0.0
  0
ARC
  5
11640
  8
SU
 10
470.99999999999977
 20
474.25000000000858
 30
0.0
 40
0.6
 50
180.0
 51
0.0
  0
ARC
  5
11641
  8
SU
 10
470.99999999999977
 20
474.25000000000858
 30
0.0
 40
0.6
 50
0.0
 51
180.0
  0
TEXT
  5
11642
  8
SU
 10
445.79666666666651
 20
475.55000000000859
 30
0.0
 40
7.0
  1
41
 41
0.8299999999999999
  0
LINE
  5
11643
  8
SU
 10
473.5
 20
442.25000000000028
 30
0.0
 11
473.5
 21
477.25000000000858
 31
0.0
  0
LINE
  5
11644
  8
SU
 10
470.99999999999977
 20
474.25000000000858
 30
0.0
 11
473.5
 21
474.25000000000858
 31
0.0
  0
LINE
  5
11645
  8
SU
 10
493.6881296454863
 20
474.25000000000858
 30
0.0
 11
473.5
 21
474.25000000000858
 31
0.0
  0
TEXT
  5
11646
  8
SU
 10
479.38479631215301
 20
475.55000000000859
 30
0.0
 40
7.0
  1
2.5
 41
0.8299999999999999
  0
ARC
  5
11647
  8
SU
 10
473.5
 20
474.25000000000858
 30
0.0
 40
0.6
 50
180.0
 51
0.0
  0
ARC
  5
11648
  8
SU
 10
473.5
 20
474.25000000000858
 30
0.0
 40
0.6
 50
0.0
 51
180.0
  0
LINE
  5
11649
  8
SU
 10
494.5
 20
429.25000000000028
 30
0.0
 11
546.49999999999989
 21
429.25000000000028
 31
0.0
  0
LINE
  5
1164A
  8
SU
 10
543.5
 20
441.25000000000028
 30
0.0
 11
543.5
 21
429.25000000000028
 31
0.0
  0
ARC
  5
1164B
  8
SU
 10
543.5
 20
429.25000000000028
 30
0.0
 40
0.6
 50
90.0
 51
270.0
  0
ARC
  5
1164C
  8
SU
 10
543.5
 20
429.25000000000028
 30
0.0
 40
0.6
 50
270.0
 51
90.0
  0
TEXT
  5
1164D
  8
SU
 10
542.19999999999993
 20
429.30166666666702
 30
0.0
 40
7.0
  1
12
 50
90.0
 41
0.8299999999999999
  0
LINE
  5
1164E
  8
SU
 10
754.49999999999989
 20
441.25000000000028
 30
0.0
 11
806.49999999999989
 21
441.25000000000028
 31
0.0
  0
LINE
  5
1164F
  8
SU
 10
803.5
 20
441.25000000000028
 30
0.0
 11
803.5
 21
521.25000000000023
 31
0.0
  0
TEXT
  5
11650
  8
SU
 10
802.20000000000005
 20
476.90238095238129
 30
0.0
 40
10.0
  1
H
 50
90.0
 41
0.8299999999999999
  0
LINE
  5
11651
  8
SU
 10
727.00000000000011
 20
451.25000000000853
 30
0.0
 11
791.5
 21
451.25000000000853
 31
0.0
  0
LINE
  5
11652
  8
SU
 10
788.49999999999977
 20
451.25000000000853
 30
0.0
 11
788.49999999999989
 21
521.25000000000023
 31
0.0
  0
ARC
  5
11653
  8
SU
 10
788.49999999999989
 20
451.25000000000853
 30
0.0
 40
0.6
 50
90.0
 51
270.0
  0
ARC
  5
11654
  8
SU
 10
788.49999999999989
 20
451.25000000000853
 30
0.0
 40
0.6
 50
270.0
 51
90.0
  0
TEXT
  5
11655
  8
SU
 10
787.19999999999993
 20
465.97633333333772
 30
0.0
 40
7.0
  1
ドアH（DH）
 50
90.0
 41
0.8299999999999999
  0
LINE
  5
11656
  8
SU
 10
731.5
 20
444.25000000000028
 30
0.0
 11
791.49999999999989
 21
444.25000000000028
 31
0.0
  0
LINE
  5
11657
  8
SU
 10
788.49999999999977
 20
451.25000000000853
 30
0.0
 11
788.49999999999977
 21
444.25000000000028
 31
0.0
  0
ARC
  5
11658
  8
SU
 10
788.49999999999977
 20
444.25000000000028
 30
0.0
 40
0.6
 50
90.0
 51
270.0
  0
ARC
  5
11659
  8
SU
 10
788.49999999999977
 20
444.25000000000028
 30
0.0
 40
0.6
 50
270.0
 51
90.0
  0
LINE
  5
1165A
  8
SU
 10
788.49999999999977
 20
444.25000000000028
 30
0.0
 11
788.49999999999977
 21
441.25000000000028
 31
0.0
  0
LINE
  5
1165B
  8
SU
 10
788.49999999999977
 20
441.25000000000028
 30
0.0
 11
788.49999999999977
 21
432.87346598079688
 31
0.0
  0
ARC
  5
1165C
  8
SU
 10
788.49999999999977
 20
441.25000000000028
 30
0.0
 40
0.6
 50
90.0
 51
270.0
  0
ARC
  5
1165D
  8
SU
 10
788.49999999999977
 20
441.25000000000028
 30
0.0
 40
0.6
 50
270.0
 51
90.0
  0
TEXT
  5
1165E
  8
SU
 10
787.1999999999997
 20
433.34346598079708
 30
0.0
 40
7.0
  1
3
 50
90.0
 41
0.8299999999999999
  0
LINE
  5
1165F
  8
SU
 10
809.49999620000006
 20
451.25000000000028
 30
0.0
 11
797.5
 21
451.25000000000028
 31
0.0
  0
LINE
  5
11660
  8
SU
 10
809.37999630000002
 20
451.05000020000028
 30
0.0
 11
797.61999990000004
 21
451.05000020000028
 31
0.0
  0
LINE
  5
11661
  8
SU
 10
809.25999639999986
 20
450.85000040000028
 30
0.0
 11
797.73999979999996
 21
450.85000040000028
 31
0.0
  0
LINE
  5
11662
  8
SU
 10
809.13999650000005
 20
450.65000060000028
 30
0.0
 11
797.85999969999989
 21
450.65000060000028
 31
0.0
  0
LINE
  5
11663
  8
SU
 10
809.01999660000001
 20
450.45000080000028
 30
0.0
 11
797.97999949999985
 21
450.45000080000028
 31
0.0
  0
LINE
  5
11664
  8
SU
 10
808.89999680000005
 20
450.25000100000028
 30
0.0
 11
798.0999994
 21
450.25000100000028
 31
0.0
  0
LINE
  5
11665
  8
SU
 10
808.77999690000001
 20
450.05000110000032
 30
0.0
 11
798.21999930000004
 21
450.05000110000037
 31
0.0
  0
LINE
  5
11666
  8
SU
 10
808.65999790000001
 20
449.85000130000032
 30
0.0
 11
798.33999919999985
 21
449.85000130000032
 31
0.0
  0
LINE
  5
11667
  8
SU
 10
808.53999810000005
 20
449.65000150000031
 30
0.0
 11
798.4599991
 21
449.65000150000043
 31
0.0
  0
LINE
  5
11668
  8
SU
 10
808.4199981999999
 20
449.45000170000031
 30
0.0
 11
798.57999900000004
 21
449.45000170000031
 31
0.0
  0
LINE
  5
11669
  8
SU
 10
808.29999829999997
 20
449.25000190000031
 30
0.0
 11
798.69999889999997
 21
449.25000190000031
 31
0.0
  0
LINE
  5
1166A
  8
SU
 10
808.17999839999993
 20
449.05000210000031
 30
0.0
 11
798.81999870000004
 21
449.05000210000031
 31
0.0
  0
LINE
  5
1166B
  8
SU
 10
808.05999850000001
 20
448.8500023000002
 30
0.0
 11
798.93999859999985
 21
448.85000230000031
 31
0.0
  0
LINE
  5
1166C
  8
SU
 10
807.93999859999997
 20
448.65000250000031
 30
0.0
 11
799.05999850000001
 21
448.65000250000043
 31
0.0
  0
LINE
  5
1166D
  8
SU
 10
807.69999889999985
 20
448.25000290000031
 30
0.0
 11
799.29999829999986
 21
448.25000290000042
 31
0.0
  0
LINE
  5
1166E
  8
SU
 10
807.81999870000016
 20
448.4500027000002
 30
0.0
 11
799.17999840000004
 21
448.45000270000031
 31
0.0
  0
LINE
  5
1166F
  8
SU
 10
806.97999949999996
 20
447.05000400000029
 30
0.0
 11
800.01999760000012
 21
447.05000400000029
 31
0.0
  0
LINE
  5
11670
  8
SU
 10
806.86000060000003
 20
446.85000420000028
 30
0.0
 11
800.13999749999994
 21
446.85000420000028
 31
0.0
  0
LINE
  5
11671
  8
SU
 10
806.74000069999988
 20
446.65000440000028
 30
0.0
 11
800.25999739999997
 21
446.65000440000028
 31
0.0
  0
LINE
  5
11672
  8
SU
 10
806.62000079999984
 20
446.45000460000028
 30
0.0
 11
800.3799972999999
 21
446.45000460000028
 31
0.0
  0
LINE
  5
11673
  8
SU
 10
806.500001
 20
446.25000480000028
 30
0.0
 11
800.49999709999997
 21
446.25000480000028
 31
0.0
  0
LINE
  5
11674
  8
SU
 10
806.38000109999984
 20
446.05000500000028
 30
0.0
 11
800.61999700000001
 21
446.05000500000028
 31
0.0
  0
LINE
  5
11675
  8
SU
 10
806.26000120000003
 20
445.85000510000032
 30
0.0
 11
800.73999690000005
 21
445.85000510000037
 31
0.0
  0
LINE
  5
11676
  8
SU
 10
806.14000129999999
 20
445.65000530000032
 30
0.0
 11
800.85999679999998
 21
445.65000530000032
 31
0.0
  0
LINE
  5
11677
  8
SU
 10
806.02000139999996
 20
445.45000550000032
 30
0.0
 11
800.97999670000013
 21
445.45000550000037
 31
0.0
  0
LINE
  5
11678
  8
SU
 10
805.90000150000003
 20
445.25000570000032
 30
0.0
 11
801.09999659999994
 21
445.25000570000032
 31
0.0
  0
LINE
  5
11679
  8
SU
 10
805.78000159999988
 20
445.05000590000031
 30
0.0
 11
801.21999649999998
 21
445.05000590000031
 31
0.0
  0
LINE
  5
1167A
  8
SU
 10
805.66000269999995
 20
444.85000610000031
 30
0.0
 11
801.33999630000005
 21
444.85000610000031
 31
0.0
  0
LINE
  5
1167B
  8
SU
 10
805.54000280000014
 20
444.6500063000002
 30
0.0
 11
801.45999619999998
 21
444.65000630000031
 31
0.0
  0
LINE
  5
1167C
  8
SU
 10
805.42000289999999
 20
444.45000650000031
 30
0.0
 11
801.57999610000002
 21
444.45000650000043
 31
0.0
  0
LINE
  5
1167D
  8
SU
 10
805.30000309999991
 20
444.25000670000031
 30
0.0
 11
801.69999600000006
 21
444.25000670000031
 31
0.0
  0
LINE
  5
1167E
  8
SU
 10
805.18000319999987
 20
444.05000690000031
 30
0.0
 11
801.81999589999998
 21
444.05000690000043
 31
0.0
  0
LINE
  5
1167F
  8
SU
 10
805.06000329999995
 20
443.85000710000031
 30
0.0
 11
801.93999580000013
 21
443.85000710000031
 31
0.0
  0
LINE
  5
11680
  8
SU
 10
804.94000339999991
 20
443.65000720000029
 30
0.0
 11
802.05999569999994
 21
443.65000720000029
 31
0.0
  0
LINE
  5
11681
  8
SU
 10
804.70000359999995
 20
443.25000760000029
 30
0.0
 11
802.29999539999994
 21
443.25000760000029
 31
0.0
  0
LINE
  5
11682
  8
SU
 10
804.82000349999998
 20
443.45000740000029
 30
0.0
 11
802.17999550000002
 21
443.45000740000029
 31
0.0
  0
LINE
  5
11683
  8
SU
 10
804.58000370000013
 20
443.05000780000029
 30
0.0
 11
802.41999529999998
 21
443.05000780000029
 31
0.0
  0
LINE
  5
11684
  8
SU
 10
804.46000385000002
 20
442.85000800000029
 30
0.0
 11
802.53999519000001
 21
442.85000800000029
 31
0.0
  0
LINE
  5
11685
  8
SU
 10
804.34000396999988
 20
442.65000820000029
 30
0.0
 11
802.65999508000004
 21
442.65000820000029
 31
0.0
  0
LINE
  5
11686
  8
SU
 10
804.22000503999993
 20
442.45000840000029
 30
0.0
 11
802.77999495999995
 21
442.45000840000029
 31
0.0
  0
LINE
  5
11687
  8
SU
 10
804.10000515000013
 20
442.25000860000029
 30
0.0
 11
802.89999484999987
 21
442.25000860000029
 31
0.0
  0
LINE
  5
11688
  8
SU
 10
803.86000251999985
 20
441.8500089600002
 30
0.0
 11
803.13999462000004
 21
441.85000896000031
 31
0.0
  0
LINE
  5
11689
  8
SU
 10
803.98000525999998
 20
442.05000877000032
 30
0.0
 11
803.0199947399999
 21
442.05000877000037
 31
0.0
  0
LINE
  5
1168A
  8
SU
 10
803.74000263000005
 20
441.65000916000031
 30
0.0
 11
803.25999450999996
 21
441.65000916000042
 31
0.0
  0
LINE
  5
1168B
  8
SU
 10
803.5000020224893
 20
441.24999581902671
 30
0.0
 11
797.50000009999985
 21
451.24999960000031
 31
0.0
  0
LINE
  5
1168C
  8
SU
 10
803.62000751000005
 20
441.4500122100003
 30
0.0
 11
803.37999248999995
 21
441.4500122100003
 31
0.0
  0
LINE
  5
1168D
  8
SU
 10
803.49999993819199
 20
441.24999981984939
 30
0.0
 11
809.4999957
 21
451.24999990000032
 31
0.0
  0
LINE
  5
1168E
  8
SU
 10
807.1000004
 20
447.25000380000029
 30
0.0
 11
799.89999769999986
 21
447.25000380000029
 31
0.0
  0
LINE
  5
1168F
  8
SU
 10
807.22000030000004
 20
447.45000360000029
 30
0.0
 11
799.77999780000005
 21
447.45000360000029
 31
0.0
  0
LINE
  5
11690
  8
SU
 10
807.33999919999997
 20
447.65000340000029
 30
0.0
 11
799.65999789999989
 21
447.65000340000029
 31
0.0
  0
LINE
  5
11691
  8
SU
 10
807.45999909999989
 20
447.85000320000029
 30
0.0
 11
799.53999810000005
 21
447.85000320000029
 31
0.0
  0
LINE
  5
11692
  8
SU
 10
807.57999900000004
 20
448.05000310000031
 30
0.0
 11
799.41999820000001
 21
448.05000310000031
 31
0.0
  0
LINE
  5
11693
  8
SU
 10
754.49999999999989
 20
429.25000000000028
 30
0.0
 11
806.49999999999989
 21
429.25000000000028
 31
0.0
  0
LINE
  5
11694
  8
SU
 10
803.5
 20
441.25000000000028
 30
0.0
 11
803.5
 21
429.25000000000028
 31
0.0
  0
ARC
  5
11695
  8
SU
 10
803.5
 20
429.25000000000028
 30
0.0
 40
0.6
 50
90.0
 51
270.0
  0
ARC
  5
11696
  8
SU
 10
803.5
 20
429.25000000000028
 30
0.0
 40
0.6
 50
270.0
 51
90.0
  0
TEXT
  5
11697
  8
SU
 10
802.20000000000005
 20
429.30166666666702
 30
0.0
 40
7.0
  1
12
 50
90.0
 41
0.8299999999999999
  0
LINE
  5
11698
  8
SU
 10
437.99999999999977
 20
428.25000000000011
 30
0.0
 11
437.99999999999977
 21
406.25
 31
0.0
  0
LINE
  5
11699
  8
SU
 10
462.99999999999977
 20
428.25000000000011
 30
0.0
 11
462.99999999999977
 21
406.25
 31
0.0
  0
LINE
  5
1169A
  8
SU
 10
437.99999999999977
 20
409.25000000000011
 30
0.0
 11
462.99999999999977
 21
409.25000000000011
 31
0.0
  0
ARC
  5
1169B
  8
SU
 10
437.99999999999977
 20
409.25000000000011
 30
0.0
 40
0.6
 50
0.0
 51
180.0
  0
ARC
  5
1169C
  8
SU
 10
437.99999999999977
 20
409.25000000000011
 30
0.0
 40
0.6
 50
180.0
 51
0.0
  0
ARC
  5
1169D
  8
SU
 10
462.99999999999977
 20
409.25000000000011
 30
0.0
 40
0.6
 50
180.0
 51
0.0
  0
ARC
  5
1169E
  8
SU
 10
462.99999999999977
 20
409.25000000000011
 30
0.0
 40
0.6
 50
0.0
 51
180.0
  0
TEXT
  5
1169F
  8
SU
 10
444.96666666666641
 20
410.55000000000013
 30
0.0
 40
7.0
  1
25
 41
0.8299999999999999
  0
LINE
  5
116A0
  8
SU
 10
473.49999999999977
 20
428.25000000000028
 30
0.0
 11
473.49999999999977
 21
406.25000000000023
 31
0.0
  0
LINE
  5
116A1
  8
SU
 10
462.99999999999977
 20
409.25000000000023
 30
0.0
 11
473.49999999999977
 21
409.25000000000023
 31
0.0
  0
LINE
  5
116A2
  8
SU
 10
473.49999999999977
 20
409.25000000000023
 30
0.0
 11
497.77666666666647
 21
409.25000000000023
 31
0.0
  0
ARC
  5
116A3
  8
SU
 10
473.49999999999977
 20
409.25000000000023
 30
0.0
 40
0.6
 50
180.0
 51
0.0
  0
ARC
  5
116A4
  8
SU
 10
473.49999999999977
 20
409.25000000000023
 30
0.0
 40
0.6
 50
0.0
 51
180.0
  0
TEXT
  5
116A5
  8
SU
 10
477.93999999999983
 20
410.55000000000018
 30
0.0
 40
7.0
  1
10.5
 41
0.8299999999999999
  0
LINE
  5
116A6
  8
SU
 10
584.49999999999989
 20
428.25000000000841
 30
0.0
 11
584.49999999999989
 21
406.25000000000023
 31
0.0
  0
LINE
  5
116A7
  8
SU
 10
730.49999999999989
 20
428.25000000000028
 30
0.0
 11
730.49999999999989
 21
406.25000000000023
 31
0.0
  0
LINE
  5
116A8
  8
SU
 10
584.49999999999989
 20
409.25000000000023
 30
0.0
 11
730.49999999999989
 21
409.25000000000023
 31
0.0
  0
ARC
  5
116A9
  8
SU
 10
584.49999999999989
 20
409.25000000000023
 30
0.0
 40
0.6
 50
0.0
 51
180.0
  0
ARC
  5
116AA
  8
SU
 10
584.49999999999989
 20
409.25000000000023
 30
0.0
 40
0.6
 50
180.0
 51
0.0
  0
ARC
  5
116AB
  8
SU
 10
730.49999999999989
 20
409.25000000000023
 30
0.0
 40
0.6
 50
180.0
 51
0.0
  0
ARC
  5
116AC
  8
SU
 10
730.49999999999989
 20
409.25000000000023
 30
0.0
 40
0.6
 50
0.0
 51
180.0
  0
TEXT
  5
116AD
  8
SU
 10
648.78499999999997
 20
410.55000000000018
 30
0.0
 40
7.0
  1
146
 41
0.8299999999999999
  0
LINE
  5
116AE
  8
SU
 10
581.5
 20
428.25000000000841
 30
0.0
 11
581.5
 21
406.24999999999989
 31
0.0
  0
LINE
  5
116AF
  8
SU
 10
584.49999999999989
 20
409.24999999999989
 30
0.0
 11
581.5
 21
409.24999999999989
 31
0.0
  0
LINE
  5
116B0
  8
SU
 10
581.5
 20
409.24999999999989
 30
0.0
 11
570.22666666666657
 21
409.24999999999989
 31
0.0
  0
ARC
  5
116B1
  8
SU
 10
581.5
 20
409.24999999999989
 30
0.0
 40
0.6
 50
0.0
 51
180.0
  0
ARC
  5
116B2
  8
SU
 10
581.5
 20
409.24999999999989
 30
0.0
 40
0.6
 50
180.0
 51
0.0
  0
TEXT
  5
116B3
  8
SU
 10
570.69666666666672
 20
410.5499999999999
 30
0.0
 40
7.0
  1
3
 41
0.8299999999999999
  0
LINE
  5
116B4
  8
SU
 10
733.49999999999989
 20
428.25000000000841
 30
0.0
 11
733.49999999999989
 21
406.25
 31
0.0
  0
LINE
  5
116B5
  8
SU
 10
730.49999999999989
 20
409.25
 30
0.0
 11
733.49999999999989
 21
409.25
 31
0.0
  0
LINE
  5
116B6
  8
SU
 10
733.49999999999989
 20
409.25
 30
0.0
 11
744.7733333333332
 21
409.25
 31
0.0
  0
ARC
  5
116B7
  8
SU
 10
733.49999999999989
 20
409.25
 30
0.0
 40
0.6
 50
180.0
 51
0.0
  0
ARC
  5
116B8
  8
SU
 10
733.49999999999989
 20
409.25
 30
0.0
 40
0.6
 50
0.0
 51
180.0
  0
TEXT
  5
116B9
  8
SU
 10
738.76999999999987
 20
410.55000000000013
 30
0.0
 40
7.0
  1
3
 41
0.8299999999999999
  0
TEXT
  5
116BA
  8
MJ
 10
321.5
 20
546.25000000000034
 30
0.0
 40
7.0
  1
伸ばし枠
 41
0.8299999999999999
  0
LINE
  5
116BB
  8
SU
 10
77.162121764816206
 20
248.25000000000051
 30
0.0
 11
153.94586558246959
 21
248.25000000000051
 31
0.0
  0
TEXT
  5
116BC
  8
SU
 10
78.137931560213914
 20
250.52500000000049
 30
0.0
 40
7.0
  1
埋込沓摺（床先張り用）
 41
0.8299999999999999
  0
TEXT
  5
116BD
  8
SU
 10
78.137931560213914
 20
238.97500000000039
 30
0.0
 40
7.0
  1
［オプション］
 41
0.8299999999999999
  0
LINE
  5
116BE
  8
SU
 10
153.94586558246959
 20
248.25000000000051
 30
0.0
 11
172.1750198687059
 21
216.6761785972264
 31
0.0
  0
LINE
  5
116BF
  8
SU
 10
172.1750198687059
 20
216.6761785972264
 30
0.0
 11
170.7020355797944
 21
218.59573730467761
 31
0.0
  0
LINE
  5
116C0
  8
SU
 10
172.1750198687059
 20
216.6761785972264
 30
0.0
 11
171.2487905332334
 21
218.9121797854198
 31
0.0
  0
LINE
  5
116C1
  8
SU
 10
41.148529397468742
 20
88.250000000000568
 30
0.0
 11
124.82661606296369
 21
88.250000000000554
 31
0.0
  0
TEXT
  5
116C2
  8
SU
 10
42.124339192866451
 20
90.525000000000574
 30
0.0
 40
7.0
  1
直張り沓摺（床先張り用）
 41
0.8299999999999999
  0
TEXT
  5
116C3
  8
SU
 10
42.124339192866451
 20
78.975000000000577
 30
0.0
 40
7.0
  1
［オプション］
 41
0.8299999999999999
  0
LINE
  5
116C4
  8
SU
 10
124.82661606296369
 20
88.250000000000554
 30
0.0
 11
142.1039238185387
 21
58.324825149340107
 31
0.0
  0
LINE
  5
116C5
  8
SU
 10
142.1039238185387
 20
58.324825149340107
 30
0.0
 11
140.63093952962711
 21
60.244383856791359
 31
0.0
  0
LINE
  5
116C6
  8
SU
 10
142.1039238185387
 20
58.324825149340107
 30
0.0
 11
141.1776944830662
 21
60.560826337533548
 31
0.0
  0
LINE
  5
116C7
  8
SU
 10
337.38380983652161
 20
474.25000000000841
 30
0.0
 11
413.94586558246971
 21
474.25000000000841
 31
0.0
  0
TEXT
  5
116C8
  8
SU
 10
338.35961963191932
 20
476.52500000000862
 30
0.0
 40
7.0
  1
埋込沓摺（床先張り用）
 41
0.8299999999999999
  0
TEXT
  5
116C9
  8
SU
 10
338.35961963191932
 20
464.97500000000849
 30
0.0
 40
7.0
  1
［オプション］
 41
0.8299999999999999
  0
LINE
  5
116CA
  8
SU
 10
413.94586558246971
 20
474.25000000000841
 30
0.0
 11
432.17501986870587
 21
442.67617859723441
 31
0.0
  0
LINE
  5
116CB
  8
SU
 10
432.17501986870587
 20
442.67617859723441
 30
0.0
 11
430.70203557979431
 21
444.5957373046856
 31
0.0
  0
LINE
  5
116CC
  8
SU
 10
432.17501986870587
 20
442.67617859723441
 30
0.0
 11
431.24879053323338
 21
444.91217978542778
 31
0.0
  0
LINE
  5
116CD
  8
SU
 10
591.14415759718065
 20
474.25000000000858
 30
0.0
 11
659.50084985663864
 21
474.25000000000858
 31
0.0
  0
TEXT
  5
116CE
  8
SU
 10
592.11996739257825
 20
476.52500000000862
 30
0.0
 40
7.0
  1
薄沓摺（床後張り用）
 41
0.8299999999999999
  0
TEXT
  5
116CF
  8
SU
 10
592.11996739257825
 20
464.97500000000872
 30
0.0
 40
7.0
  1
［オプション］
 41
0.8299999999999999
  0
LINE
  5
116D0
  8
SU
 10
659.50084985663852
 20
474.25000000000858
 30
0.0
 11
679.21350284793868
 21
440.10668346710162
 31
0.0
  0
LINE
  5
116D1
  8
SU
 10
679.21350284793868
 20
440.10668346710162
 30
0.0
 11
677.74051855902724
 21
442.02624217455292
 31
0.0
  0
LINE
  5
116D2
  8
SU
 10
679.21350284793868
 20
440.10668346710162
 30
0.0
 11
678.28727351246619
 21
442.3426846552951
 31
0.0
  0
LINE
  5
116D3
  8
KI1
 10
153.00000099999991
 20
421.24999999999221
 30
0.0
 11
67.0
 21
421.24999999999233
 31
0.0
  0
LINE
  5
116D4
  8
KI1
 10
64.5
 20
445.24999999999221
 30
0.0
 11
210.5
 21
445.24999999999221
 31
0.0
  0
LINE
  5
116D5
  8
KI1
 10
64.5
 20
423.74999999999221
 30
0.0
 11
67.0
 21
421.24999999999233
 31
0.0
1001
GENIUS_GENFIL_13
1070
     0
1040
2.5
1040
2.5
1040
20.0
1040
0.0
1002
{
1002
}
1001
GENIUS_GENOBJ-N-CHA_13
1002
{
1000
OWNER
1000
GEN
1002
}
1001
GENIUS_GENODEF_13
1002
{
1000
HIER
1070
     0
1002
}
1002
{
1000
MANEDIT
1070
     0
1002
}
1002
{
1000
NOSEL
1070
     0
1002
}
1002
{
1000
BEHIND
1070
     0
1002
}
1002
{
1000
OTHER
1070
     0
1002
}
1002
{
1000
REACTOR
1002
}
  0
LINE
  5
116D6
  8
KI1
 10
64.5
 20
423.74999999999221
 30
0.0
 11
64.5
 21
445.24999999999221
 31
0.0
  0
LINE
  5
116D7
  8
KI1
 10
208.0
 20
421.24999999999233
 30
0.0
 11
168.99999900000009
 21
421.24999999999233
 31
0.0
  0
LINE
  5
116D8
  8
KI1
 10
210.5
 20
423.74999999999221
 30
0.0
 11
208.0
 21
421.24999999999233
 31
0.0
1001
GENIUS_GENFIL_13
1070
     0
1040
2.5
1040
2.5
1040
20.0
1040
0.0
1002
{
1002
}
1001
GENIUS_GENOBJ-N-CHA_13
1002
{
1000
OWNER
1000
GEN
1002
}
1001
GENIUS_GENODEF_13
1002
{
1000
HIER
1070
     0
1002
}
1002
{
1000
MANEDIT
1070
     0
1002
}
1002
{
1000
NOSEL
1070
     0
1002
}
1002
{
1000
BEHIND
1070
     0
1002
}
1002
{
1000
OTHER
1070
     0
1002
}
1002
{
1000
REACTOR
1002
}
  0
LINE
  5
116D9
  8
KI1
 10
210.5
 20
445.24999999999221
 30
0.0
 11
210.5
 21
423.74999999999221
 31
0.0
  0
LINE
  5
116DA
  8
OS
 10
64.500000000000014
 20
442.22474683057538
 30
0.0
 11
67.525253169416857
 21
445.24999999999233
 31
0.0
1001
GENIUS_GENODEF_13
1002
{
1000
HIER
1070
     0
1002
}
1002
{
1000
MANEDIT
1070
     0
1002
}
1002
{
1000
NOSEL
1070
     0
1002
}
1002
{
1000
BEHIND
1070
     0
1002
}
1002
{
1000
OTHER
1070
     0
1002
}
1002
{
1000
REACTOR
1002
}
1001
GENIUS_GENOBJ-N-HTC_13
1002
{
1000
OWNER
1000
GEN
1002
}
1001
GENIUS_GENHATCH_13
1002
{
1000
DATA
1040
45.0
1042
2.5
1000
_U
1070
     0
1011
130.1058400677411
1021
0.0
1031
0.0
1021
433.29051750791461
1031
0.0
1002
}
1002
{
1000
UCS
1010
0.0
1020
0.0
1030
0.0
1010
1.0
1020
0.0
1030
0.0
1010
0.0
1020
1.0
1030
0.0
1002
}
1001
ACAD
1010
0.0
1020
0.0
1030
0.0
  0
LINE
  5
116DB
  8
OS
 10
64.500000000000014
 20
432.32525189396381
 30
0.0
 11
77.424748106028503
 21
445.24999999999221
 31
0.0
1001
GENIUS_GENODEF_13
1002
{
1000
HIER
1070
     0
1002
}
1002
{
1000
MANEDIT
1070
     0
1002
}
1002
{
1000
NOSEL
1070
     0
1002
}
1002
{
1000
BEHIND
1070
     0
1002
}
1002
{
1000
OTHER
1070
     0
1002
}
1002
{
1000
REACTOR
1002
}
1001
GENIUS_GENOBJ-N-HTC_13
1002
{
1000
OWNER
1000
GEN
1002
}
1001
GENIUS_GENHATCH_13
1002
{
1000
DATA
1040
45.0
1042
2.5
1000
_U
1070
     0
1011
130.1058400677411
1021
0.0
1031
0.0
1021
433.29051750791461
1031
0.0
1002
}
1002
{
1000
UCS
1010
0.0
1020
0.0
1030
0.0
1010
1.0
1020
0.0
1030
0.0
1010
0.0
1020
1.0
1030
0.0
1002
}
1001
ACAD
1010
0.0
1020
0.0
1030
0.0
  0
LINE
  5
116DC
  8
OS
 10
65.162121521320103
 20
423.08787847867211
 30
0.0
 11
87.324243042640205
 21
445.24999999999221
 31
0.0
1001
GENIUS_GENODEF_13
1002
{
1000
HIER
1070
     0
1002
}
1002
{
1000
MANEDIT
1070
     0
1002
}
1002
{
1000
NOSEL
1070
     0
1002
}
1002
{
1000
BEHIND
1070
     0
1002
}
1002
{
1000
OTHER
1070
     0
1002
}
1002
{
1000
REACTOR
1002
}
1001
GENIUS_GENOBJ-N-HTC_13
1002
{
1000
OWNER
1000
GEN
1002
}
1001
GENIUS_GENHATCH_13
1002
{
1000
DATA
1040
45.0
1042
2.5
1000
_U
1070
     0
1011
130.1058400677411
1021
0.0
1031
0.0
1021
433.29051750791461
1031
0.0
1002
}
1002
{
1000
UCS
1010
0.0
1020
0.0
1030
0.0
1010
1.0
1020
0.0
1030
0.0
1010
0.0
1020
1.0
1030
0.0
1002
}
1001
ACAD
1010
0.0
1020
0.0
1030
0.0
  0
LINE
  5
116DD
  8
OS
 10
73.223737979251894
 20
421.24999999999233
 30
0.0
 11
97.223737979251865
 21
445.24999999999221
 31
0.0
1001
GENIUS_GENODEF_13
1002
{
1000
HIER
1070
     0
1002
}
1002
{
1000
MANEDIT
1070
     0
1002
}
1002
{
1000
NOSEL
1070
     0
1002
}
1002
{
1000
BEHIND
1070
     0
1002
}
1002
{
1000
OTHER
1070
     0
1002
}
1002
{
1000
REACTOR
1002
}
1001
GENIUS_GENOBJ-N-HTC_13
1002
{
1000
OWNER
1000
GEN
1002
}
1001
GENIUS_GENHATCH_13
1002
{
1000
DATA
1040
45.0
1042
2.5
1000
_U
1070
     0
1011
130.1058400677411
1021
0.0
1031
0.0
1021
433.29051750791461
1031
0.0
1002
}
1002
{
1000
UCS
1010
0.0
1020
0.0
1030
0.0
1010
1.0
1020
0.0
1030
0.0
1010
0.0
1020
1.0
1030
0.0
1002
}
1001
ACAD
1010
0.0
1020
0.0
1030
0.0
  0
LINE
  5
116DE
  8
OS
 10
83.123232915863554
 20
421.24999999999233
 30
0.0
 11
107.1232329158635
 21
445.24999999999221
 31
0.0
1001
GENIUS_GENODEF_13
1002
{
1000
HIER
1070
     0
1002
}
1002
{
1000
MANEDIT
1070
     0
1002
}
1002
{
1000
NOSEL
1070
     0
1002
}
1002
{
1000
BEHIND
1070
     0
1002
}
1002
{
1000
OTHER
1070
     0
1002
}
1002
{
1000
REACTOR
1002
}
1001
GENIUS_GENOBJ-N-HTC_13
1002
{
1000
OWNER
1000
GEN
1002
}
1001
GENIUS_GENHATCH_13
1002
{
1000
DATA
1040
45.0
1042
2.5
1000
_U
1070
     0
1011
130.1058400677411
1021
0.0
1031
0.0
1021
433.29051750791461
1031
0.0
1002
}
1002
{
1000
UCS
1010
0.0
1020
0.0
1030
0.0
1010
1.0
1020
0.0
1030
0.0
1010
0.0
1020
1.0
1030
0.0
1002
}
1001
ACAD
1010
0.0
1020
0.0
1030
0.0
  0
LINE
  5
116DF
  8
OS
 10
93.022727852475185
 20
421.24999999999221
 30
0.0
 11
117.0227278524752
 21
445.24999999999221
 31
0.0
1001
GENIUS_GENODEF_13
1002
{
1000
HIER
1070
     0
1002
}
1002
{
1000
MANEDIT
1070
     0
1002
}
1002
{
1000
NOSEL
1070
     0
1002
}
1002
{
1000
BEHIND
1070
     0
1002
}
1002
{
1000
OTHER
1070
     0
1002
}
1002
{
1000
REACTOR
1002
}
1001
GENIUS_GENOBJ-N-HTC_13
1002
{
1000
OWNER
1000
GEN
1002
}
1001
GENIUS_GENHATCH_13
1002
{
1000
DATA
1040
45.0
1042
2.5
1000
_U
1070
     0
1011
130.1058400677411
1021
0.0
1031
0.0
1021
433.29051750791461
1031
0.0
1002
}
1002
{
1000
UCS
1010
0.0
1020
0.0
1030
0.0
1010
1.0
1020
0.0
1030
0.0
1010
0.0
1020
1.0
1030
0.0
1002
}
1001
ACAD
1010
0.0
1020
0.0
1030
0.0
  0
LINE
  5
116E0
  8
OS
 10
102.9222227890868
 20
421.24999999999233
 30
0.0
 11
126.9222227890868
 21
445.24999999999233
 31
0.0
1001
GENIUS_GENODEF_13
1002
{
1000
HIER
1070
     0
1002
}
1002
{
1000
MANEDIT
1070
     0
1002
}
1002
{
1000
NOSEL
1070
     0
1002
}
1002
{
1000
BEHIND
1070
     0
1002
}
1002
{
1000
OTHER
1070
     0
1002
}
1002
{
1000
REACTOR
1002
}
1001
GENIUS_GENOBJ-N-HTC_13
1002
{
1000
OWNER
1000
GEN
1002
}
1001
GENIUS_GENHATCH_13
1002
{
1000
DATA
1040
45.0
1042
2.5
1000
_U
1070
     0
1011
130.1058400677411
1021
0.0
1031
0.0
1021
433.29051750791461
1031
0.0
1002
}
1002
{
1000
UCS
1010
0.0
1020
0.0
1030
0.0
1010
1.0
1020
0.0
1030
0.0
1010
0.0
1020
1.0
1030
0.0
1002
}
1001
ACAD
1010
0.0
1020
0.0
1030
0.0
  0
LINE
  5
116E1
  8
OS
 10
112.82171772569851
 20
421.24999999999233
 30
0.0
 11
136.82171772569851
 21
445.24999999999221
 31
0.0
1001
GENIUS_GENODEF_13
1002
{
1000
HIER
1070
     0
1002
}
1002
{
1000
MANEDIT
1070
     0
1002
}
1002
{
1000
NOSEL
1070
     0
1002
}
1002
{
1000
BEHIND
1070
     0
1002
}
1002
{
1000
OTHER
1070
     0
1002
}
1002
{
1000
REACTOR
1002
}
1001
GENIUS_GENOBJ-N-HTC_13
1002
{
1000
OWNER
1000
GEN
1002
}
1001
GENIUS_GENHATCH_13
1002
{
1000
DATA
1040
45.0
1042
2.5
1000
_U
1070
     0
1011
130.1058400677411
1021
0.0
1031
0.0
1021
433.29051750791461
1031
0.0
1002
}
1002
{
1000
UCS
1010
0.0
1020
0.0
1030
0.0
1010
1.0
1020
0.0
1030
0.0
1010
0.0
1020
1.0
1030
0.0
1002
}
1001
ACAD
1010
0.0
1020
0.0
1030
0.0
  0
LINE
  5
116E2
  8
OS
 10
122.72121266231009
 20
421.2499999999921
 30
0.0
 11
146.72121266231019
 21
445.24999999999221
 31
0.0
1001
GENIUS_GENODEF_13
1002
{
1000
HIER
1070
     0
1002
}
1002
{
1000
MANEDIT
1070
     0
1002
}
1002
{
1000
NOSEL
1070
     0
1002
}
1002
{
1000
BEHIND
1070
     0
1002
}
1002
{
1000
OTHER
1070
     0
1002
}
1002
{
1000
REACTOR
1002
}
1001
GENIUS_GENOBJ-N-HTC_13
1002
{
1000
OWNER
1000
GEN
1002
}
1001
GENIUS_GENHATCH_13
1002
{
1000
DATA
1040
45.0
1042
2.5
1000
_U
1070
     0
1011
130.1058400677411
1021
0.0
1031
0.0
1021
433.29051750791461
1031
0.0
1002
}
1002
{
1000
UCS
1010
0.0
1020
0.0
1030
0.0
1010
1.0
1020
0.0
1030
0.0
1010
0.0
1020
1.0
1030
0.0
1002
}
1001
ACAD
1010
0.0
1020
0.0
1030
0.0
  0
LINE
  5
116E3
  8
OS
 10
132.6207075989218
 20
421.24999999999233
 30
0.0
 11
156.6207075989218
 21
445.24999999999233
 31
0.0
1001
GENIUS_GENODEF_13
1002
{
1000
HIER
1070
     0
1002
}
1002
{
1000
MANEDIT
1070
     0
1002
}
1002
{
1000
NOSEL
1070
     0
1002
}
1002
{
1000
BEHIND
1070
     0
1002
}
1002
{
1000
OTHER
1070
     0
1002
}
1002
{
1000
REACTOR
1002
}
1001
GENIUS_GENOBJ-N-HTC_13
1002
{
1000
OWNER
1000
GEN
1002
}
1001
GENIUS_GENHATCH_13
1002
{
1000
DATA
1040
45.0
1042
2.5
1000
_U
1070
     0
1011
130.1058400677411
1021
0.0
1031
0.0
1021
433.29051750791461
1031
0.0
1002
}
1002
{
1000
UCS
1010
0.0
1020
0.0
1030
0.0
1010
1.0
1020
0.0
1030
0.0
1010
0.0
1020
1.0
1030
0.0
1002
}
1001
ACAD
1010
0.0
1020
0.0
1030
0.0
  0
LINE
  5
116E4
  8
OS
 10
142.5202025355334
 20
421.2499999999921
 30
0.0
 11
166.52020253553351
 21
445.24999999999221
 31
0.0
1001
GENIUS_GENODEF_13
1002
{
1000
HIER
1070
     0
1002
}
1002
{
1000
MANEDIT
1070
     0
1002
}
1002
{
1000
NOSEL
1070
     0
1002
}
1002
{
1000
BEHIND
1070
     0
1002
}
1002
{
1000
OTHER
1070
     0
1002
}
1002
{
1000
REACTOR
1002
}
1001
GENIUS_GENOBJ-N-HTC_13
1002
{
1000
OWNER
1000
GEN
1002
}
1001
GENIUS_GENHATCH_13
1002
{
1000
DATA
1040
45.0
1042
2.5
1000
_U
1070
     0
1011
130.1058400677411
1021
0.0
1031
0.0
1021
433.29051750791461
1031
0.0
1002
}
1002
{
1000
UCS
1010
0.0
1020
0.0
1030
0.0
1010
1.0
1020
0.0
1030
0.0
1010
0.0
1020
1.0
1030
0.0
1002
}
1001
ACAD
1010
0.0
1020
0.0
1030
0.0
  0
LINE
  5
116E5
  8
OS
 10
152.41969747214509
 20
421.24999999999221
 30
0.0
 11
153.00000099999991
 21
421.83030352784692
 31
0.0
1001
GENIUS_GENODEF_13
1002
{
1000
HIER
1070
     0
1002
}
1002
{
1000
MANEDIT
1070
     0
1002
}
1002
{
1000
NOSEL
1070
     0
1002
}
1002
{
1000
BEHIND
1070
     0
1002
}
1002
{
1000
OTHER
1070
     0
1002
}
1002
{
1000
REACTOR
1002
}
1001
GENIUS_GENOBJ-N-HTC_13
1002
{
1000
OWNER
1000
GEN
1002
}
1001
GENIUS_GENHATCH_13
1002
{
1000
DATA
1040
45.0
1042
2.5
1000
_U
1070
     0
1011
130.1058400677411
1021
0.0
1031
0.0
1021
433.29051750791461
1031
0.0
1002
}
1002
{
1000
UCS
1010
0.0
1020
0.0
1030
0.0
1010
1.0
1020
0.0
1030
0.0
1010
0.0
1020
1.0
1030
0.0
1002
}
1001
ACAD
1010
0.0
1020
0.0
1030
0.0
  0
LINE
  5
116E6
  8
OS
 10
156.40000000000009
 20
425.23030252784719
 30
0.0
 11
176.4196974721452
 21
445.24999999999221
 31
0.0
1001
GENIUS_GENODEF_13
1002
{
1000
HIER
1070
     0
1002
}
1002
{
1000
MANEDIT
1070
     0
1002
}
1002
{
1000
NOSEL
1070
     0
1002
}
1002
{
1000
BEHIND
1070
     0
1002
}
1002
{
1000
OTHER
1070
     0
1002
}
1002
{
1000
REACTOR
1002
}
1001
GENIUS_GENOBJ-N-HTC_13
1002
{
1000
OWNER
1000
GEN
1002
}
1001
GENIUS_GENHATCH_13
1002
{
1000
DATA
1040
45.0
1042
2.5
1000
_U
1070
     0
1011
130.1058400677411
1021
0.0
1031
0.0
1021
433.29051750791461
1031
0.0
1002
}
1002
{
1000
UCS
1010
0.0
1020
0.0
1030
0.0
1010
1.0
1020
0.0
1030
0.0
1010
0.0
1020
1.0
1030
0.0
1002
}
1001
ACAD
1010
0.0
1020
0.0
1030
0.0
  0
LINE
  5
116E7
  8
OS
 10
162.31919240875661
 20
421.2499999999921
 30
0.0
 11
165.60000000000011
 21
424.5308075912356
 31
0.0
1001
GENIUS_GENODEF_13
1002
{
1000
HIER
1070
     0
1002
}
1002
{
1000
MANEDIT
1070
     0
1002
}
1002
{
1000
NOSEL
1070
     0
1002
}
1002
{
1000
BEHIND
1070
     0
1002
}
1002
{
1000
OTHER
1070
     0
1002
}
1002
{
1000
REACTOR
1002
}
1001
GENIUS_GENOBJ-N-HTC_13
1002
{
1000
OWNER
1000
GEN
1002
}
1001
GENIUS_GENHATCH_13
1002
{
1000
DATA
1040
45.0
1042
2.5
1000
_U
1070
     0
1011
130.1058400677411
1021
0.0
1031
0.0
1021
433.29051750791461
1031
0.0
1002
}
1002
{
1000
UCS
1010
0.0
1020
0.0
1030
0.0
1010
1.0
1020
0.0
1030
0.0
1010
0.0
1020
1.0
1030
0.0
1002
}
1001
ACAD
1010
0.0
1020
0.0
1030
0.0
  0
LINE
  5
116E8
  8
OS
 10
168.99999900000009
 20
427.93080659123558
 30
0.0
 11
186.31919240875681
 21
445.24999999999233
 31
0.0
1001
GENIUS_GENODEF_13
1002
{
1000
HIER
1070
     0
1002
}
1002
{
1000
MANEDIT
1070
     0
1002
}
1002
{
1000
NOSEL
1070
     0
1002
}
1002
{
1000
BEHIND
1070
     0
1002
}
1002
{
1000
OTHER
1070
     0
1002
}
1002
{
1000
REACTOR
1002
}
1001
GENIUS_GENOBJ-N-HTC_13
1002
{
1000
OWNER
1000
GEN
1002
}
1001
GENIUS_GENHATCH_13
1002
{
1000
DATA
1040
45.0
1042
2.5
1000
_U
1070
     0
1011
130.1058400677411
1021
0.0
1031
0.0
1021
433.29051750791461
1031
0.0
1002
}
1002
{
1000
UCS
1010
0.0
1020
0.0
1030
0.0
1010
1.0
1020
0.0
1030
0.0
1010
0.0
1020
1.0
1030
0.0
1002
}
1001
ACAD
1010
0.0
1020
0.0
1030
0.0
  0
LINE
  5
116E9
  8
OS
 10
172.21868734536841
 20
421.2499999999921
 30
0.0
 11
196.21868734536849
 21
445.24999999999221
 31
0.0
1001
GENIUS_GENODEF_13
1002
{
1000
HIER
1070
     0
1002
}
1002
{
1000
MANEDIT
1070
     0
1002
}
1002
{
1000
NOSEL
1070
     0
1002
}
1002
{
1000
BEHIND
1070
     0
1002
}
1002
{
1000
OTHER
1070
     0
1002
}
1002
{
1000
REACTOR
1002
}
1001
GENIUS_GENOBJ-N-HTC_13
1002
{
1000
OWNER
1000
GEN
1002
}
1001
GENIUS_GENHATCH_13
1002
{
1000
DATA
1040
45.0
1042
2.5
1000
_U
1070
     0
1011
130.1058400677411
1021
0.0
1031
0.0
1021
433.29051750791461
1031
0.0
1002
}
1002
{
1000
UCS
1010
0.0
1020
0.0
1030
0.0
1010
1.0
1020
0.0
1030
0.0
1010
0.0
1020
1.0
1030
0.0
1002
}
1001
ACAD
1010
0.0
1020
0.0
1030
0.0
  0
LINE
  5
116EA
  8
OS
 10
182.1181822819801
 20
421.2499999999921
 30
0.0
 11
206.11818228198021
 21
445.24999999999221
 31
0.0
1001
GENIUS_GENODEF_13
1002
{
1000
HIER
1070
     0
1002
}
1002
{
1000
MANEDIT
1070
     0
1002
}
1002
{
1000
NOSEL
1070
     0
1002
}
1002
{
1000
BEHIND
1070
     0
1002
}
1002
{
1000
OTHER
1070
     0
1002
}
1002
{
1000
REACTOR
1002
}
1001
GENIUS_GENOBJ-N-HTC_13
1002
{
1000
OWNER
1000
GEN
1002
}
1001
GENIUS_GENHATCH_13
1002
{
1000
DATA
1040
45.0
1042
2.5
1000
_U
1070
     0
1011
130.1058400677411
1021
0.0
1031
0.0
1021
433.29051750791461
1031
0.0
1002
}
1002
{
1000
UCS
1010
0.0
1020
0.0
1030
0.0
1010
1.0
1020
0.0
1030
0.0
1010
0.0
1020
1.0
1030
0.0
1002
}
1001
ACAD
1010
0.0
1020
0.0
1030
0.0
  0
LINE
  5
116EB
  8
OS
 10
192.01767721859181
 20
421.24999999999233
 30
0.0
 11
210.5
 21
439.73232278140051
 31
0.0
1001
GENIUS_GENODEF_13
1002
{
1000
HIER
1070
     0
1002
}
1002
{
1000
MANEDIT
1070
     0
1002
}
1002
{
1000
NOSEL
1070
     0
1002
}
1002
{
1000
BEHIND
1070
     0
1002
}
1002
{
1000
OTHER
1070
     0
1002
}
1002
{
1000
REACTOR
1002
}
1001
GENIUS_GENOBJ-N-HTC_13
1002
{
1000
OWNER
1000
GEN
1002
}
1001
GENIUS_GENHATCH_13
1002
{
1000
DATA
1040
45.0
1042
2.5
1000
_U
1070
     0
1011
130.1058400677411
1021
0.0
1031
0.0
1021
433.29051750791461
1031
0.0
1002
}
1002
{
1000
UCS
1010
0.0
1020
0.0
1030
0.0
1010
1.0
1020
0.0
1030
0.0
1010
0.0
1020
1.0
1030
0.0
1002
}
1001
ACAD
1010
0.0
1020
0.0
1030
0.0
  0
LINE
  5
116EC
  8
OS
 10
201.9171721552035
 20
421.24999999999233
 30
0.0
 11
210.49999999999989
 21
429.83282784478871
 31
0.0
1001
GENIUS_GENODEF_13
1002
{
1000
HIER
1070
     0
1002
}
1002
{
1000
MANEDIT
1070
     0
1002
}
1002
{
1000
NOSEL
1070
     0
1002
}
1002
{
1000
BEHIND
1070
     0
1002
}
1002
{
1000
OTHER
1070
     0
1002
}
1002
{
1000
REACTOR
1002
}
1001
GENIUS_GENOBJ-N-HTC_13
1002
{
1000
OWNER
1000
GEN
1002
}
1001
GENIUS_GENHATCH_13
1002
{
1000
DATA
1040
45.0
1042
2.5
1000
_U
1070
     0
1011
130.1058400677411
1021
0.0
1031
0.0
1021
433.29051750791461
1031
0.0
1002
}
1002
{
1000
UCS
1010
0.0
1020
0.0
1030
0.0
1010
1.0
1020
0.0
1030
0.0
1010
0.0
1020
1.0
1030
0.0
1002
}
1001
ACAD
1010
0.0
1020
0.0
1030
0.0
  0
LINE
  5
116ED
  8
OS
 10
160.60009598325769
 20
486.25000000000028
 30
0.0
 11
85.000053405761946
 21
450.24986219405349
 31
0.0
  0
LINE
  5
116EE
  8
OS
 10
200.5
 20
486.25000000000028
 30
0.0
 11
200.5
 21
445.24999999999221
 31
0.0
  0
LINE
  5
116EF
  8
OS
 10
192.0
 20
486.25000000000028
 30
0.0
 11
192.0
 21
445.24999999999221
 31
0.0
  0
LINE
  5
116F0
  8
OS
 10
202.5
 20
486.25000000000028
 30
0.0
 11
202.5
 21
445.24999999999221
 31
0.0
  0
LINE
  5
116F1
  8
OS
 10
190.0
 20
486.25000000000028
 30
0.0
 11
190.0
 21
445.24999999999221
 31
0.0
  0
LINE
  5
116F2
  8
OS
 10
72.5
 20
486.25000000000028
 30
0.0
 11
72.5
 21
445.24999999999221
 31
0.0
  0
LINE
  5
116F3
  8
OS
 10
83.0
 20
486.25000000000028
 30
0.0
 11
83.0
 21
445.24999999999221
 31
0.0
  0
LINE
  5
116F4
  8
OS
 10
74.5
 20
486.25000000000028
 30
0.0
 11
74.5
 21
445.24999999999221
 31
0.0
  0
LINE
  5
116F5
  8
OS
 10
85.0
 20
486.25000000000028
 30
0.0
 11
85.0
 21
445.24999999999221
 31
0.0
  0
LINE
  5
116F6
  8
OS
 10
190.0
 20
450.24999999999233
 30
0.0
 11
85.0
 21
450.24999999999233
 31
0.0
  0
LINE
  5
116F7
  8
OS
 10
202.5
 20
445.24999999999221
 30
0.0
 11
72.5
 21
445.24999999999221
 31
0.0
  0
LINE
  5
116F8
  8
OS
 10
190.00000762939399
 20
445.25004438841597
 30
0.0
 11
85.0
 21
450.25004482268508
 31
0.0
  0
LINE
  5
116F9
  8
SU
 10
64.5
 20
420.24999999999221
 30
0.0
 11
64.5
 21
358.74999999999233
 31
0.0
  0
LINE
  5
116FA
  8
SU
 10
61.5
 20
444.24999999999221
 30
0.0
 11
61.499999999999993
 21
358.74999999999233
 31
0.0
  0
LINE
  5
116FB
  8
SU
 10
64.5
 20
361.74999999999233
 30
0.0
 11
61.499999999999993
 21
361.74999999999233
 31
0.0
  0
LINE
  5
116FC
  8
SU
 10
61.499999999999993
 20
361.74999999999233
 30
0.0
 11
50.226666666666652
 21
361.74999999999233
 31
0.0
  0
ARC
  5
116FD
  8
SU
 10
64.5
 20
361.74999999999233
 30
0.0
 40
0.6
 50
180.0
 51
0.0
  0
ARC
  5
116FE
  8
SU
 10
64.5
 20
361.74999999999233
 30
0.0
 40
0.6
 50
0.0
 51
180.0
  0
ARC
  5
116FF
  8
SU
 10
61.499999999999993
 20
361.74999999999233
 30
0.0
 40
0.6
 50
0.0
 51
180.0
  0
ARC
  5
11700
  8
SU
 10
61.499999999999993
 20
361.74999999999233
 30
0.0
 40
0.6
 50
180.0
 51
0.0
  0
TEXT
  5
11701
  8
SU
 10
50.696666666666658
 20
363.04999999999228
 30
0.0
 40
7.0
  1
3
 41
0.8299999999999999
  0
LINE
  5
11702
  8
SU
 10
210.5
 20
420.24999999999221
 30
0.0
 11
210.5
 21
358.74999999999233
 31
0.0
  0
LINE
  5
11703
  8
SU
 10
64.5
 20
361.74999999999233
 30
0.0
 11
210.5
 21
361.74999999999233
 31
0.0
  0
ARC
  5
11704
  8
SU
 10
210.5
 20
361.74999999999233
 30
0.0
 40
0.6
 50
180.0
 51
0.0
  0
ARC
  5
11705
  8
SU
 10
210.5
 20
361.74999999999233
 30
0.0
 40
0.6
 50
0.0
 51
180.0
  0
TEXT
  5
11706
  8
SU
 10
126.0158946353294
 20
363.04999999999228
 30
0.0
 40
7.0
  1
146
 41
0.8299999999999999
  0
LINE
  5
11707
  8
SU
 10
213.5
 20
444.24999999999221
 30
0.0
 11
213.5
 21
358.74999999999238
 31
0.0
  0
LINE
  5
11708
  8
SU
 10
210.5
 20
361.74999999999238
 30
0.0
 11
213.5
 21
361.74999999999238
 31
0.0
  0
LINE
  5
11709
  8
SU
 10
213.5
 20
361.74999999999238
 30
0.0
 11
224.77333333333331
 21
361.74999999999238
 31
0.0
  0
ARC
  5
1170A
  8
SU
 10
213.5
 20
361.74999999999238
 30
0.0
 40
0.6
 50
180.0
 51
0.0
  0
ARC
  5
1170B
  8
SU
 10
213.5
 20
361.74999999999238
 30
0.0
 40
0.6
 50
0.0
 51
180.0
  0
TEXT
  5
1170C
  8
SU
 10
218.77000000000001
 20
363.04999999999239
 30
0.0
 40
7.0
  1
3
 41
0.8299999999999999
  0
LINE
  5
1170D
  8
SU
 10
152.0
 20
410.74999999999221
 30
0.0
 11
152.0
 21
388.74999999999233
 31
0.0
  0
LINE
  5
1170E
  8
SU
 10
64.5
 20
391.74999999999233
 30
0.0
 11
152.0
 21
391.74999999999233
 31
0.0
  0
ARC
  5
1170F
  8
SU
 10
64.5
 20
391.74999999999233
 30
0.0
 40
0.6
 50
0.0
 51
180.0
  0
ARC
  5
11710
  8
SU
 10
64.5
 20
391.74999999999233
 30
0.0
 40
0.6
 50
180.0
 51
0.0
  0
ARC
  5
11711
  8
SU
 10
152.0
 20
391.74999999999233
 30
0.0
 40
0.6
 50
180.0
 51
0.0
  0
ARC
  5
11712
  8
SU
 10
152.0
 20
391.74999999999233
 30
0.0
 40
0.6
 50
0.0
 51
180.0
  0
TEXT
  5
11713
  8
SU
 10
98.566666666666691
 20
393.04999999999228
 30
0.0
 40
7.0
  1
87.5
 41
0.8299999999999999
  0
LINE
  5
11714
  8
SU
 10
170.0
 20
410.7499999999921
 30
0.0
 11
170.0
 21
388.74999999999233
 31
0.0
  0
LINE
  5
11715
  8
SU
 10
152.0
 20
391.74999999999233
 30
0.0
 11
170.0
 21
391.74999999999233
 31
0.0
  0
ARC
  5
11716
  8
SU
 10
170.0
 20
391.74999999999233
 30
0.0
 40
0.6
 50
180.0
 51
0.0
  0
ARC
  5
11717
  8
SU
 10
170.0
 20
391.74999999999233
 30
0.0
 40
0.6
 50
0.0
 51
180.0
  0
TEXT
  5
11718
  8
SU
 10
155.82833333333329
 20
393.04999999999228
 30
0.0
 40
7.0
  1
18
 41
0.8299999999999999
  0
LINE
  5
11719
  8
SU
 10
172.9999999999998
 20
417.24999999999233
 30
0.0
 11
172.9999999999998
 21
388.7499999999925
 31
0.0
  0
LINE
  5
1171A
  8
SU
 10
170.0
 20
391.74999999999238
 30
0.0
 11
172.9999999999998
 21
391.74999999999238
 31
0.0
  0
LINE
  5
1171B
  8
SU
 10
171.99999999999989
 20
391.74999999999238
 30
0.0
 11
164.6397459621553
 21
376.74999999999233
 31
0.0
  0
LINE
  5
1171C
  8
SU
 10
164.6397459621553
 20
376.74999999999233
 30
0.0
 11
157.8897459621553
 21
376.74999999999233
 31
0.0
  0
TEXT
  5
1171D
  8
SU
 10
158.3597459621553
 20
378.04999999999228
 30
0.0
 40
7.0
  1
3
 41
0.8299999999999999
  0
ARC
  5
1171E
  8
SU
 10
172.9999999999998
 20
391.74999999999238
 30
0.0
 40
0.6
 50
180.0
 51
0.0
  0
ARC
  5
1171F
  8
SU
 10
172.9999999999998
 20
391.74999999999238
 30
0.0
 40
0.6
 50
0.0
 51
180.0
  0
LINE
  5
11720
  8
SU
 10
206.0
 20
417.24999999999233
 30
0.0
 11
206.0
 21
388.74999999999233
 31
0.0
  0
LINE
  5
11721
  8
SU
 10
172.9999999999998
 20
391.74999999999233
 30
0.0
 11
206.0
 21
391.74999999999233
 31
0.0
  0
ARC
  5
11722
  8
SU
 10
206.0
 20
391.74999999999233
 30
0.0
 40
0.6
 50
180.0
 51
0.0
  0
ARC
  5
11723
  8
SU
 10
206.0
 20
391.74999999999233
 30
0.0
 40
0.6
 50
0.0
 51
180.0
  0
TEXT
  5
11724
  8
SU
 10
183.96666666666661
 20
393.04999999999228
 30
0.0
 40
7.0
  1
33
 41
0.8299999999999999
  0
LINE
  5
11725
  8
SU
 10
206.0
 20
391.74999999999238
 30
0.0
 11
210.5
 21
391.74999999999238
 31
0.0
  0
LINE
  5
11726
  8
SU
 10
230.11659633914729
 20
391.74999999999238
 30
0.0
 11
210.5
 21
391.74999999999238
 31
0.0
  0
TEXT
  5
11727
  8
SU
 10
215.81326300581401
 20
393.04999999999239
 30
0.0
 40
7.0
  1
4.5
 41
0.8299999999999999
  0
ARC
  5
11728
  8
SU
 10
210.5
 20
391.74999999999238
 30
0.0
 40
0.6
 50
180.0
 51
0.0
  0
ARC
  5
11729
  8
SU
 10
210.5
 20
391.74999999999238
 30
0.0
 40
0.6
 50
0.0
 51
180.0
  0
LINE
  5
1172A
  8
KI1
 10
586.99999523162717
 20
444.25000000000841
 30
0.0
 11
727.99999809265
 21
444.25000000000841
 31
0.0
  0
LINE
  5
1172B
  8
KI1
 10
730.49999999999989
 20
441.74999809265842
 30
0.0
 11
730.49999999999989
 21
429.2500000000083
 31
0.0
  0
LINE
  5
1172C
  8
KI1
 10
584.49999999999989
 20
441.7500057220563
 30
0.0
 11
584.49999999999989
 21
429.2500000000083
 31
0.0
  0
LINE
  5
1172D
  8
KI1
 10
584.49999999999989
 20
441.7500057220563
 30
0.0
 11
586.99999523162717
 21
444.25000000000841
 31
0.0
  0
LINE
  5
1172E
  8
KI1
 10
727.99999809265
 20
444.25000000000841
 30
0.0
 11
730.49999999999989
 21
441.74999809265842
 31
0.0
  0
LINE
  5
1172F
  8
KI1
 10
584.49999999999989
 20
429.2500000000083
 30
0.0
 11
730.49999999999989
 21
429.2500000000083
 31
0.0
  0
LINE
  5
11730
  8
OS
 10
584.49999999999989
 20
438.55151519016488
 30
0.0
 11
590.19848480984342
 21
444.2500000000083
 31
0.0
1001
GENIUS_GENOBJ-N-HTC_13
1002
{
1000
OWNER
1000
GEN
1002
}
1001
GENIUS_GENODEF_13
1002
{
1000
HIER
1070
     0
1002
}
1002
{
1000
MANEDIT
1070
     0
1002
}
1002
{
1000
NOSEL
1070
     0
1002
}
1002
{
1000
BEHIND
1070
     0
1002
}
1002
{
1000
OTHER
1070
     0
1002
}
1002
{
1000
REACTOR
1002
}
1001
GENIUS_GENHATCH_13
1002
{
1000
DATA
1040
0.0
1042
0.5
1000
ANSI31
1070
     0
1011
695.05343783821161
1021
0.0
1031
0.0
1021
438.58428874806191
1031
0.0
1002
}
1002
{
1000
UCS
1010
0.0
1020
0.0
1030
0.0
1010
1.0
1020
0.0
1030
0.0
1010
0.0
1020
1.0
1030
0.0
1002
}
1001
ACAD
1010
0.0
1020
0.0
1030
0.0
  0
LINE
  5
11731
  8
OS
 10
585.09797974645505
 20
429.2500000000083
 30
0.0
 11
600.09797974645517
 21
444.25000000000841
 31
0.0
1001
GENIUS_GENOBJ-N-HTC_13
1002
{
1000
OWNER
1000
GEN
1002
}
1001
GENIUS_GENODEF_13
1002
{
1000
HIER
1070
     0
1002
}
1002
{
1000
MANEDIT
1070
     0
1002
}
1002
{
1000
NOSEL
1070
     0
1002
}
1002
{
1000
BEHIND
1070
     0
1002
}
1002
{
1000
OTHER
1070
     0
1002
}
1002
{
1000
REACTOR
1002
}
1001
GENIUS_GENHATCH_13
1002
{
1000
DATA
1040
0.0
1042
0.5
1000
ANSI31
1070
     0
1011
695.05343783821161
1021
0.0
1031
0.0
1021
438.58428874806191
1031
0.0
1002
}
1002
{
1000
UCS
1010
0.0
1020
0.0
1030
0.0
1010
1.0
1020
0.0
1030
0.0
1010
0.0
1020
1.0
1030
0.0
1002
}
1001
ACAD
1010
0.0
1020
0.0
1030
0.0
  0
LINE
  5
11732
  8
OS
 10
594.9974746830668
 20
429.2500000000083
 30
0.0
 11
609.99747468306668
 21
444.25000000000841
 31
0.0
1001
GENIUS_GENOBJ-N-HTC_13
1002
{
1000
OWNER
1000
GEN
1002
}
1001
GENIUS_GENODEF_13
1002
{
1000
HIER
1070
     0
1002
}
1002
{
1000
MANEDIT
1070
     0
1002
}
1002
{
1000
NOSEL
1070
     0
1002
}
1002
{
1000
BEHIND
1070
     0
1002
}
1002
{
1000
OTHER
1070
     0
1002
}
1002
{
1000
REACTOR
1002
}
1001
GENIUS_GENHATCH_13
1002
{
1000
DATA
1040
0.0
1042
0.5
1000
ANSI31
1070
     0
1011
695.05343783821161
1021
0.0
1031
0.0
1021
438.58428874806191
1031
0.0
1002
}
1002
{
1000
UCS
1010
0.0
1020
0.0
1030
0.0
1010
1.0
1020
0.0
1030
0.0
1010
0.0
1020
1.0
1030
0.0
1002
}
1001
ACAD
1010
0.0
1020
0.0
1030
0.0
  0
LINE
  5
11733
  8
OS
 10
604.89696961967854
 20
429.2500000000083
 30
0.0
 11
619.89696961967843
 21
444.2500000000083
 31
0.0
1001
GENIUS_GENOBJ-N-HTC_13
1002
{
1000
OWNER
1000
GEN
1002
}
1001
GENIUS_GENODEF_13
1002
{
1000
HIER
1070
     0
1002
}
1002
{
1000
MANEDIT
1070
     0
1002
}
1002
{
1000
NOSEL
1070
     0
1002
}
1002
{
1000
BEHIND
1070
     0
1002
}
1002
{
1000
OTHER
1070
     0
1002
}
1002
{
1000
REACTOR
1002
}
1001
GENIUS_GENHATCH_13
1002
{
1000
DATA
1040
0.0
1042
0.5
1000
ANSI31
1070
     0
1011
695.05343783821161
1021
0.0
1031
0.0
1021
438.58428874806191
1031
0.0
1002
}
1002
{
1000
UCS
1010
0.0
1020
0.0
1030
0.0
1010
1.0
1020
0.0
1030
0.0
1010
0.0
1020
1.0
1030
0.0
1002
}
1001
ACAD
1010
0.0
1020
0.0
1030
0.0
  0
LINE
  5
11734
  8
OS
 10
614.79646455629006
 20
429.2500000000083
 30
0.0
 11
629.79646455629018
 21
444.25000000000841
 31
0.0
1001
GENIUS_GENOBJ-N-HTC_13
1002
{
1000
OWNER
1000
GEN
1002
}
1001
GENIUS_GENODEF_13
1002
{
1000
HIER
1070
     0
1002
}
1002
{
1000
MANEDIT
1070
     0
1002
}
1002
{
1000
NOSEL
1070
     0
1002
}
1002
{
1000
BEHIND
1070
     0
1002
}
1002
{
1000
OTHER
1070
     0
1002
}
1002
{
1000
REACTOR
1002
}
1001
GENIUS_GENHATCH_13
1002
{
1000
DATA
1040
0.0
1042
0.5
1000
ANSI31
1070
     0
1011
695.05343783821161
1021
0.0
1031
0.0
1021
438.58428874806191
1031
0.0
1002
}
1002
{
1000
UCS
1010
0.0
1020
0.0
1030
0.0
1010
1.0
1020
0.0
1030
0.0
1010
0.0
1020
1.0
1030
0.0
1002
}
1001
ACAD
1010
0.0
1020
0.0
1030
0.0
  0
LINE
  5
11735
  8
OS
 10
624.69595949290181
 20
429.2500000000083
 30
0.0
 11
639.69595949290169
 21
444.25000000000841
 31
0.0
1001
GENIUS_GENOBJ-N-HTC_13
1002
{
1000
OWNER
1000
GEN
1002
}
1001
GENIUS_GENODEF_13
1002
{
1000
HIER
1070
     0
1002
}
1002
{
1000
MANEDIT
1070
     0
1002
}
1002
{
1000
NOSEL
1070
     0
1002
}
1002
{
1000
BEHIND
1070
     0
1002
}
1002
{
1000
OTHER
1070
     0
1002
}
1002
{
1000
REACTOR
1002
}
1001
GENIUS_GENHATCH_13
1002
{
1000
DATA
1040
0.0
1042
0.5
1000
ANSI31
1070
     0
1011
695.05343783821161
1021
0.0
1031
0.0
1021
438.58428874806191
1031
0.0
1002
}
1002
{
1000
UCS
1010
0.0
1020
0.0
1030
0.0
1010
1.0
1020
0.0
1030
0.0
1010
0.0
1020
1.0
1030
0.0
1002
}
1001
ACAD
1010
0.0
1020
0.0
1030
0.0
  0
LINE
  5
11736
  8
OS
 10
634.59545442950548
 20
429.25000000000028
 30
0.0
 11
649.59545442951344
 21
444.25000000000841
 31
0.0
1001
GENIUS_GENOBJ-N-HTC_13
1002
{
1000
OWNER
1000
GEN
1002
}
1001
GENIUS_GENODEF_13
1002
{
1000
HIER
1070
     0
1002
}
1002
{
1000
MANEDIT
1070
     0
1002
}
1002
{
1000
NOSEL
1070
     0
1002
}
1002
{
1000
BEHIND
1070
     0
1002
}
1002
{
1000
OTHER
1070
     0
1002
}
1002
{
1000
REACTOR
1002
}
1001
GENIUS_GENHATCH_13
1002
{
1000
DATA
1040
0.0
1042
0.5
1000
ANSI31
1070
     0
1011
695.05343783821161
1021
0.0
1031
0.0
1021
438.58428874806191
1031
0.0
1002
}
1002
{
1000
UCS
1010
0.0
1020
0.0
1030
0.0
1010
1.0
1020
0.0
1030
0.0
1010
0.0
1020
1.0
1030
0.0
1002
}
1001
ACAD
1010
0.0
1020
0.0
1030
0.0
  0
LINE
  5
11737
  8
OS
 10
644.49494936611688
 20
429.25000000000028
 30
0.0
 11
659.49494936612518
 21
444.25000000000841
 31
0.0
1001
GENIUS_GENOBJ-N-HTC_13
1002
{
1000
OWNER
1000
GEN
1002
}
1001
GENIUS_GENODEF_13
1002
{
1000
HIER
1070
     0
1002
}
1002
{
1000
MANEDIT
1070
     0
1002
}
1002
{
1000
NOSEL
1070
     0
1002
}
1002
{
1000
BEHIND
1070
     0
1002
}
1002
{
1000
OTHER
1070
     0
1002
}
1002
{
1000
REACTOR
1002
}
1001
GENIUS_GENHATCH_13
1002
{
1000
DATA
1040
0.0
1042
0.5
1000
ANSI31
1070
     0
1011
695.05343783821161
1021
0.0
1031
0.0
1021
438.58428874806191
1031
0.0
1002
}
1002
{
1000
UCS
1010
0.0
1020
0.0
1030
0.0
1010
1.0
1020
0.0
1030
0.0
1010
0.0
1020
1.0
1030
0.0
1002
}
1001
ACAD
1010
0.0
1020
0.0
1030
0.0
  0
LINE
  5
11738
  8
OS
 10
654.39444430272874
 20
429.25000000000028
 30
0.0
 11
669.39444430273682
 21
444.25000000000841
 31
0.0
1001
GENIUS_GENOBJ-N-HTC_13
1002
{
1000
OWNER
1000
GEN
1002
}
1001
GENIUS_GENODEF_13
1002
{
1000
HIER
1070
     0
1002
}
1002
{
1000
MANEDIT
1070
     0
1002
}
1002
{
1000
NOSEL
1070
     0
1002
}
1002
{
1000
BEHIND
1070
     0
1002
}
1002
{
1000
OTHER
1070
     0
1002
}
1002
{
1000
REACTOR
1002
}
1001
GENIUS_GENHATCH_13
1002
{
1000
DATA
1040
0.0
1042
0.5
1000
ANSI31
1070
     0
1011
695.05343783821161
1021
0.0
1031
0.0
1021
438.58428874806191
1031
0.0
1002
}
1002
{
1000
UCS
1010
0.0
1020
0.0
1030
0.0
1010
1.0
1020
0.0
1030
0.0
1010
0.0
1020
1.0
1030
0.0
1002
}
1001
ACAD
1010
0.0
1020
0.0
1030
0.0
  0
LINE
  5
11739
  8
OS
 10
664.29393923934038
 20
429.25000000000028
 30
0.0
 11
679.29393923934845
 21
444.25000000000841
 31
0.0
1001
GENIUS_GENOBJ-N-HTC_13
1002
{
1000
OWNER
1000
GEN
1002
}
1001
GENIUS_GENODEF_13
1002
{
1000
HIER
1070
     0
1002
}
1002
{
1000
MANEDIT
1070
     0
1002
}
1002
{
1000
NOSEL
1070
     0
1002
}
1002
{
1000
BEHIND
1070
     0
1002
}
1002
{
1000
OTHER
1070
     0
1002
}
1002
{
1000
REACTOR
1002
}
1001
GENIUS_GENHATCH_13
1002
{
1000
DATA
1040
0.0
1042
0.5
1000
ANSI31
1070
     0
1011
695.05343783821161
1021
0.0
1031
0.0
1021
438.58428874806191
1031
0.0
1002
}
1002
{
1000
UCS
1010
0.0
1020
0.0
1030
0.0
1010
1.0
1020
0.0
1030
0.0
1010
0.0
1020
1.0
1030
0.0
1002
}
1001
ACAD
1010
0.0
1020
0.0
1030
0.0
  0
LINE
  5
1173A
  8
OS
 10
674.19343417595189
 20
429.25000000000028
 30
0.0
 11
689.19343417596008
 21
444.25000000000841
 31
0.0
1001
GENIUS_GENOBJ-N-HTC_13
1002
{
1000
OWNER
1000
GEN
1002
}
1001
GENIUS_GENODEF_13
1002
{
1000
HIER
1070
     0
1002
}
1002
{
1000
MANEDIT
1070
     0
1002
}
1002
{
1000
NOSEL
1070
     0
1002
}
1002
{
1000
BEHIND
1070
     0
1002
}
1002
{
1000
OTHER
1070
     0
1002
}
1002
{
1000
REACTOR
1002
}
1001
GENIUS_GENHATCH_13
1002
{
1000
DATA
1040
0.0
1042
0.5
1000
ANSI31
1070
     0
1011
695.05343783821161
1021
0.0
1031
0.0
1021
438.58428874806191
1031
0.0
1002
}
1002
{
1000
UCS
1010
0.0
1020
0.0
1030
0.0
1010
1.0
1020
0.0
1030
0.0
1010
0.0
1020
1.0
1030
0.0
1002
}
1001
ACAD
1010
0.0
1020
0.0
1030
0.0
  0
LINE
  5
1173B
  8
OS
 10
684.09292911257182
 20
429.2500000000083
 30
0.0
 11
699.09292911257182
 21
444.25000000000841
 31
0.0
1001
GENIUS_GENOBJ-N-HTC_13
1002
{
1000
OWNER
1000
GEN
1002
}
1001
GENIUS_GENODEF_13
1002
{
1000
HIER
1070
     0
1002
}
1002
{
1000
MANEDIT
1070
     0
1002
}
1002
{
1000
NOSEL
1070
     0
1002
}
1002
{
1000
BEHIND
1070
     0
1002
}
1002
{
1000
OTHER
1070
     0
1002
}
1002
{
1000
REACTOR
1002
}
1001
GENIUS_GENHATCH_13
1002
{
1000
DATA
1040
0.0
1042
0.5
1000
ANSI31
1070
     0
1011
695.05343783821161
1021
0.0
1031
0.0
1021
438.58428874806191
1031
0.0
1002
}
1002
{
1000
UCS
1010
0.0
1020
0.0
1030
0.0
1010
1.0
1020
0.0
1030
0.0
1010
0.0
1020
1.0
1030
0.0
1002
}
1001
ACAD
1010
0.0
1020
0.0
1030
0.0
  0
LINE
  5
1173C
  8
OS
 10
693.99242404918346
 20
429.2500000000083
 30
0.0
 11
708.99242404918346
 21
444.25000000000841
 31
0.0
1001
GENIUS_GENOBJ-N-HTC_13
1002
{
1000
OWNER
1000
GEN
1002
}
1001
GENIUS_GENODEF_13
1002
{
1000
HIER
1070
     0
1002
}
1002
{
1000
MANEDIT
1070
     0
1002
}
1002
{
1000
NOSEL
1070
     0
1002
}
1002
{
1000
BEHIND
1070
     0
1002
}
1002
{
1000
OTHER
1070
     0
1002
}
1002
{
1000
REACTOR
1002
}
1001
GENIUS_GENHATCH_13
1002
{
1000
DATA
1040
0.0
1042
0.5
1000
ANSI31
1070
     0
1011
695.05343783821161
1021
0.0
1031
0.0
1021
438.58428874806191
1031
0.0
1002
}
1002
{
1000
UCS
1010
0.0
1020
0.0
1030
0.0
1010
1.0
1020
0.0
1030
0.0
1010
0.0
1020
1.0
1030
0.0
1002
}
1001
ACAD
1010
0.0
1020
0.0
1030
0.0
  0
LINE
  5
1173D
  8
OS
 10
703.8919189857952
 20
429.2500000000083
 30
0.0
 11
718.89191898579509
 21
444.25000000000841
 31
0.0
1001
GENIUS_GENOBJ-N-HTC_13
1002
{
1000
OWNER
1000
GEN
1002
}
1001
GENIUS_GENODEF_13
1002
{
1000
HIER
1070
     0
1002
}
1002
{
1000
MANEDIT
1070
     0
1002
}
1002
{
1000
NOSEL
1070
     0
1002
}
1002
{
1000
BEHIND
1070
     0
1002
}
1002
{
1000
OTHER
1070
     0
1002
}
1002
{
1000
REACTOR
1002
}
1001
GENIUS_GENHATCH_13
1002
{
1000
DATA
1040
0.0
1042
0.5
1000
ANSI31
1070
     0
1011
695.05343783821161
1021
0.0
1031
0.0
1021
438.58428874806191
1031
0.0
1002
}
1002
{
1000
UCS
1010
0.0
1020
0.0
1030
0.0
1010
1.0
1020
0.0
1030
0.0
1010
0.0
1020
1.0
1030
0.0
1002
}
1001
ACAD
1010
0.0
1020
0.0
1030
0.0
  0
LINE
  5
1173E
  8
OS
 10
713.79141392240683
 20
429.2500000000083
 30
0.0
 11
728.39570600752825
 21
443.85429208512988
 31
0.0
1001
GENIUS_GENOBJ-N-HTC_13
1002
{
1000
OWNER
1000
GEN
1002
}
1001
GENIUS_GENODEF_13
1002
{
1000
HIER
1070
     0
1002
}
1002
{
1000
MANEDIT
1070
     0
1002
}
1002
{
1000
NOSEL
1070
     0
1002
}
1002
{
1000
BEHIND
1070
     0
1002
}
1002
{
1000
OTHER
1070
     0
1002
}
1002
{
1000
REACTOR
1002
}
1001
GENIUS_GENHATCH_13
1002
{
1000
DATA
1040
0.0
1042
0.5
1000
ANSI31
1070
     0
1011
695.05343783821161
1021
0.0
1031
0.0
1021
438.58428874806191
1031
0.0
1002
}
1002
{
1000
UCS
1010
0.0
1020
0.0
1030
0.0
1010
1.0
1020
0.0
1030
0.0
1010
0.0
1020
1.0
1030
0.0
1002
}
1001
ACAD
1010
0.0
1020
0.0
1030
0.0
  0
LINE
  5
1173F
  8
OS
 10
723.69090885901835
 20
429.2500000000083
 30
0.0
 11
730.49999999999989
 21
436.05909114098989
 31
0.0
1001
GENIUS_GENOBJ-N-HTC_13
1002
{
1000
OWNER
1000
GEN
1002
}
1001
GENIUS_GENODEF_13
1002
{
1000
HIER
1070
     0
1002
}
1002
{
1000
MANEDIT
1070
     0
1002
}
1002
{
1000
NOSEL
1070
     0
1002
}
1002
{
1000
BEHIND
1070
     0
1002
}
1002
{
1000
OTHER
1070
     0
1002
}
1002
{
1000
REACTOR
1002
}
1001
GENIUS_GENHATCH_13
1002
{
1000
DATA
1040
0.0
1042
0.5
1000
ANSI31
1070
     0
1011
695.05343783821161
1021
0.0
1031
0.0
1021
438.58428874806191
1031
0.0
1002
}
1002
{
1000
UCS
1010
0.0
1020
0.0
1030
0.0
1010
1.0
1020
0.0
1030
0.0
1010
0.0
1020
1.0
1030
0.0
1002
}
1001
ACAD
1010
0.0
1020
0.0
1030
0.0
  0
LINE
  5
11740
  8
TE
 10
224.1066017179628
 20
434.64339828235842
 30
0.0
 11
202.8933982820372
 21
455.85660171762601
 31
0.0
  0
LINE
  5
11741
  8
TE
 10
202.89531974592839
 20
434.64147577363877
 30
0.0
 11
224.10468025407161
 21
455.85852422634571
 31
0.0
  0
LINE
  5
11742
  8
TE
 10
224.1066017179628
 20
204.6433982823585
 30
0.0
 11
202.8933982820372
 21
225.85660171762601
 31
0.0
  0
LINE
  5
11743
  8
TE
 10
202.89531974592839
 20
204.6414757736388
 30
0.0
 11
224.10468025407161
 21
225.85852422634571
 31
0.0
  0
LINE
  5
11744
  8
TE
 10
224.1066017179628
 20
44.643398282358469
 30
0.0
 11
202.8933982820372
 21
65.856601717626063
 31
0.0
  0
LINE
  5
11745
  8
TE
 10
202.89531974592839
 20
44.641475773638831
 30
0.0
 11
224.10468025407161
 21
65.858524226345693
 31
0.0
  0
LINE
  5
11746
  8
TE
 10
484.1066017179628
 20
430.64339828236649
 30
0.0
 11
462.89339828203708
 21
451.85660171763408
 31
0.0
  0
LINE
  5
11747
  8
TE
 10
462.89531974592842
 20
430.6414757736469
 30
0.0
 11
484.10468025407158
 21
451.85852422635372
 31
0.0
  0
LINE
  5
11748
  8
TE
 10
744.1066017179628
 20
430.64339828236649
 30
0.0
 11
722.8933982820372
 21
451.85660171763408
 31
0.0
  0
LINE
  5
11749
  8
TE
 10
722.89531974592842
 20
430.6414757736469
 30
0.0
 11
744.10468025407147
 21
451.85852422635372
 31
0.0
  0
LINE
  5
1174A
  8
KI1
 10
170.0
 20
215.2499999999923
 30
0.0
 11
170.0
 21
317.24999999999233
 31
0.0
  0
LINE
  5
1174B
  8
KI1
 10
170.0
 20
319.24999999999233
 30
0.0
 11
170.0
 21
409.74999999999289
 31
0.0
  0
LINE
  5
1174C
  8
KI1
 10
151.99999999999969
 20
409.74999999999289
 30
0.0
 11
151.9999999999998
 21
319.24999999999233
 31
0.0
  0
LINE
  5
1174D
  8
KI1
 10
151.9999999999998
 20
317.24999999999233
 30
0.0
 11
151.99999999999989
 21
260.25932748868371
 31
0.0
  0
LINE
  5
1174E
  8
KI1
 10
151.99999999999989
 20
236.95794637689471
 30
0.0
 11
151.99999999999989
 21
215.2499999999923
 31
0.0
  0
LINE
  5
1174F
  8
KI1
 10
165.59999999999991
 20
421.24999999999289
 30
0.0
 11
165.60000000000031
 21
429.24999999999289
 31
0.0
  0
LINE
  5
11750
  8
KI1
 10
156.40000000000009
 20
421.24999999999289
 30
0.0
 11
156.40000000000009
 21
429.24999999999289
 31
0.0
  0
LINE
  5
11751
  8
KI1
 10
153.00000099999991
 20
421.24999999999221
 30
0.0
 11
153.00000099999991
 21
429.24999999999289
 31
0.0
  0
LINE
  5
11752
  8
KI1
 10
168.99999900000009
 20
421.24999999999233
 30
0.0
 11
168.99999900000009
 21
429.24999999999329
 31
0.0
  0
LINE
  5
11753
  8
KI1
 10
151.99999999999969
 20
409.74999999999289
 30
0.0
 11
151.99999999999969
 21
421.24989999999298
 31
0.0
  0
LINE
  5
11754
  8
KI1
 10
153.7999999999997
 20
411.04999999999279
 30
0.0
 11
153.7999999999997
 21
419.2526835830497
 31
0.0
  0
LINE
  5
11755
  8
KI1
 10
154.50003999999981
 20
428.24987999999257
 30
0.0
 11
155.50003000000009
 21
428.24987999999257
 31
0.0
  0
LINE
  5
11756
  8
KI1
 10
153.44997999999981
 20
426.24999999999301
 30
0.0
 11
154.10003999999981
 21
426.24999999999301
 31
0.0
  0
LINE
  5
11757
  8
KI1
 10
153.44997999999981
 20
424.24993999999242
 30
0.0
 11
154.10003999999981
 21
424.24993999999242
 31
0.0
  0
LINE
  5
11758
  8
KI1
 10
153.44997999999981
 20
422.24987999999252
 30
0.0
 11
154.10003999999981
 21
422.24987999999252
 31
0.0
  0
LINE
  5
11759
  8
KI1
 10
153.44997999999981
 20
424.24993999999242
 30
0.0
 11
154.10003999999981
 21
426.24999999999301
 31
0.0
  0
LINE
  5
1175A
  8
KI1
 10
153.44997999999981
 20
422.24987999999252
 30
0.0
 11
154.10003999999981
 21
424.24993999999242
 31
0.0
  0
LINE
  5
1175B
  8
KI1
 10
153.44997999999981
 20
426.24999999999301
 30
0.0
 11
154.50003999999981
 21
428.24987999999257
 31
0.0
  0
LINE
  5
1175C
  8
KI1
 10
154.10003999999981
 20
421.0311699999927
 30
0.0
 11
154.10003999999981
 21
422.24987999999252
 31
0.0
  0
LINE
  5
1175D
  8
KI1
 10
151.99999999999969
 20
421.24989999999298
 30
0.0
 11
154.10003999999981
 21
421.0311699999927
 31
0.0
  0
LINE
  5
1175E
  8
KI1
 10
155.90003999999971
 20
426.24999999999301
 30
0.0
 11
156.55004000000031
 21
426.24999999999301
 31
0.0
  0
LINE
  5
1175F
  8
KI1
 10
155.90003999999971
 20
424.24993999999242
 30
0.0
 11
156.55004000000031
 21
424.24993999999242
 31
0.0
  0
LINE
  5
11760
  8
KI1
 10
155.90003999999971
 20
422.24987999999252
 30
0.0
 11
156.55004000000031
 21
422.24987999999252
 31
0.0
  0
LINE
  5
11761
  8
KI1
 10
155.90003999999971
 20
424.24993999999242
 30
0.0
 11
156.55004000000031
 21
422.24987999999252
 31
0.0
  0
LINE
  5
11762
  8
KI1
 10
155.90003999999971
 20
426.24999999999301
 30
0.0
 11
156.55004000000031
 21
424.24993999999242
 31
0.0
  0
LINE
  5
11763
  8
KI1
 10
155.50003000000009
 20
428.24987999999257
 30
0.0
 11
156.55004000000031
 21
426.24999999999301
 31
0.0
  0
LINE
  5
11764
  8
KI1
 10
155.90003999999971
 20
422.24987999999252
 30
0.0
 11
155.90003999999971
 21
427.48800916181102
 31
0.0
  0
LINE
  5
11765
  8
KI1
 10
153.7999999999997
 20
419.2526835830497
 30
0.0
 11
155.90003999999971
 21
419.03395358304942
 31
0.0
  0
LINE
  5
11766
  8
KI2
 10
155.90003999999971
 20
426.0839070677834
 30
0.0
 11
155.9407788534356
 21
426.12464592121933
 31
0.0
  0
LINE
  5
11767
  8
KI2
 10
155.90003999999971
 20
425.769598103546
 30
0.0
 11
156.01787175954129
 21
425.88742986308762
 31
0.0
  0
LINE
  5
11768
  8
KI2
 10
155.90003999999971
 20
425.4552891393086
 30
0.0
 11
156.0949646656469
 21
425.6502138049558
 31
0.0
  0
LINE
  5
11769
  8
KI2
 10
155.90003999999971
 20
425.14098017507121
 30
0.0
 11
156.17205757175259
 21
425.41299774682409
 31
0.0
  0
LINE
  5
1176A
  8
KI2
 10
155.90003999999971
 20
424.82667121083369
 30
0.0
 11
156.24915047785831
 21
425.17578168869233
 31
0.0
  0
LINE
  5
1176B
  8
KI2
 10
155.90003999999971
 20
424.51236224659641
 30
0.0
 11
156.326243383964
 21
424.93856563056062
 31
0.0
  0
LINE
  5
1176C
  8
KI2
 10
155.9519267176332
 20
424.24993999999242
 30
0.0
 11
156.4033362900696
 21
424.7013495724288
 31
0.0
  0
LINE
  5
1176D
  8
KI2
 10
156.2662356818706
 20
424.24993999999242
 30
0.0
 11
156.48042919617529
 21
424.46413351429709
 31
0.0
  0
LINE
  5
1176E
  8
KI2
 10
155.90003999999979
 20
427.34114292473322
 30
0.0
 11
155.95060281295179
 21
427.39170573768507
 31
0.0
  0
LINE
  5
1176F
  8
KI2
 10
155.90003999999971
 20
427.02683396049582
 30
0.0
 11
156.05881247150961
 21
427.18560643200561
 31
0.0
  0
LINE
  5
11770
  8
KI2
 10
155.90003999999971
 20
426.71252499625831
 30
0.0
 11
156.16702213006749
 21
426.97950712632598
 31
0.0
  0
LINE
  5
11771
  8
KI2
 10
155.90003999999971
 20
426.39821603202091
 30
0.0
 11
156.27523178862529
 21
426.77340782064653
 31
0.0
  0
LINE
  5
11772
  8
KI2
 10
156.0661329322092
 20
426.24999999999301
 30
0.0
 11
156.38344144718309
 21
426.5673085149669
 31
0.0
  0
LINE
  5
11773
  8
KI2
 10
156.3804418964466
 20
426.24999999999301
 30
0.0
 11
156.491651105741
 21
426.36120920928732
 31
0.0
  0
LINE
  5
11774
  8
KI2
 10
155.90003999999979
 20
424.19805328235901
 30
0.0
 11
155.9127666425897
 21
424.21077992494878
 31
0.0
  0
LINE
  5
11775
  8
KI2
 10
155.90003999999971
 20
423.8837443181215
 30
0.0
 11
155.98985954869531
 21
423.97356386681707
 31
0.0
  0
LINE
  5
11776
  8
KI2
 10
155.90003999999971
 20
423.5694353538841
 30
0.0
 11
156.066952454801
 21
423.73634780868531
 31
0.0
  0
LINE
  5
11777
  8
KI2
 10
155.90003999999971
 20
423.2551263896467
 30
0.0
 11
156.14404536090669
 21
423.4991317505536
 31
0.0
  0
LINE
  5
11778
  8
KI2
 10
155.90003999999971
 20
422.94081742540931
 30
0.0
 11
156.22113826701241
 21
423.26191569242189
 31
0.0
  0
LINE
  5
11779
  8
KI2
 10
155.90003999999971
 20
422.6265084611718
 30
0.0
 11
156.2982311731181
 21
423.02469963429019
 31
0.0
  0
LINE
  5
1177A
  8
KI2
 10
155.90003999999971
 20
422.31219949693451
 30
0.0
 11
156.37532407922379
 21
422.78748357615848
 31
0.0
  0
LINE
  5
1177B
  8
KI2
 10
156.15202946729531
 20
422.24987999999257
 30
0.0
 11
156.45241698532951
 21
422.55026751802683
 31
0.0
  0
LINE
  5
1177C
  8
KI2
 10
156.46633843153271
 20
422.24987999999252
 30
0.0
 11
156.5295098914352
 21
422.31305145989501
 31
0.0
  0
LINE
  5
1177D
  8
KI1
 10
155.90003999999971
 20
419.03395358304942
 30
0.0
 11
155.90003999999971
 21
422.24987999999252
 31
0.0
  0
LINE
  5
1177E
  8
KI1
 10
166.09996000000001
 20
419.03395358304942
 30
0.0
 11
166.09996000000001
 21
422.24987999999252
 31
0.0
  0
LINE
  5
1177F
  8
KI2
 10
165.5336615684671
 20
422.2498799999924
 30
0.0
 11
165.47049010856449
 21
422.31305145989512
 31
0.0
  0
LINE
  5
11780
  8
KI2
 10
165.84797053270449
 20
422.24987999999252
 30
0.0
 11
165.54758301467021
 21
422.55026751802683
 31
0.0
  0
LINE
  5
11781
  8
KI2
 10
166.09996000000001
 20
422.31219949693451
 30
0.0
 11
165.6246759207759
 21
422.78748357615859
 31
0.0
  0
LINE
  5
11782
  8
KI2
 10
166.09996000000001
 20
422.62650846117191
 30
0.0
 11
165.70176882688159
 21
423.0246996342903
 31
0.0
  0
LINE
  5
11783
  8
KI2
 10
166.09996000000001
 20
422.94081742540931
 30
0.0
 11
165.77886173298731
 21
423.26191569242189
 31
0.0
  0
LINE
  5
11784
  8
KI2
 10
166.09996000000001
 20
423.2551263896467
 30
0.0
 11
165.855954639093
 21
423.49913175055372
 31
0.0
  0
LINE
  5
11785
  8
KI2
 10
166.09996000000001
 20
423.5694353538841
 30
0.0
 11
165.93304754519869
 21
423.73634780868531
 31
0.0
  0
LINE
  5
11786
  8
KI2
 10
166.09996000000001
 20
423.8837443181215
 30
0.0
 11
166.01014045130441
 21
423.97356386681707
 31
0.0
  0
LINE
  5
11787
  8
KI2
 10
166.09996000000001
 20
424.19805328235901
 30
0.0
 11
166.0872333574101
 21
424.21077992494878
 31
0.0
  0
LINE
  5
11788
  8
KI2
 10
165.6195581035532
 20
426.24999999999289
 30
0.0
 11
165.5083488942588
 21
426.36120920928732
 31
0.0
  0
LINE
  5
11789
  8
KI2
 10
165.9338670677906
 20
426.24999999999289
 30
0.0
 11
165.6165585528166
 21
426.5673085149669
 31
0.0
  0
LINE
  5
1178A
  8
KI2
 10
166.09996000000001
 20
426.39821603202091
 30
0.0
 11
165.7247682113744
 21
426.77340782064653
 31
0.0
  0
LINE
  5
1178B
  8
KI2
 10
166.09996000000001
 20
426.71252499625842
 30
0.0
 11
165.83297786993231
 21
426.9795071263261
 31
0.0
  0
LINE
  5
1178C
  8
KI2
 10
166.09996000000001
 20
427.02683396049582
 30
0.0
 11
165.9411875284901
 21
427.18560643200561
 31
0.0
  0
LINE
  5
1178D
  8
KI2
 10
166.09996000000001
 20
427.34114292473322
 30
0.0
 11
166.04939718704799
 21
427.39170573768507
 31
0.0
  0
LINE
  5
1178E
  8
KI2
 10
165.7337643181292
 20
424.24993999999242
 30
0.0
 11
165.51957080382439
 21
424.46413351429709
 31
0.0
  0
LINE
  5
1178F
  8
KI2
 10
166.0480732823666
 20
424.24993999999242
 30
0.0
 11
165.59666370993011
 21
424.70134957242891
 31
0.0
  0
LINE
  5
11790
  8
KI2
 10
166.09996000000001
 20
424.51236224659641
 30
0.0
 11
165.6737566160358
 21
424.93856563056062
 31
0.0
  0
LINE
  5
11791
  8
KI2
 10
166.09996000000001
 20
424.82667121083369
 30
0.0
 11
165.75084952214141
 21
425.17578168869233
 31
0.0
  0
LINE
  5
11792
  8
KI2
 10
166.09996000000001
 20
425.14098017507121
 30
0.0
 11
165.8279424282471
 21
425.41299774682409
 31
0.0
  0
LINE
  5
11793
  8
KI2
 10
166.09996000000001
 20
425.45528913930872
 30
0.0
 11
165.90503533435279
 21
425.65021380495591
 31
0.0
  0
LINE
  5
11794
  8
KI2
 10
166.09996000000001
 20
425.769598103546
 30
0.0
 11
165.98212824045851
 21
425.88742986308762
 31
0.0
  0
LINE
  5
11795
  8
KI2
 10
166.09996000000001
 20
426.0839070677834
 30
0.0
 11
166.05922114656411
 21
426.12464592121933
 31
0.0
  0
LINE
  5
11796
  8
KI1
 10
168.19999999999999
 20
419.2526835830497
 30
0.0
 11
166.09996000000001
 21
419.03395358304942
 31
0.0
  0
ARC
  5
11797
  8
KI1
 10
152.49999999999969
 20
409.74999999999289
 30
0.0
 40
0.5
 50
180.0
 51
270.0
  0
ARC
  5
11798
  8
KI1
 10
152.49999999999969
 20
409.74999999999289
 30
0.0
 40
0.5
 50
270.0
 51
270.0
  0
ARC
  5
11799
  8
KI1
 10
169.5
 20
409.74999999999289
 30
0.0
 40
0.5
 50
270.0
 51
0.0
  0
LINE
  5
1179A
  8
KI1
 10
168.19999999999999
 20
411.04999999999291
 30
0.0
 11
168.19999999999999
 21
419.2526835830497
 31
0.0
  0
LINE
  5
1179B
  8
KI1
 10
168.19999999999999
 20
411.04999999999291
 30
0.0
 11
153.7999999999997
 21
411.04999999999279
 31
0.0
  0
LINE
  5
1179C
  8
KI1
 10
166.09996000000001
 20
422.24987999999252
 30
0.0
 11
166.09996000000001
 21
427.48800916181102
 31
0.0
  0
LINE
  5
1179D
  8
KI1
 10
166.49996999999959
 20
428.24987999999257
 30
0.0
 11
165.44995999999941
 21
426.24999999999301
 31
0.0
  0
LINE
  5
1179E
  8
KI1
 10
166.09996000000001
 20
426.24999999999301
 30
0.0
 11
165.44995999999941
 21
424.24993999999242
 31
0.0
  0
LINE
  5
1179F
  8
KI1
 10
166.09996000000001
 20
424.24993999999242
 30
0.0
 11
165.44995999999941
 21
422.24987999999252
 31
0.0
  0
LINE
  5
117A0
  8
KI1
 10
166.09996000000001
 20
422.24987999999252
 30
0.0
 11
165.44995999999941
 21
422.24987999999252
 31
0.0
  0
LINE
  5
117A1
  8
KI1
 10
166.09996000000001
 20
424.24993999999242
 30
0.0
 11
165.44995999999941
 21
424.24993999999242
 31
0.0
  0
LINE
  5
117A2
  8
KI1
 10
166.09996000000001
 20
426.24999999999301
 30
0.0
 11
165.44995999999941
 21
426.24999999999301
 31
0.0
  0
LINE
  5
117A3
  8
KI1
 10
170.0
 20
421.24989999999298
 30
0.0
 11
167.89995999999991
 21
421.0311699999927
 31
0.0
  0
LINE
  5
117A4
  8
KI1
 10
167.89995999999991
 20
421.0311699999927
 30
0.0
 11
167.89995999999991
 21
422.24987999999252
 31
0.0
  0
LINE
  5
117A5
  8
KI1
 10
168.55001999999999
 20
426.24999999999301
 30
0.0
 11
167.49995999999999
 21
428.24987999999257
 31
0.0
  0
LINE
  5
117A6
  8
KI1
 10
168.55001999999999
 20
422.24987999999252
 30
0.0
 11
167.89995999999991
 21
424.24993999999242
 31
0.0
  0
LINE
  5
117A7
  8
KI1
 10
168.55001999999999
 20
424.24993999999242
 30
0.0
 11
167.89995999999991
 21
426.24999999999301
 31
0.0
  0
LINE
  5
117A8
  8
KI1
 10
168.55001999999999
 20
422.24987999999252
 30
0.0
 11
167.89995999999991
 21
422.24987999999252
 31
0.0
  0
LINE
  5
117A9
  8
KI1
 10
168.55001999999999
 20
424.24993999999242
 30
0.0
 11
167.89995999999991
 21
424.24993999999242
 31
0.0
  0
LINE
  5
117AA
  8
KI1
 10
168.55001999999999
 20
426.24999999999301
 30
0.0
 11
167.89995999999991
 21
426.24999999999301
 31
0.0
  0
LINE
  5
117AB
  8
KI1
 10
167.49995999999999
 20
428.24987999999257
 30
0.0
 11
166.49996999999959
 21
428.24987999999257
 31
0.0
  0
LINE
  5
117AC
  8
KI1
 10
170.0
 20
409.74999999999289
 30
0.0
 11
170.0
 21
421.24989999999298
 31
0.0
  0
LINE
  5
117AD
  8
KI1
 10
169.5
 20
409.24999999999289
 30
0.0
 11
152.49999999999969
 21
409.24999999999289
 31
0.0
  0
LINE
  5
117AE
  8
KI1
 10
165.59999999999991
 20
421.24999999999289
 30
0.0
 11
156.40000000000009
 21
421.24999999999289
 31
0.0
  0
LINE
  5
117AF
  8
KI1
 10
165.60000000000031
 20
429.24999999999289
 30
0.0
 11
168.99999900000009
 21
429.24999999999289
 31
0.0
  0
LINE
  5
117B0
  8
KI1
 10
153.00000099999991
 20
429.24999999999289
 30
0.0
 11
156.40000000000009
 21
429.24999999999289
 31
0.0
  0
LINE
  5
117B1
  8
KI1
 10
169.99999999999989
 20
60.049999999992217
 30
0.0
 11
169.99999999999989
 21
165.2499999999923
 31
0.0
  0
LINE
  5
117B2
  8
KI1
 10
151.9999999999998
 20
165.2499999999923
 30
0.0
 11
151.9999999999998
 21
60.04999999999221
 31
0.0
  0
TEXT
  5
117B6
  8
SU
 10
267.19999999999999
 20
218.6145929224684
 30
0.0
 40
7.0
  1
8
 50
90.0
 41
0.8299999999999999
  0
LINE
  5
117B7
  8
KI1
 10
429.99999999999977
 20
441.25000000000028
 30
0.0
 11
429.99999999999977
 21
521.25000000000034
 31
0.0
  0
LINE
  5
117B8
  8
KI1
 10
411.99999999999972
 20
521.25000000000034
 30
0.0
 11
411.99999999999972
 21
486.25932748869172
 31
0.0
  0
LINE
  5
117B9
  8
KI1
 10
411.99999999999972
 20
462.95794637690278
 30
0.0
 11
411.99999999999972
 21
441.25000000000028
 31
0.0
  0
TEXT
  5
117BB
  8
SU
 10
527.1999999999997
 20
444.75682442043433
 30
0.0
 40
7.0
  1
8
 50
90.0
 41
0.8299999999999999
  0
TEXT
  5
117BC
  8
SU
 10
787.1999999999997
 20
445.0177339610903
 30
0.0
 40
7.0
  1
7
 50
90.0
 41
0.8299999999999999
  0
LINE
  5
117BF
  8
KI1
 10
690.0
 20
444.25000000000841
 30
0.0
 11
690.0
 21
521.25000000000034
 31
0.0
  0
LINE
  5
117C0
  8
KI1
 10
671.99999999999977
 20
521.25000000000034
 30
0.0
 11
671.99999999999977
 21
444.25000000000841
 31
0.0
  0
TEXT
  5
117C9
  8
WK
 10
786.28571599721909
 20
579.75
 30
0.0
 40
4.0
  1
大栄建材株式会社
 41
0.82
  0
LINE
  5
1183A
  8
KI1
 10
708.49999999999989
 20
248.7500509163047
 30
0.0
 11
716.50000000212947
 21
248.7500509163047
 31
0.0
  0
LINE
  5
1183B
  8
KI1
 10
708.49999999999989
 20
264.75004891630499
 30
0.0
 11
716.50000000212901
 21
264.75004891630488
 31
0.0
  0
LINE
  5
1183C
  8
KI1
 10
708.50000000212901
 20
261.35004991630473
 30
0.0
 11
716.50000000212901
 21
261.35004991630473
 31
0.0
  0
LINE
  5
1183D
  8
KI1
 10
708.50000000212901
 20
252.15004991630491
 30
0.0
 11
716.50000000212901
 21
252.1500499163044
 31
0.0
  0
LINE
  5
1183E
  8
KI1
 10
716.50000000212901
 20
252.1500499163044
 30
0.0
 11
716.50000000212901
 21
248.7500509163047
 31
0.0
  0
LINE
  5
1183F
  8
KI1
 10
716.50000000212901
 20
264.75004891630488
 30
0.0
 11
716.50000000212901
 21
261.35004991630473
 31
0.0
  0
LINE
  5
11840
  8
KI1
 10
708.50000000212901
 20
252.15004991630491
 30
0.0
 11
708.50000000212901
 21
261.35004991630473
 31
0.0
  0
LINE
  5
11842
  8
KI1
 10
456.49999999999977
 20
248.7500509163047
 30
0.0
 11
448.4999999978703
 21
248.7500509163047
 31
0.0
  0
LINE
  5
11843
  8
KI1
 10
456.49999999999989
 20
264.75004891630499
 30
0.0
 11
448.49999999787082
 21
264.75004891630488
 31
0.0
  0
LINE
  5
11844
  8
KI1
 10
456.49999999787082
 20
261.35004991630473
 30
0.0
 11
448.49999999787082
 21
261.35004991630473
 31
0.0
  0
LINE
  5
11845
  8
KI1
 10
456.49999999787082
 20
252.15004991630491
 30
0.0
 11
448.49999999787082
 21
252.1500499163044
 31
0.0
  0
LINE
  5
11846
  8
KI1
 10
448.49999999787082
 20
252.1500499163044
 30
0.0
 11
448.49999999787082
 21
248.7500509163047
 31
0.0
  0
LINE
  5
11847
  8
KI1
 10
448.49999999787082
 20
264.75004891630488
 30
0.0
 11
448.49999999787082
 21
261.35004991630473
 31
0.0
  0
LINE
  5
11848
  8
KI1
 10
456.49999999787082
 20
252.15004991630491
 30
0.0
 11
456.49999999787082
 21
261.35004991630473
 31
0.0
  0
LINE
  5
1184A
  8
OS
 10
710.80601084435375
 20
252.15004991630471
 30
0.0
 11
708.49999999999977
 21
254.4560607606586
 31
0.0
1001
ACAD
1010
0.0
1020
0.0
1030
0.0
  0
LINE
  5
1184B
  8
OS
 10
454.19398915564472
 20
252.15004991630471
 30
0.0
 11
456.49999999999989
 21
254.45606076065999
 31
0.0
1001
ACAD
1010
0.0
1020
0.0
1030
0.0
  0
LINE
  5
11863
  8
SU
 10
469.4999999978707
 20
265.74999999999949
 30
0.0
 11
511.49999999787769
 21
265.74999999999949
 31
0.0
  0
LINE
  5
11864
  8
SU
 10
508.49999999787758
 20
356.25
 30
0.0
 11
508.49999999787758
 21
265.74999999999949
 31
0.0
  0
ARC
  5
11865
  8
SU
 10
508.49999999787758
 20
356.25
 30
0.0
 40
0.6
 50
270.0
 51
90.0
  0
ARC
  5
11866
  8
SU
 10
508.49999999787758
 20
356.25
 30
0.0
 40
0.6
 50
90.0
 51
270.0
  0
ARC
  5
11867
  8
SU
 10
508.49999999787758
 20
265.74999999999949
 30
0.0
 40
0.6
 50
90.0
 51
270.0
  0
ARC
  5
11868
  8
SU
 10
508.49999999787758
 20
265.74999999999949
 30
0.0
 40
0.6
 50
270.0
 51
90.0
  0
TEXT
  5
11869
  8
SU
 10
507.19999999787763
 20
301.31666666666649
 30
0.0
 40
7.0
  1
90.5
 50
90.0
 41
0.8299999999999999
  0
LINE
  5
1186A
  8
SU
 10
469.4999999978707
 20
247.75
 30
0.0
 11
511.49999999787781
 21
247.75
 31
0.0
  0
LINE
  5
1186B
  8
SU
 10
508.49999999787792
 20
265.74999999999949
 30
0.0
 11
508.49999999787769
 21
247.75
 31
0.0
  0
ARC
  5
1186C
  8
SU
 10
508.49999999787769
 20
247.75
 30
0.0
 40
0.6
 50
90.0
 51
270.0
  0
ARC
  5
1186D
  8
SU
 10
508.49999999787769
 20
247.75
 30
0.0
 40
0.6
 50
270.0
 51
90.0
  0
TEXT
  5
1186E
  8
SU
 10
507.1999999978778
 20
251.07833333333321
 30
0.0
 40
7.0
  1
18
 50
90.0
 41
0.8299999999999999
  0
LINE
  5
1186F
  8
SU
 10
508.49999999787758
 20
247.75
 30
0.0
 11
508.49999999787758
 21
244.75000000000799
 31
0.0
  0
LINE
  5
11870
  8
SU
 10
508.49999999787758
 20
246.25000000000401
 30
0.0
 11
493.49999999787781
 21
253.61025403784831
 31
0.0
  0
LINE
  5
11871
  8
SU
 10
493.49999999787781
 20
253.61025403784831
 30
0.0
 11
493.49999999787781
 21
260.36025403784828
 31
0.0
  0
TEXT
  5
11872
  8
SU
 10
492.1999999978778
 20
254.08025403784839
 30
0.0
 40
7.0
  1
3
 50
90.0
 41
0.8299999999999999
  0
LINE
  5
11880
  8
SU
 10
696.49999999999977
 20
266.74999999999949
 30
0.0
 11
696.49999999999977
 21
379.24999999999989
 31
0.0
  0
LINE
  5
11881
  8
SU
 10
708.49999999999989
 20
376.24999999999989
 30
0.0
 11
696.49999999999977
 21
376.24999999999989
 31
0.0
  0
LINE
  5
11882
  8
SU
 10
696.49999999999977
 20
376.24999999999989
 30
0.0
 11
682.68998251149264
 21
376.24999999999989
 31
0.0
  0
ARC
  5
11883
  8
SU
 10
696.49999999999977
 20
376.24999999999989
 30
0.0
 40
0.6
 50
0.0
 51
180.0
  0
ARC
  5
11884
  8
SU
 10
696.49999999999977
 20
376.24999999999989
 30
0.0
 40
0.6
 50
180.0
 51
0.0
  0
TEXT
  5
11885
  8
SU
 10
681.96745054575695
 20
377.5499999999999
 30
0.0
 40
7.0
  1
12
 41
0.8299999999999999
  0
LINE
  5
11893
  8
SU
 10
468.49999999999977
 20
266.74999999999949
 30
0.0
 11
468.49999999999977
 21
379.25
 31
0.0
  0
LINE
  5
11894
  8
SU
 10
456.49999999999977
 20
376.25
 30
0.0
 11
468.49999999999977
 21
376.25
 31
0.0
  0
LINE
  5
11895
  8
SU
 10
468.49999999999977
 20
376.25
 30
0.0
 11
486.2784163558967
 21
376.25
 31
0.0
  0
ARC
  5
11896
  8
SU
 10
468.49999999999977
 20
376.25
 30
0.0
 40
0.6
 50
180.0
 51
0.0
  0
ARC
  5
11897
  8
SU
 10
468.49999999999977
 20
376.25
 30
0.0
 40
0.6
 50
0.0
 51
180.0
  0
TEXT
  5
11898
  8
SU
 10
471.11399999999992
 20
377.55000000000001
 30
0.0
 40
7.0
  1
12
 41
0.8299999999999999
  0
LINE
  5
118CE
  8
KI1
 10
554.49999999787838
 20
244.7500061621885
 30
0.0
 11
554.49999999787883
 21
238.2500059934915
 31
0.0
  0
LINE
  5
118CF
  8
KI1
 10
549.49999999787838
 20
244.75000616218901
 30
0.0
 11
549.49999999787838
 21
238.2500059934915
 31
0.0
  0
LINE
  5
118D0
  8
KI1
 10
554.49999999787883
 20
238.2500059934915
 30
0.0
 11
549.49999999787838
 21
238.2500059934915
 31
0.0
  0
LINE
  5
118D3
  8
KI1
 10
571.49999999787599
 20
218.25000616218651
 30
0.0
 11
576.49999999787644
 21
218.25000616218651
 31
0.0
  0
LINE
  5
118D4
  8
KI1
 10
576.49999999787644
 20
211.750005993489
 30
0.0
 11
576.49999999787644
 21
218.25000616218651
 31
0.0
  0
LINE
  5
118D6
  8
KI1
 10
571.49999999787644
 20
211.75000599348951
 30
0.0
 11
571.49999999787599
 21
218.25000616218651
 31
0.0
  0
LINE
  5
118D7
  8
KI1
 10
554.49999999787838
 20
244.75000616218639
 30
0.0
 11
560.4999999978761
 21
244.75000616218639
 31
0.0
  0
LINE
  5
118D8
  8
KI1
 10
576.49999999787644
 20
211.7500061622026
 30
0.0
 11
633.99999999787212
 21
211.7500061622026
 31
0.0
  0
LINE
  5
1190E
  8
KI1
 10
570.4999999978761
 20
247.75000599349161
 30
0.0
 11
570.4999999978761
 21
245.75000599349161
 31
0.0
  0
LINE
  5
1190F
  8
KI1
 10
545.4999999978761
 20
247.75000599349161
 30
0.0
 11
545.4999999978761
 21
244.7500059934915
 31
0.0
  0
LINE
  5
11910
  8
KI1
 10
570.4999999978761
 20
245.75000599349161
 30
0.0
 11
560.4999999978761
 21
245.75000599349161
 31
0.0
  0
LINE
  5
11911
  8
KI1
 10
549.99999999787599
 20
242.7500059934915
 30
0.0
 11
549.4999999978761
 21
243.25000599349161
 31
0.0
  0
LINE
  5
11912
  8
KI1
 10
549.4999999978761
 20
240.2500059934915
 30
0.0
 11
549.99999999787599
 21
240.2500059934915
 31
0.0
  0
LINE
  5
11913
  8
KI1
 10
549.99999999787599
 20
239.75000599349161
 30
0.0
 11
549.4999999978761
 21
240.2500059934915
 31
0.0
  0
LINE
  5
11914
  8
KI1
 10
549.99999999787599
 20
241.25000599349161
 30
0.0
 11
549.4999999978761
 21
241.75000599349161
 31
0.0
  0
LINE
  5
11915
  8
KI1
 10
549.4999999978761
 20
241.75000599349161
 30
0.0
 11
549.99999999787599
 21
241.75000599349161
 31
0.0
  0
LINE
  5
11916
  8
KI1
 10
545.4999999978761
 20
244.7500059934915
 30
0.0
 11
549.99999999787599
 21
245.75000599349161
 31
0.0
  0
LINE
  5
11917
  8
KI1
 10
549.4999999978761
 20
243.25000599349161
 30
0.0
 11
549.99999999787599
 21
243.25000599349161
 31
0.0
  0
LINE
  5
11918
  8
KI1
 10
560.4999999978761
 20
245.75000599349161
 30
0.0
 11
560.4999999978761
 21
244.7500059934915
 31
0.0
  0
LINE
  5
11919
  8
KI1
 10
554.49999999787599
 20
243.25000599349161
 30
0.0
 11
553.9999999978761
 21
242.7500059934915
 31
0.0
  0
LINE
  5
1191A
  8
KI1
 10
553.9999999978761
 20
241.75000599349161
 30
0.0
 11
553.9999999978761
 21
242.7500059934915
 31
0.0
  0
LINE
  5
1191B
  8
KI1
 10
554.49999999787599
 20
241.75000599349161
 30
0.0
 11
553.9999999978761
 21
241.25000599349161
 31
0.0
  0
LINE
  5
1191C
  8
KI1
 10
553.9999999978761
 20
241.75000599349161
 30
0.0
 11
554.49999999787599
 21
241.75000599349161
 31
0.0
  0
LINE
  5
1191D
  8
KI1
 10
553.9999999978761
 20
240.2500059934915
 30
0.0
 11
554.49999999787599
 21
240.2500059934915
 31
0.0
  0
LINE
  5
1191E
  8
KI1
 10
554.49999999787599
 20
240.2500059934915
 30
0.0
 11
553.9999999978761
 21
239.75000599349161
 31
0.0
  0
LINE
  5
1191F
  8
KI1
 10
549.99999999787599
 20
241.25000599349161
 30
0.0
 11
549.99999999787599
 21
240.2500059934915
 31
0.0
  0
LINE
  5
11920
  8
KI1
 10
553.9999999978761
 20
240.2500059934915
 30
0.0
 11
553.9999999978761
 21
241.25000599349161
 31
0.0
  0
LINE
  5
11921
  8
KI1
 10
549.99999999787599
 20
242.7500059934915
 30
0.0
 11
549.99999999787599
 21
241.75000599349161
 31
0.0
  0
LINE
  5
11922
  8
KI1
 10
553.9999999978761
 20
245.75000599349161
 30
0.0
 11
553.9999999978761
 21
243.25000599349161
 31
0.0
  0
LINE
  5
11923
  8
KI1
 10
553.9999999978761
 20
243.25000599349161
 30
0.0
 11
554.49999999787599
 21
243.25000599349161
 31
0.0
  0
LINE
  5
11924
  8
KI1
 10
549.99999999787599
 20
243.25000599349161
 30
0.0
 11
549.99999999787599
 21
245.75000599349161
 31
0.0
  0
LINE
  5
11925
  8
KI1
 10
560.4999999978761
 20
244.7500059934915
 30
0.0
 11
553.9999999978761
 21
245.75000599349161
 31
0.0
  0
LINE
  5
11926
  8
KI1
 10
549.99999999787599
 20
238.7500059934915
 30
0.0
 11
553.9999999978761
 21
238.7500059934915
 31
0.0
  0
LINE
  5
11927
  8
KI1
 10
549.99999999787599
 20
239.75000599349161
 30
0.0
 11
549.99999999787599
 21
238.7500059934915
 31
0.0
  0
LINE
  5
11928
  8
KI1
 10
553.9999999978761
 20
238.7500059934915
 30
0.0
 11
553.9999999978761
 21
239.75000599349161
 31
0.0
  0
LINE
  5
11929
  8
KI1
 10
567.99999999787599
 20
250.25000599349161
 30
0.0
 11
570.4999999978761
 21
247.75000599349161
 31
0.0
  0
LINE
  5
1192A
  8
KI1
 10
547.9999999978761
 20
250.25000599349161
 30
0.0
 11
567.99999999787599
 21
250.25000599349161
 31
0.0
  0
LINE
  5
1192B
  8
KI1
 10
547.9999999978761
 20
250.25000599349161
 30
0.0
 11
545.4999999978761
 21
247.75000599349161
 31
0.0
  0
LINE
  5
1192C
  8
KI1
 10
555.49999999787883
 20
208.75000616218639
 30
0.0
 11
555.49999999787883
 21
210.75000616218639
 31
0.0
  0
LINE
  5
1192D
  8
KI1
 10
580.49999999787883
 20
208.75000616218639
 30
0.0
 11
580.49999999787883
 21
211.75000616218651
 31
0.0
  0
LINE
  5
1192E
  8
KI1
 10
555.49999999787883
 20
210.75000616218639
 30
0.0
 11
565.49999999787883
 21
210.75000616218639
 31
0.0
  0
LINE
  5
1192F
  8
KI1
 10
575.99999999787883
 20
213.75000616218651
 30
0.0
 11
576.49999999787883
 21
213.25000616218639
 31
0.0
  0
LINE
  5
11930
  8
KI1
 10
576.49999999787883
 20
216.25000616218651
 30
0.0
 11
575.99999999787883
 21
216.25000616218651
 31
0.0
  0
LINE
  5
11931
  8
KI1
 10
575.99999999787883
 20
216.75000616218639
 30
0.0
 11
576.49999999787883
 21
216.25000616218651
 31
0.0
  0
LINE
  5
11932
  8
KI1
 10
575.99999999787883
 20
215.25000616218639
 30
0.0
 11
576.49999999787883
 21
214.75000616218639
 31
0.0
  0
LINE
  5
11933
  8
KI1
 10
576.49999999787883
 20
214.75000616218639
 30
0.0
 11
575.99999999787883
 21
214.75000616218639
 31
0.0
  0
LINE
  5
11934
  8
KI1
 10
580.49999999787883
 20
211.75000616218651
 30
0.0
 11
575.99999999787883
 21
210.75000616218639
 31
0.0
  0
LINE
  5
11935
  8
KI1
 10
576.49999999787883
 20
213.25000616218639
 30
0.0
 11
575.99999999787883
 21
213.25000616218639
 31
0.0
  0
LINE
  5
11936
  8
KI1
 10
565.49999999787883
 20
210.75000616218639
 30
0.0
 11
565.49999999787883
 21
211.75000616218651
 31
0.0
  0
LINE
  5
11937
  8
KI1
 10
571.49999999787883
 20
213.25000616218639
 30
0.0
 11
571.99999999787883
 21
213.75000616218651
 31
0.0
  0
LINE
  5
11938
  8
KI1
 10
571.99999999787883
 20
214.75000616218639
 30
0.0
 11
571.99999999787883
 21
213.75000616218651
 31
0.0
  0
LINE
  5
11939
  8
KI1
 10
571.49999999787883
 20
214.75000616218639
 30
0.0
 11
571.99999999787883
 21
215.25000616218639
 31
0.0
  0
LINE
  5
1193A
  8
KI1
 10
571.99999999787883
 20
214.75000616218639
 30
0.0
 11
571.49999999787883
 21
214.75000616218639
 31
0.0
  0
LINE
  5
1193B
  8
KI1
 10
571.99999999787883
 20
216.25000616218651
 30
0.0
 11
571.49999999787883
 21
216.25000616218651
 31
0.0
  0
LINE
  5
1193C
  8
KI1
 10
571.49999999787883
 20
216.25000616218651
 30
0.0
 11
571.99999999787883
 21
216.75000616218639
 31
0.0
  0
LINE
  5
1193D
  8
KI1
 10
575.99999999787883
 20
215.25000616218639
 30
0.0
 11
575.99999999787883
 21
216.25000616218651
 31
0.0
  0
LINE
  5
1193E
  8
KI1
 10
571.99999999787883
 20
216.25000616218651
 30
0.0
 11
571.99999999787883
 21
215.25000616218639
 31
0.0
  0
LINE
  5
1193F
  8
KI1
 10
575.99999999787883
 20
213.75000616218651
 30
0.0
 11
575.99999999787883
 21
214.75000616218639
 31
0.0
  0
LINE
  5
11940
  8
KI1
 10
571.99999999787883
 20
210.75000616218639
 30
0.0
 11
571.99999999787883
 21
213.25000616218639
 31
0.0
  0
LINE
  5
11941
  8
KI1
 10
571.99999999787883
 20
213.25000616218639
 30
0.0
 11
571.49999999787883
 21
213.25000616218639
 31
0.0
  0
LINE
  5
11942
  8
KI1
 10
575.99999999787883
 20
213.25000616218639
 30
0.0
 11
575.99999999787883
 21
210.75000616218639
 31
0.0
  0
LINE
  5
11943
  8
KI1
 10
565.49999999787883
 20
211.75000616218651
 30
0.0
 11
571.99999999787883
 21
210.75000616218639
 31
0.0
  0
LINE
  5
11944
  8
KI1
 10
575.99999999787883
 20
217.75000616218651
 30
0.0
 11
571.99999999787883
 21
217.75000616218651
 31
0.0
  0
LINE
  5
11945
  8
KI1
 10
575.99999999787883
 20
216.75000616218639
 30
0.0
 11
575.99999999787883
 21
217.75000616218651
 31
0.0
  0
LINE
  5
11946
  8
KI1
 10
571.99999999787883
 20
217.75000616218651
 30
0.0
 11
571.99999999787883
 21
216.75000616218639
 31
0.0
  0
LINE
  5
11947
  8
KI1
 10
557.99999999787883
 20
206.25000616218639
 30
0.0
 11
555.49999999787883
 21
208.75000616218639
 31
0.0
  0
LINE
  5
11948
  8
KI1
 10
577.99999999787883
 20
206.25000616218639
 30
0.0
 11
557.99999999787883
 21
206.25000616218639
 31
0.0
  0
LINE
  5
11949
  8
KI1
 10
577.99999999787883
 20
206.25000616218639
 30
0.0
 11
580.49999999787883
 21
208.75000616218639
 31
0.0
  0
LINE
  5
1196E
  8
KI2
 10
451.66609293008008
 20
261.85000991630483
 30
0.0
 11
451.62535407664433
 21
261.80927106286902
 31
0.0
  0
LINE
  5
1196F
  8
KI2
 10
451.98040189431759
 20
261.85000991630488
 30
0.0
 11
451.86257013477609
 21
261.73217815676333
 31
0.0
  0
LINE
  5
11970
  8
KI2
 10
452.29471085855499
 20
261.85000991630488
 30
0.0
 11
452.09978619290769
 21
261.65508525065769
 31
0.0
  0
LINE
  5
11971
  8
KI2
 10
452.60901982279239
 20
261.85000991630488
 30
0.0
 11
452.33700225103951
 21
261.57799234455189
 31
0.0
  0
LINE
  5
11972
  8
KI2
 10
452.92332878702979
 20
261.85000991630488
 30
0.0
 11
452.57421830917127
 21
261.50089943844642
 31
0.0
  0
LINE
  5
11973
  8
KI2
 10
453.23763775126719
 20
261.85000991630488
 30
0.0
 11
452.81143436730298
 21
261.42380653234068
 31
0.0
  0
LINE
  5
11974
  8
KI2
 10
453.50005999787129
 20
261.79812319867142
 30
0.0
 11
453.0486504254348
 21
261.34671362623499
 31
0.0
  0
LINE
  5
11975
  8
KI2
 10
453.50005999787129
 20
261.48381423443402
 30
0.0
 11
453.28586648356662
 21
261.26962072012941
 31
0.0
  0
LINE
  5
11976
  8
KI2
 10
450.40885707313049
 20
261.85000991630488
 30
0.0
 11
450.35829426017852
 21
261.79944710335292
 31
0.0
  0
LINE
  5
11977
  8
KI2
 10
450.72316603736789
 20
261.85000991630483
 30
0.0
 11
450.5643935658581
 21
261.69123744479498
 31
0.0
  0
LINE
  5
11978
  8
KI2
 10
451.03747500160529
 20
261.85000991630483
 30
0.0
 11
450.77049287153761
 21
261.58302778623721
 31
0.0
  0
LINE
  5
11979
  8
KI2
 10
451.35178396584269
 20
261.85000991630483
 30
0.0
 11
450.97659217721719
 21
261.47481812767921
 31
0.0
  0
LINE
  5
1197A
  8
KI2
 10
451.4999999978707
 20
261.68391698409539
 30
0.0
 11
451.1826914828967
 21
261.36660846912139
 31
0.0
  0
LINE
  5
1197B
  8
KI2
 10
451.4999999978707
 20
261.36960801985799
 30
0.0
 11
451.38879078857627
 21
261.25839881056362
 31
0.0
  0
LINE
  5
1197C
  8
KI2
 10
453.5519467155047
 20
261.85000991630488
 30
0.0
 11
453.53922007291482
 21
261.837283273715
 31
0.0
  0
LINE
  5
1197D
  8
KI2
 10
453.8662556797421
 20
261.85000991630488
 30
0.0
 11
453.77643613104658
 21
261.76019036760931
 31
0.0
  0
LINE
  5
1197E
  8
KI2
 10
454.18056464397961
 20
261.85000991630488
 30
0.0
 11
454.01365218917817
 21
261.68309746150351
 31
0.0
  0
LINE
  5
1197F
  8
KI2
 10
454.49487360821701
 20
261.85000991630488
 30
0.0
 11
454.25086824731
 21
261.60600455539782
 31
0.0
  0
LINE
  5
11980
  8
KI2
 10
454.80918257245452
 20
261.85000991630488
 30
0.0
 11
454.4880843054417
 21
261.52891164929213
 31
0.0
  0
LINE
  5
11981
  8
KI2
 10
455.1234915366918
 20
261.85000991630488
 30
0.0
 11
454.7253003635733
 21
261.45181874318649
 31
0.0
  0
LINE
  5
11982
  8
KI2
 10
455.4378005009292
 20
261.85000991630488
 30
0.0
 11
454.96251642170517
 21
261.37472583708092
 31
0.0
  0
LINE
  5
11983
  8
KI2
 10
455.50011999787108
 20
261.59802044900943
 30
0.0
 11
455.19973247983683
 21
261.29763293097511
 31
0.0
  0
LINE
  5
11984
  8
KI2
 10
455.50011999787108
 20
261.28371148477203
 30
0.0
 11
455.43694853796848
 21
261.22054002486942
 31
0.0
  0
LINE
  5
11985
  8
KI1
 10
458.71604641481417
 20
261.85000991630488
 30
0.0
 11
455.50011999787108
 21
261.85000991630488
 31
0.0
  0
LINE
  5
11986
  8
KI1
 10
458.71604641481417
 20
251.65008991630461
 30
0.0
 11
455.50011999787108
 21
251.65008991630461
 31
0.0
  0
LINE
  5
11987
  8
KI2
 10
455.50011999787102
 20
252.21638834783769
 30
0.0
 11
455.43694853796848
 21
252.27955980774021
 31
0.0
  0
LINE
  5
11988
  8
KI2
 10
455.50011999787108
 20
251.90207938360021
 30
0.0
 11
455.19973247983683
 21
252.20246690163449
 31
0.0
  0
LINE
  5
11989
  8
KI2
 10
455.4378005009292
 20
251.65008991630461
 30
0.0
 11
454.96251642170517
 21
252.12537399552869
 31
0.0
  0
LINE
  5
1198A
  8
KI2
 10
455.1234915366918
 20
251.65008991630461
 30
0.0
 11
454.72530036357352
 21
252.048281089423
 31
0.0
  0
LINE
  5
1198B
  8
KI2
 10
454.80918257245452
 20
251.65008991630461
 30
0.0
 11
454.48808430544182
 21
251.97118818331731
 31
0.0
  0
LINE
  5
1198C
  8
KI2
 10
454.49487360821701
 20
251.65008991630461
 30
0.0
 11
454.25086824731
 21
251.89409527721159
 31
0.0
  0
LINE
  5
1198D
  8
KI2
 10
454.18056464397961
 20
251.65008991630461
 30
0.0
 11
454.01365218917817
 21
251.81700237110601
 31
0.0
  0
LINE
  5
1198E
  8
KI2
 10
453.8662556797421
 20
251.65008991630481
 30
0.0
 11
453.77643613104658
 21
251.7399094650003
 31
0.0
  0
LINE
  5
1198F
  8
KI2
 10
453.5519467155047
 20
251.65008991630461
 30
0.0
 11
453.53922007291482
 21
251.66281655889449
 31
0.0
  0
LINE
  5
11990
  8
KI2
 10
451.4999999978707
 20
252.13049181275159
 30
0.0
 11
451.38879078857627
 21
252.2417010220459
 31
0.0
  0
LINE
  5
11991
  8
KI2
 10
451.4999999978707
 20
251.8161828485141
 30
0.0
 11
451.1826914828967
 21
252.1334913634881
 31
0.0
  0
LINE
  5
11992
  8
KI2
 10
451.35178396584269
 20
251.65008991630481
 30
0.0
 11
450.97659217721719
 21
252.02528170493031
 31
0.0
  0
LINE
  5
11993
  8
KI2
 10
451.03747500160529
 20
251.65008991630481
 30
0.0
 11
450.77049287153761
 21
251.91707204637251
 31
0.0
  0
LINE
  5
11994
  8
KI2
 10
450.72316603736789
 20
251.65008991630481
 30
0.0
 11
450.5643935658581
 21
251.8088623878146
 31
0.0
  0
LINE
  5
11995
  8
KI2
 10
450.40885707313049
 20
251.65008991630481
 30
0.0
 11
450.35829426017852
 21
251.70065272925669
 31
0.0
  0
LINE
  5
11996
  8
KI2
 10
453.50005999787129
 20
252.01628559817561
 30
0.0
 11
453.28586648356651
 21
252.23047911248031
 31
0.0
  0
LINE
  5
11997
  8
KI2
 10
453.50005999787129
 20
251.7019766339381
 30
0.0
 11
453.0486504254348
 21
252.15338620637451
 31
0.0
  0
LINE
  5
11998
  8
KI2
 10
453.23763775126719
 20
251.65008991630461
 30
0.0
 11
452.81143436730298
 21
252.07629330026879
 31
0.0
  0
LINE
  5
11999
  8
KI2
 10
452.92332878702979
 20
251.65008991630461
 30
0.0
 11
452.57421830917127
 21
251.99920039416321
 31
0.0
  0
LINE
  5
1199A
  8
KI2
 10
452.60901982279239
 20
251.65008991630461
 30
0.0
 11
452.33700225103962
 21
251.92210748805749
 31
0.0
  0
LINE
  5
1199B
  8
KI2
 10
452.29471085855499
 20
251.65008991630461
 30
0.0
 11
452.09978619290769
 21
251.84501458195189
 31
0.0
  0
LINE
  5
1199C
  8
KI2
 10
451.98040189431759
 20
251.65008991630461
 30
0.0
 11
451.86257013477609
 21
251.7679216758462
 31
0.0
  0
LINE
  5
1199D
  8
KI2
 10
451.6660929300802
 20
251.65008991630461
 30
0.0
 11
451.62535407664433
 21
251.69082876974051
 31
0.0
  0
LINE
  5
1199E
  8
KI1
 10
458.49731641481401
 20
249.5500499163046
 30
0.0
 11
458.71604641481417
 21
251.65008991630461
 31
0.0
  0
ARC
  5
1199F
  8
KI1
 10
467.9999999978707
 20
265.25004991630487
 30
0.0
 40
0.5
 50
0.0
 51
90.0
  0
ARC
  5
119A0
  8
KI1
 10
467.9999999978707
 20
265.25004991630487
 30
0.0
 40
0.5
 50
0.0
 51
0.0
  0
ARC
  5
119A1
  8
KI1
 10
467.9999999978707
 20
248.25004991630459
 30
0.0
 40
0.5
 50
270.0
 51
0.0
  0
LINE
  5
119A2
  8
KI1
 10
466.6999999978708
 20
249.5500499163046
 30
0.0
 11
458.49731641481401
 21
249.5500499163046
 31
0.0
  0
LINE
  5
119A3
  8
KI1
 10
466.6999999978708
 20
249.5500499163046
 30
0.0
 11
466.6999999978708
 21
263.95004991630492
 31
0.0
  0
LINE
  5
119A4
  8
KI1
 10
455.50011999787108
 20
251.65008991630461
 30
0.0
 11
450.26199083605258
 21
251.65008991630461
 31
0.0
  0
LINE
  5
119A5
  8
KI1
 10
449.50011999787108
 20
251.250079916305
 30
0.0
 11
451.4999999978707
 21
252.30008991630521
 31
0.0
  0
LINE
  5
119A6
  8
KI1
 10
451.4999999978707
 20
251.65008991630461
 30
0.0
 11
453.50005999787129
 21
252.30008991630521
 31
0.0
  0
LINE
  5
119A7
  8
KI1
 10
453.50005999787129
 20
251.65008991630461
 30
0.0
 11
455.50011999787108
 21
252.30008991630521
 31
0.0
  0
LINE
  5
119A8
  8
KI1
 10
455.50011999787108
 20
251.65008991630461
 30
0.0
 11
455.50011999787108
 21
252.30008991630521
 31
0.0
  0
LINE
  5
119A9
  8
KI1
 10
453.50005999787129
 20
251.65008991630461
 30
0.0
 11
453.50005999787129
 21
252.30008991630521
 31
0.0
  0
LINE
  5
119AA
  8
KI1
 10
451.4999999978707
 20
251.65008991630461
 30
0.0
 11
451.4999999978707
 21
252.30008991630521
 31
0.0
  0
LINE
  5
119AB
  8
KI1
 10
456.50009999787068
 20
247.75004991630459
 30
0.0
 11
456.71882999787101
 21
249.85008991630471
 31
0.0
  0
LINE
  5
119AC
  8
KI1
 10
456.71882999787101
 20
249.85008991630471
 30
0.0
 11
455.50011999787108
 21
249.85008991630471
 31
0.0
  0
LINE
  5
119AD
  8
KI1
 10
451.4999999978707
 20
249.2000299163046
 30
0.0
 11
449.50011999787108
 21
250.25008991630469
 31
0.0
  0
LINE
  5
119AE
  8
KI1
 10
455.50011999787108
 20
249.2000299163046
 30
0.0
 11
453.50005999787129
 21
249.85008991630471
 31
0.0
  0
LINE
  5
119AF
  8
KI1
 10
453.50005999787129
 20
249.2000299163046
 30
0.0
 11
451.4999999978707
 21
249.85008991630471
 31
0.0
  0
LINE
  5
119B0
  8
KI1
 10
455.50011999787108
 20
249.2000299163046
 30
0.0
 11
455.50011999787108
 21
249.85008991630471
 31
0.0
  0
LINE
  5
119B1
  8
KI1
 10
453.50005999787129
 20
249.2000299163046
 30
0.0
 11
453.50005999787129
 21
249.85008991630471
 31
0.0
  0
LINE
  5
119B2
  8
KI1
 10
451.4999999978707
 20
249.2000299163046
 30
0.0
 11
451.4999999978707
 21
249.85008991630471
 31
0.0
  0
LINE
  5
119B3
  8
KI1
 10
449.50011999787108
 20
250.25008991630469
 30
0.0
 11
449.50011999787108
 21
251.250079916305
 31
0.0
  0
LINE
  5
119B4
  8
KI1
 10
467.9999999978707
 20
247.75004991630459
 30
0.0
 11
456.50009999787068
 21
247.75004991630459
 31
0.0
  0
LINE
  5
119B5
  8
KI1
 10
468.4999999978707
 20
248.25004991630459
 30
0.0
 11
468.4999999978707
 21
265.25004991630487
 31
0.0
  0
LINE
  5
119B6
  8
KI1
 10
467.9999999978707
 20
265.75004991630487
 30
0.0
 11
456.50009999787068
 21
265.75004991630487
 31
0.0
  0
LINE
  5
119B7
  8
KI1
 10
466.6999999978708
 20
263.95004991630492
 30
0.0
 11
458.49731641481401
 21
263.95004991630492
 31
0.0
  0
LINE
  5
119B8
  8
KI1
 10
449.50011999787108
 20
263.25000991630492
 30
0.0
 11
449.50011999787108
 21
262.2500199163045
 31
0.0
  0
LINE
  5
119B9
  8
KI1
 10
451.4999999978707
 20
264.30006991630478
 30
0.0
 11
451.4999999978707
 21
263.65000991630478
 31
0.0
  0
LINE
  5
119BA
  8
KI1
 10
453.50005999787129
 20
264.30006991630478
 30
0.0
 11
453.50005999787129
 21
263.65000991630478
 31
0.0
  0
LINE
  5
119BB
  8
KI1
 10
455.50011999787108
 20
264.30006991630478
 30
0.0
 11
455.50011999787108
 21
263.65000991630478
 31
0.0
  0
LINE
  5
119BC
  8
KI1
 10
453.50005999787129
 20
264.30006991630478
 30
0.0
 11
451.4999999978707
 21
263.65000991630478
 31
0.0
  0
LINE
  5
119BD
  8
KI1
 10
455.50011999787108
 20
264.30006991630478
 30
0.0
 11
453.50005999787129
 21
263.65000991630478
 31
0.0
  0
LINE
  5
119BE
  8
KI1
 10
451.4999999978707
 20
264.30006991630478
 30
0.0
 11
449.50011999787108
 21
263.25000991630492
 31
0.0
  0
LINE
  5
119BF
  8
KI1
 10
456.71882999787101
 20
263.65000991630478
 30
0.0
 11
455.50011999787108
 21
263.65000991630478
 31
0.0
  0
LINE
  5
119C0
  8
KI1
 10
456.50009999787068
 20
265.75004991630487
 30
0.0
 11
456.71882999787101
 21
263.65000991630478
 31
0.0
  0
LINE
  5
119C1
  8
KI1
 10
451.4999999978707
 20
261.85000991630488
 30
0.0
 11
451.4999999978707
 21
261.2000099163044
 31
0.0
  0
LINE
  5
119C2
  8
KI1
 10
453.50005999787129
 20
261.85000991630488
 30
0.0
 11
453.50005999787129
 21
261.2000099163044
 31
0.0
  0
LINE
  5
119C3
  8
KI1
 10
455.50011999787108
 20
261.85000991630488
 30
0.0
 11
455.50011999787108
 21
261.2000099163044
 31
0.0
  0
LINE
  5
119C4
  8
KI1
 10
453.50005999787129
 20
261.85000991630488
 30
0.0
 11
455.50011999787108
 21
261.2000099163044
 31
0.0
  0
LINE
  5
119C5
  8
KI1
 10
451.4999999978707
 20
261.85000991630488
 30
0.0
 11
453.50005999787129
 21
261.2000099163044
 31
0.0
  0
LINE
  5
119C6
  8
KI1
 10
449.50011999787108
 20
262.2500199163045
 30
0.0
 11
451.4999999978707
 21
261.2000099163044
 31
0.0
  0
LINE
  5
119C7
  8
KI1
 10
455.50011999787108
 20
261.85000991630488
 30
0.0
 11
450.26199083605258
 21
261.85000991630488
 31
0.0
  0
LINE
  5
119C8
  8
KI1
 10
458.49731641481401
 20
263.95004991630492
 30
0.0
 11
458.71604641481417
 21
261.85000991630488
 31
0.0
  0
LINE
  5
119C9
  8
KI2
 10
713.33390706991963
 20
261.85000991630483
 30
0.0
 11
713.37464592335527
 21
261.80927106286902
 31
0.0
  0
LINE
  5
119CA
  8
KI2
 10
713.01959810568212
 20
261.85000991630488
 30
0.0
 11
713.13742986522368
 21
261.73217815676333
 31
0.0
  0
LINE
  5
119CB
  8
KI2
 10
712.70528914144472
 20
261.85000991630488
 30
0.0
 11
712.90021380709186
 21
261.65508525065769
 31
0.0
  0
LINE
  5
119CC
  8
KI2
 10
712.39098017720733
 20
261.85000991630488
 30
0.0
 11
712.66299774896015
 21
261.57799234455189
 31
0.0
  0
LINE
  5
119CD
  8
KI2
 10
712.07667121296993
 20
261.85000991630488
 30
0.0
 11
712.42578169082844
 21
261.50089943844642
 31
0.0
  0
LINE
  5
119CE
  8
KI2
 10
711.76236224873253
 20
261.85000991630488
 30
0.0
 11
712.18856563269674
 21
261.42380653234068
 31
0.0
  0
LINE
  5
119CF
  8
KI2
 10
711.49994000212837
 20
261.79812319867142
 30
0.0
 11
711.95134957456492
 21
261.34671362623499
 31
0.0
  0
LINE
  5
119D0
  8
KI2
 10
711.49994000212837
 20
261.48381423443402
 30
0.0
 11
711.71413351643309
 21
261.26962072012941
 31
0.0
  0
LINE
  5
119D1
  8
KI2
 10
714.59114292686922
 20
261.85000991630488
 30
0.0
 11
714.64170573982108
 21
261.79944710335292
 31
0.0
  0
LINE
  5
119D2
  8
KI2
 10
714.27683396263183
 20
261.85000991630483
 30
0.0
 11
714.4356064341415
 21
261.69123744479498
 31
0.0
  0
LINE
  5
119D3
  8
KI2
 10
713.96252499839443
 20
261.85000991630483
 30
0.0
 11
714.22950712846205
 21
261.58302778623721
 31
0.0
  0
LINE
  5
119D4
  8
KI2
 10
713.64821603415703
 20
261.85000991630483
 30
0.0
 11
714.02340782278259
 21
261.47481812767921
 31
0.0
  0
LINE
  5
119D5
  8
KI2
 10
713.50000000212901
 20
261.68391698409539
 30
0.0
 11
713.81730851710302
 21
261.36660846912139
 31
0.0
  0
LINE
  5
119D6
  8
KI2
 10
713.50000000212901
 20
261.36960801985799
 30
0.0
 11
713.61120921142344
 21
261.25839881056362
 31
0.0
  0
LINE
  5
119D7
  8
KI2
 10
711.44805328449502
 20
261.85000991630488
 30
0.0
 11
711.46077992708479
 21
261.837283273715
 31
0.0
  0
LINE
  5
119D8
  8
KI2
 10
711.13374432025762
 20
261.85000991630488
 30
0.0
 11
711.22356386895319
 21
261.76019036760931
 31
0.0
  0
LINE
  5
119D9
  8
KI2
 10
710.81943535601999
 20
261.85000991630488
 30
0.0
 11
710.98634781082148
 21
261.68309746150351
 31
0.0
  0
LINE
  5
119DA
  8
KI2
 10
710.50512639178271
 20
261.85000991630488
 30
0.0
 11
710.74913175268966
 21
261.60600455539782
 31
0.0
  0
LINE
  5
119DB
  8
KI2
 10
710.19081742754531
 20
261.85000991630488
 30
0.0
 11
710.51191569455807
 21
261.52891164929213
 31
0.0
  0
LINE
  5
119DC
  8
KI2
 10
709.87650846330791
 20
261.85000991630488
 30
0.0
 11
710.27469963642625
 21
261.45181874318649
 31
0.0
  0
LINE
  5
119DD
  8
KI2
 10
709.56219949907052
 20
261.85000991630488
 30
0.0
 11
710.03748357829454
 21
261.37472583708092
 31
0.0
  0
LINE
  5
119DE
  8
KI2
 10
709.49988000212863
 20
261.59802044900943
 30
0.0
 11
709.80026752016295
 21
261.29763293097511
 31
0.0
  0
LINE
  5
119DF
  8
KI2
 10
709.49988000212863
 20
261.28371148477203
 30
0.0
 11
709.56305146203124
 21
261.22054002486942
 31
0.0
  0
LINE
  5
119E0
  8
KI1
 10
706.28395358518537
 20
261.85000991630488
 30
0.0
 11
709.49988000212863
 21
261.85000991630488
 31
0.0
  0
LINE
  5
119E1
  8
KI1
 10
706.28395358518537
 20
251.65008991630461
 30
0.0
 11
709.49988000212863
 21
251.65008991630461
 31
0.0
  0
LINE
  5
119E2
  8
KI2
 10
709.49988000212875
 20
252.21638834783769
 30
0.0
 11
709.56305146203124
 21
252.27955980774021
 31
0.0
  0
LINE
  5
119E3
  8
KI2
 10
709.49988000212863
 20
251.90207938360021
 30
0.0
 11
709.80026752016295
 21
252.20246690163449
 31
0.0
  0
LINE
  5
119E4
  8
KI2
 10
709.56219949907052
 20
251.65008991630461
 30
0.0
 11
710.03748357829454
 21
252.12537399552869
 31
0.0
  0
LINE
  5
119E5
  8
KI2
 10
709.87650846330791
 20
251.65008991630461
 30
0.0
 11
710.27469963642625
 21
252.048281089423
 31
0.0
  0
LINE
  5
119E6
  8
KI2
 10
710.19081742754531
 20
251.65008991630461
 30
0.0
 11
710.51191569455796
 21
251.97118818331731
 31
0.0
  0
LINE
  5
119E7
  8
KI2
 10
710.50512639178271
 20
251.65008991630461
 30
0.0
 11
710.74913175268955
 21
251.89409527721159
 31
0.0
  0
LINE
  5
119E8
  8
KI2
 10
710.81943535601999
 20
251.65008991630461
 30
0.0
 11
710.98634781082148
 21
251.81700237110601
 31
0.0
  0
LINE
  5
119E9
  8
KI2
 10
711.13374432025762
 20
251.65008991630481
 30
0.0
 11
711.22356386895319
 21
251.7399094650003
 31
0.0
  0
LINE
  5
119EA
  8
KI2
 10
711.44805328449502
 20
251.65008991630461
 30
0.0
 11
711.46077992708479
 21
251.66281655889449
 31
0.0
  0
LINE
  5
119EB
  8
KI2
 10
713.50000000212901
 20
252.13049181275159
 30
0.0
 11
713.61120921142344
 21
252.2417010220459
 31
0.0
  0
LINE
  5
119EC
  8
KI2
 10
713.50000000212901
 20
251.8161828485141
 30
0.0
 11
713.81730851710302
 21
252.1334913634881
 31
0.0
  0
LINE
  5
119ED
  8
KI2
 10
713.64821603415703
 20
251.65008991630481
 30
0.0
 11
714.02340782278259
 21
252.02528170493031
 31
0.0
  0
LINE
  5
119EE
  8
KI2
 10
713.96252499839443
 20
251.65008991630481
 30
0.0
 11
714.22950712846205
 21
251.91707204637251
 31
0.0
  0
LINE
  5
119EF
  8
KI2
 10
714.27683396263183
 20
251.65008991630481
 30
0.0
 11
714.4356064341415
 21
251.8088623878146
 31
0.0
  0
LINE
  5
119F0
  8
KI2
 10
714.59114292686922
 20
251.65008991630481
 30
0.0
 11
714.64170573982108
 21
251.70065272925669
 31
0.0
  0
LINE
  5
119F1
  8
KI2
 10
711.49994000212837
 20
252.01628559817561
 30
0.0
 11
711.71413351643321
 21
252.23047911248031
 31
0.0
  0
LINE
  5
119F2
  8
KI2
 10
711.49994000212837
 20
251.7019766339381
 30
0.0
 11
711.95134957456492
 21
252.15338620637451
 31
0.0
  0
LINE
  5
119F3
  8
KI2
 10
711.76236224873253
 20
251.65008991630461
 30
0.0
 11
712.18856563269674
 21
252.07629330026879
 31
0.0
  0
LINE
  5
119F4
  8
KI2
 10
712.07667121296993
 20
251.65008991630461
 30
0.0
 11
712.42578169082844
 21
251.99920039416321
 31
0.0
  0
LINE
  5
119F5
  8
KI2
 10
712.39098017720733
 20
251.65008991630461
 30
0.0
 11
712.66299774896015
 21
251.92210748805749
 31
0.0
  0
LINE
  5
119F6
  8
KI2
 10
712.70528914144472
 20
251.65008991630461
 30
0.0
 11
712.90021380709186
 21
251.84501458195189
 31
0.0
  0
LINE
  5
119F7
  8
KI2
 10
713.01959810568212
 20
251.65008991630461
 30
0.0
 11
713.13742986522368
 21
251.7679216758462
 31
0.0
  0
LINE
  5
119F8
  8
KI2
 10
713.33390706991952
 20
251.65008991630461
 30
0.0
 11
713.37464592335527
 21
251.69082876974051
 31
0.0
  0
LINE
  5
119F9
  8
KI1
 10
706.50268358518565
 20
249.5500499163046
 30
0.0
 11
706.28395358518537
 21
251.65008991630461
 31
0.0
  0
ARC
  5
119FA
  8
KI1
 10
697.00000000212901
 20
265.25004991630487
 30
0.0
 40
0.5
 50
90.0
 51
180.0
  0
ARC
  5
119FB
  8
KI1
 10
697.00000000212901
 20
265.25004991630487
 30
0.0
 40
0.5
 50
180.0
 51
180.0
  0
ARC
  5
119FC
  8
KI1
 10
697.00000000212901
 20
248.25004991630459
 30
0.0
 40
0.5
 50
180.0
 51
270.0
  0
LINE
  5
119FD
  8
KI1
 10
698.30000000212897
 20
249.5500499163046
 30
0.0
 11
706.50268358518565
 21
249.5500499163046
 31
0.0
  0
LINE
  5
119FE
  8
KI1
 10
698.30000000212897
 20
249.5500499163046
 30
0.0
 11
698.30000000212897
 21
263.95004991630492
 31
0.0
  0
LINE
  5
119FF
  8
KI1
 10
709.49988000212863
 20
251.65008991630461
 30
0.0
 11
714.73800916394714
 21
251.65008991630461
 31
0.0
  0
LINE
  5
11A00
  8
KI1
 10
715.49988000212863
 20
251.250079916305
 30
0.0
 11
713.50000000212901
 21
252.30008991630521
 31
0.0
  0
LINE
  5
11A01
  8
KI1
 10
713.50000000212901
 20
251.65008991630461
 30
0.0
 11
711.49994000212837
 21
252.30008991630521
 31
0.0
  0
LINE
  5
11A02
  8
KI1
 10
711.49994000212837
 20
251.65008991630461
 30
0.0
 11
709.49988000212863
 21
252.30008991630521
 31
0.0
  0
LINE
  5
11A03
  8
KI1
 10
709.49988000212863
 20
251.65008991630461
 30
0.0
 11
709.49988000212863
 21
252.30008991630521
 31
0.0
  0
LINE
  5
11A04
  8
KI1
 10
711.49994000212837
 20
251.65008991630461
 30
0.0
 11
711.49994000212837
 21
252.30008991630521
 31
0.0
  0
LINE
  5
11A05
  8
KI1
 10
713.50000000212901
 20
251.65008991630461
 30
0.0
 11
713.50000000212901
 21
252.30008991630521
 31
0.0
  0
LINE
  5
11A06
  8
KI1
 10
708.49990000212904
 20
247.75004991630459
 30
0.0
 11
708.28117000212865
 21
249.85008991630471
 31
0.0
  0
LINE
  5
11A07
  8
KI1
 10
708.28117000212865
 20
249.85008991630471
 30
0.0
 11
709.49988000212863
 21
249.85008991630471
 31
0.0
  0
LINE
  5
11A08
  8
KI1
 10
713.50000000212901
 20
249.2000299163046
 30
0.0
 11
715.49988000212863
 21
250.25008991630469
 31
0.0
  0
LINE
  5
11A09
  8
KI1
 10
709.49988000212863
 20
249.2000299163046
 30
0.0
 11
711.49994000212837
 21
249.85008991630471
 31
0.0
  0
LINE
  5
11A0A
  8
KI1
 10
711.49994000212837
 20
249.2000299163046
 30
0.0
 11
713.50000000212901
 21
249.85008991630471
 31
0.0
  0
LINE
  5
11A0B
  8
KI1
 10
709.49988000212863
 20
249.2000299163046
 30
0.0
 11
709.49988000212863
 21
249.85008991630471
 31
0.0
  0
LINE
  5
11A0C
  8
KI1
 10
711.49994000212837
 20
249.2000299163046
 30
0.0
 11
711.49994000212837
 21
249.85008991630471
 31
0.0
  0
LINE
  5
11A0D
  8
KI1
 10
713.50000000212901
 20
249.2000299163046
 30
0.0
 11
713.50000000212901
 21
249.85008991630471
 31
0.0
  0
LINE
  5
11A0E
  8
KI1
 10
715.49988000212863
 20
250.25008991630469
 30
0.0
 11
715.49988000212863
 21
251.250079916305
 31
0.0
  0
LINE
  5
11A0F
  8
KI1
 10
697.00000000212901
 20
247.75004991630459
 30
0.0
 11
708.49990000212904
 21
247.75004991630459
 31
0.0
  0
LINE
  5
11A10
  8
KI1
 10
696.50000000212901
 20
248.25004991630459
 30
0.0
 11
696.50000000212901
 21
265.25004991630487
 31
0.0
  0
LINE
  5
11A11
  8
KI1
 10
697.00000000212901
 20
265.75004991630487
 30
0.0
 11
708.49990000212904
 21
265.75004991630487
 31
0.0
  0
LINE
  5
11A12
  8
KI1
 10
698.30000000212897
 20
263.95004991630492
 30
0.0
 11
706.50268358518565
 21
263.95004991630492
 31
0.0
  0
LINE
  5
11A13
  8
KI1
 10
715.49988000212863
 20
263.25000991630492
 30
0.0
 11
715.49988000212863
 21
262.2500199163045
 31
0.0
  0
LINE
  5
11A14
  8
KI1
 10
713.50000000212901
 20
264.30006991630478
 30
0.0
 11
713.50000000212901
 21
263.65000991630478
 31
0.0
  0
LINE
  5
11A15
  8
KI1
 10
711.49994000212837
 20
264.30006991630478
 30
0.0
 11
711.49994000212837
 21
263.65000991630478
 31
0.0
  0
LINE
  5
11A16
  8
KI1
 10
709.49988000212863
 20
264.30006991630478
 30
0.0
 11
709.49988000212863
 21
263.65000991630478
 31
0.0
  0
LINE
  5
11A17
  8
KI1
 10
711.49994000212837
 20
264.30006991630478
 30
0.0
 11
713.50000000212901
 21
263.65000991630478
 31
0.0
  0
LINE
  5
11A18
  8
KI1
 10
709.49988000212863
 20
264.30006991630478
 30
0.0
 11
711.49994000212837
 21
263.65000991630478
 31
0.0
  0
LINE
  5
11A19
  8
KI1
 10
713.50000000212901
 20
264.30006991630478
 30
0.0
 11
715.49988000212863
 21
263.25000991630492
 31
0.0
  0
LINE
  5
11A1A
  8
KI1
 10
708.28117000212865
 20
263.65000991630478
 30
0.0
 11
709.49988000212863
 21
263.65000991630478
 31
0.0
  0
LINE
  5
11A1B
  8
KI1
 10
708.49990000212904
 20
265.75004991630487
 30
0.0
 11
708.28117000212865
 21
263.65000991630478
 31
0.0
  0
LINE
  5
11A1C
  8
KI1
 10
713.50000000212901
 20
261.85000991630488
 30
0.0
 11
713.50000000212901
 21
261.2000099163044
 31
0.0
  0
LINE
  5
11A1D
  8
KI1
 10
711.49994000212837
 20
261.85000991630488
 30
0.0
 11
711.49994000212837
 21
261.2000099163044
 31
0.0
  0
LINE
  5
11A1E
  8
KI1
 10
709.49988000212863
 20
261.85000991630488
 30
0.0
 11
709.49988000212863
 21
261.2000099163044
 31
0.0
  0
LINE
  5
11A1F
  8
KI1
 10
711.49994000212837
 20
261.85000991630488
 30
0.0
 11
709.49988000212863
 21
261.2000099163044
 31
0.0
  0
LINE
  5
11A20
  8
KI1
 10
713.50000000212901
 20
261.85000991630488
 30
0.0
 11
711.49994000212837
 21
261.2000099163044
 31
0.0
  0
LINE
  5
11A21
  8
KI1
 10
715.49988000212863
 20
262.2500199163045
 30
0.0
 11
713.50000000212901
 21
261.2000099163044
 31
0.0
  0
LINE
  5
11A22
  8
KI1
 10
709.49988000212863
 20
261.85000991630488
 30
0.0
 11
714.73800916394714
 21
261.85000991630488
 31
0.0
  0
LINE
  5
11A23
  8
KI1
 10
706.50268358518565
 20
263.95004991630492
 30
0.0
 11
706.28395358518537
 21
261.85000991630488
 31
0.0
  0
TEXT
  5
11A60
  8
SU
 10
189.96666666666661
 20
89.550000000000566
 30
0.0
 40
7.0
  1
36
 41
0.8299999999999999
  0
LINE
  5
11A63
  8
KI1
 10
61.50000000000005
 20
73.887150163879824
 30
0.0
 11
61.50000000000005
 21
55.249999999992269
 31
0.0
  0
ENDSEC
  0
EOF
