  0
SECTION
  2
HEADER
  9
$ACADVER
  1
AC1009
  9
$INSBASE
 10
0.0
 20
0.0
 30
0.0
  9
$EXTMIN
 10
19.300000000000001
 20
16.25
 30
0.0
  9
$EXTMAX
 10
1165.5
 20
830.74999999999989
 30
0.0
  9
$LIMMIN
 10
0.0
 20
0.0
  9
$LIMMAX
 10
1189.0
 20
841.0
  9
$ORTHOMODE
 70
     0
  9
$REGENMODE
 70
     1
  9
$FILLMODE
 70
     1
  9
$QTEXTMODE
 70
     0
  9
$MIRRTEXT
 70
     0
  9
$DRAGMODE
 70
     2
  9
$LTSCALE
 40
1.0
  9
$OSMODE
 70
  3071
  9
$ATTMODE
 70
     1
  9
$TEXTSIZE
 40
12.5
  9
$TRACEWID
 40
1.0
  9
$TEXTSTYLE
  7
STANDARD
  9
$CLAYER
  8
0
  9
$CELTYPE
  6
BYLAYER
  9
$CECOLOR
 62
   256
  9
$DIMSCALE
 40
1.0
  9
$DIMASZ
 40
7.0
  9
$DIMEXO
 40
1.0
  9
$DIMDLI
 40
7.0
  9
$DIMRND
 40
0.0
  9
$DIMDLE
 40
0.0
  9
$DIMEXE
 40
3.0
  9
$DIMTP
 40
0.1
  9
$DIMTM
 40
0.1
  9
$DIMTXT
 40
7.0
  9
$DIMCEN
 40
0.0
  9
$DIMTSZ
 40
0.0
  9
$DIMTOL
 70
     0
  9
$DIMLIM
 70
     0
  9
$DIMTIH
 70
     0
  9
$DIMTOH
 70
     0
  9
$DIMSE1
 70
     0
  9
$DIMSE2
 70
     0
  9
$DIMTAD
 70
     1
  9
$DIMZIN
 70
     8
  9
$DIMBLK
  1
DOTSMALL
  9
$DIMASO
 70
     1
  9
$DIMSHO
 70
     1
  9
$DIMPOST
  1

  9
$DIMAPOST
  1
"
  9
$DIMALT
 70
     0
  9
$DIMALTD
 70
     2
  9
$DIMALTF
 40
0.0393701
  9
$DIMLFAC
 40
1.0
  9
$DIMTOFL
 70
     1
  9
$DIMTVP
 40
0.0
  9
$DIMTIX
 70
     0
  9
$DIMSOXD
 70
     0
  9
$DIMSAH
 70
     0
  9
$DIMBLK1
  1

  9
$DIMBLK2
  1

  9
$DIMSTYLE
  2
SANKYO
  9
$DIMCLRD
 70
   256
  9
$DIMCLRE
 70
   256
  9
$DIMCLRT
 70
   256
  9
$DIMTFAC
 40
0.71
  9
$DIMGAP
 40
1.3
  9
$LUNITS
 70
     2
  9
$LUPREC
 70
     4
  9
$SKETCHINC
 40
1.0
  9
$FILLETRAD
 40
0.0
  9
$AUNITS
 70
     0
  9
$AUPREC
 70
     0
  9
$MENU
  1
.
  9
$ELEVATION
 40
0.0
  9
$PELEVATION
 40
0.0
  9
$THICKNESS
 40
0.0
  9
$LIMCHECK
 70
     0
  9
$BLIPMODE
 70
     0
  9
$CHAMFERA
 40
10.0
  9
$CHAMFERB
 40
10.0
  9
$SKPOLY
 70
     0
  9
$TDCREATE
 40
2455110.561913426
  9
$TDUPDATE
 40
2459033.4570977311
  9
$TDINDWG
 40
2.3256297222
  9
$TDUSRTIMER
 40
2.3254340740999999
  9
$USRTIMER
 70
     1
  9
$ANGBASE
 50
0.0
  9
$ANGDIR
 70
     0
  9
$PDMODE
 70
     0
  9
$PDSIZE
 40
0.0
  9
$PLINEWID
 40
0.0
  9
$COORDS
 70
     2
  9
$SPLFRAME
 70
     0
  9
$SPLINETYPE
 70
     6
  9
$SPLINESEGS
 70
     8
  9
$ATTDIA
 70
     1
  9
$ATTREQ
 70
     1
  9
$HANDLING
 70
     1
  9
$HANDSEED
  5
1BAF4
  9
$SURFTAB1
 70
     6
  9
$SURFTAB2
 70
     6
  9
$SURFTYPE
 70
     6
  9
$SURFU
 70
     6
  9
$SURFV
 70
     6
  9
$UCSNAME
  2

  9
$UCSORG
 10
0.0
 20
0.0
 30
0.0
  9
$UCSXDIR
 10
1.0
 20
0.0
 30
0.0
  9
$UCSYDIR
 10
0.0
 20
1.0
 30
0.0
  9
$PUCSNAME
  2

  9
$PUCSORG
 10
0.0
 20
0.0
 30
0.0
  9
$PUCSXDIR
 10
1.0
 20
0.0
 30
0.0
  9
$PUCSYDIR
 10
0.0
 20
1.0
 30
0.0
  9
$USERI1
 70
     0
  9
$USERI2
 70
     0
  9
$USERI3
 70
     0
  9
$USERI4
 70
     0
  9
$USERI5
 70
     0
  9
$USERR1
 40
0.0
  9
$USERR2
 40
0.0
  9
$USERR3
 40
0.0
  9
$USERR4
 40
0.0
  9
$USERR5
 40
0.0
  9
$WORLDVIEW
 70
     1
  9
$SHADEDGE
 70
     3
  9
$SHADEDIF
 70
    70
  9
$TILEMODE
 70
     1
  9
$MAXACTVP
 70
    48
  9
$PLIMCHECK
 70
     0
  9
$PEXTMIN
 10
1.0000000000000000E+020
 20
1.0000000000000000E+020
 30
1.0000000000000000E+020
  9
$PEXTMAX
 10
-1.0000000000000000E+020
 20
-1.0000000000000000E+020
 30
-1.0000000000000000E+020
  9
$PLIMMIN
 10
0.0
 20
0.0
  9
$PLIMMAX
 10
420.0
 20
297.0
  9
$UNITMODE
 70
     0
  9
$VISRETAIN
 70
     1
  9
$PLINEGEN
 70
     0
  9
$PSLTSCALE
 70
     1
  0
ENDSEC
  0
SECTION
  2
TABLES
  0
TABLE
  2
VPORT
 70
     1
  0
VPORT
  2
*ACTIVE
 70
     0
 10
0.0
 20
0.0
 11
1.0
 21
1.0
 12
592.41359224346638
 22
423.48359113394218
 13
0.0
 23
0.0
 14
2.5
 24
2.5
 15
10.0
 25
10.0
 16
0.0
 26
0.0
 36
1.0
 17
0.0
 27
0.0
 37
0.0
 40
820.92390940123255
 41
2.050913838120104
 42
50.0
 43
0.0
 44
0.0
 50
0.0
 51
0.0
 71
     0
 72
   100
 73
     1
 74
     1
 75
     0
 76
     0
 77
     0
 78
     0
  0
ENDTAB
  0
TABLE
  2
LTYPE
 70
     9
  0
LTYPE
  2
CONTINUOUS
 70
     0
  3
Solid line
 72
    65
 73
     0
 40
0.0
  0
LTYPE
  2
CENTER2
 70
     0
  3
Center (.5x) ___ _ ___ _ ___ _ ___ _ ___ _ ___
 72
    65
 73
     4
 40
28.574999999999999
 49
19.050000000000001
 49
-3.1749999999999989
 49
3.1749999999999989
 49
-3.1749999999999989
  0
LTYPE
  2
PHANTOM2
 70
     0
  3
Phantom (.5x) ___ _ _ ___ _ _ ___ _ _ ___ _ _
 72
    65
 73
     6
 40
31.75
 49
15.875
 49
-3.1749999999999989
 49
3.1749999999999989
 49
-3.1749999999999989
 49
3.1749999999999989
 49
-3.1749999999999989
  0
LTYPE
  2
DASHED2
 70
     0
  3
Dashed (.5x) _ _ _ _ _ _ _ _ _ _ _ _ _ _ _ _ _
 72
    65
 73
     2
 40
9.5249999999999986
 49
6.3499999999999988
 49
-3.1749999999999989
  0
LTYPE
  2
HIDDEN
 70
     0
  3
Hidden __ __ __ __ __ __ __ __ __ __ __ __ __ _
 72
    65
 73
     2
 40
9.5249999999999986
 49
6.3499999999999988
 49
-3.1749999999999989
  0
LTYPE
  2
CENTER
 70
     0
  3
Center ____ _ ____ _ ____ _ ____ _ ____ _ ____
 72
    65
 73
     4
 40
50.799999999999997
 49
31.75
 49
-6.3499999999999988
 49
6.3499999999999988
 49
-6.3499999999999988
  0
LTYPE
  2
ACISOWELD
 70
     0
  3
_ _ _ _ _
 72
    65
 73
     2
 40
2.0
 49
2.0
 49
-1.0
  0
LTYPE
  2
ACISOTGL
 70
     0
  3
_ _ _ _ _
 72
    65
 73
     2
 40
3.0
 49
2.0
 49
-1.0
  0
LTYPE
  2
ACISOTGB
 70
     0
  3
__ . . __ . .
 72
    65
 73
     6
 40
9.0
 49
4.0
 49
-1.0
 49
1.0
 49
-1.0
 49
1.0
 49
-1.0
  0
ENDTAB
  0
TABLE
  2
LAYER
 70
    11
  0
LAYER
  2
0
 70
     0
 62
     7
  6
CONTINUOUS
  0
LAYER
  2
KI1
 70
     0
 62
     7
  6
CONTINUOUS
  0
LAYER
  2
SU
 70
     0
 62
     3
  6
CONTINUOUS
  0
LAYER
  2
MJ
 70
     0
 62
     2
  6
CONTINUOUS
  0
LAYER
  2
CL
 70
     0
 62
     4
  6
CENTER2
  0
LAYER
  2
OS
 70
     0
 62
     2
  6
CONTINUOUS
  0
LAYER
  2
KI2
 70
     0
 62
     4
  6
CONTINUOUS
  0
LAYER
  2
PH
 70
     0
 62
     6
  6
PHANTOM2
  0
LAYER
  2
WK
 70
     4
 62
     7
  6
CONTINUOUS
  0
LAYER
  2
DEFPOINTS
 70
     1
 62
    -7
  6
CONTINUOUS
  0
LAYER
  2
TS
 70
     0
 62
     6
  6
DASHED2
  0
ENDTAB
  0
TABLE
  2
STYLE
 70
     4
  0
STYLE
  2
STANDARD
 70
     0
 40
0.0
 41
0.8299999999999999
 50
0.0
 71
     0
 42
12.5
  3
romans.shx
  4
extfont.shx
  0
STYLE
  2
SIMPLEX
 70
     0
 40
0.0
 41
1.0
 50
0.0
 71
     0
 42
3.5
  3
simplex.shx
  4
extfont2.shx
  0
STYLE
  2
ACISOTS
 70
     0
 40
1.0
 41
1.0
 50
0.0
 71
     0
 42
12.5
  3
isocp.shx
  4
extfont.shx
  0
STYLE
  2
ACISOGDT
 70
     0
 40
0.0
 41
1.0
 50
0.0
 71
     0
 42
12.5
  3
amgdt.shx
  4

  0
ENDTAB
  0
TABLE
  2
VIEW
 70
     6
  0
VIEW
  2
AM_VIEW1
 70
     0
 40
297.5
 10
-194.33547008547001
 20
148.25
 41
457.32905982905982
 11
0.0
 21
0.0
 31
1.0
 12
0.0
 22
0.0
 32
0.0
 42
50.0
 43
0.0
 44
0.0
 50
0.0
 71
     0
  0
VIEW
  2
AM_VIEW2
 70
     0
 40
297.5
 10
189.33547008547001
 20
148.25
 41
457.32905982905982
 11
0.0
 21
0.0
 31
1.0
 12
0.0
 22
0.0
 32
0.0
 42
50.0
 43
0.0
 44
0.0
 50
0.0
 71
     0
  0
VIEW
  2
AM_VIEW3
 70
     0
 40
297.5
 10
-194.33547008547001
 20
-149.25
 41
457.32905982905982
 11
0.0
 21
0.0
 31
1.0
 12
0.0
 22
0.0
 32
0.0
 42
50.0
 43
0.0
 44
0.0
 50
0.0
 71
     0
  0
VIEW
  2
AM_VIEW4
 70
     0
 40
297.5
 10
189.33547008547001
 20
-149.25
 41
457.32905982905982
 11
0.0
 21
0.0
 31
1.0
 12
0.0
 22
0.0
 32
0.0
 42
50.0
 43
0.0
 44
0.0
 50
0.0
 71
     0
  0
VIEW
  2
AM_VIEW5
 70
     0
 40
297.5
 10
-2.5
 20
-0.5
 41
457.32905982905982
 11
0.0
 21
0.0
 31
1.0
 12
0.0
 22
0.0
 32
0.0
 42
50.0
 43
0.0
 44
0.0
 50
0.0
 71
     0
  0
VIEW
  2
AM_VIEW6
 70
     0
 40
594.99405000000002
 10
-2.5
 20
-0.5
 41
914.6489730769232
 11
0.0
 21
0.0
 31
1.0
 12
0.0
 22
0.0
 32
0.0
 42
50.0
 43
0.0
 44
0.0
 50
0.0
 71
     0
  0
ENDTAB
  0
TABLE
  2
UCS
 70
     0
  0
ENDTAB
  0
TABLE
  2
APPID
 70
    47
  0
APPID
  2
ACAD
 70
     0
  0
APPID
  2
MCAD_NO_VIS
 70
     0
  0
APPID
  2
ACAD_TEMP_GRAPHIC
 70
     0
  0
APPID
  2
ACATTRIBSERVICES
 70
     0
  0
APPID
  2
GENIUS_GENDIMSH_14
 70
     0
  0
APPID
  2
GENIUS_GENODEF_13
 70
     0
  0
APPID
  2
GENIUS_GENOENT_13
 70
     0
  0
APPID
  2
GENIUS_GENOBJ-N-TIT_13
 70
     0
  0
APPID
  2
GENIUS_GENOLIS_13
 70
     0
  0
APPID
  2
GENIUS_GENTITLE_13
 70
     0
  0
APPID
  2
GENIUS_GENOREF_13
 70
     0
  0
APPID
  2
GENIUS_GENSCREG_15
 70
     0
  0
APPID
  2
GENIUS_GENOBJ-N-SDF_13
 70
     0
  0
APPID
  2
GENIUS_GENOBJ-N-REV_13
 70
     0
  0
APPID
  2
GENIUS_GENOBJ-N-RSSYM_13
 70
     0
  0
APPID
  2
GENIUS_GENSYMENT_13
 70
     0
  0
APPID
  2
GENIUS_GENSCSYM_13
 70
     0
  0
APPID
  2
GENIUS_GENOBJ-N-CEN_13
 70
     0
  0
APPID
  2
GENIUS_GENOBJ-N-FIL_13
 70
     0
  0
APPID
  2
GENIUS_GENBH_13
 70
     0
  0
APPID
  2
GENIUS_GENOBJ-NBEHI-BHF_13
 70
     0
  0
APPID
  2
GENIUS_GENFIL_13
 70
     0
  0
APPID
  2
GENIUS_GENOBJ-N-CHA_13
 70
     0
  0
APPID
  2
GENIUS_GENOBJ-NBEHI-BHB_13
 70
     0
  0
APPID
  2
GENIUS_GENOBJ-N-CRS_13
 70
     0
  0
APPID
  2
GENIUS_GENDTOL_13
 70
     0
  0
APPID
  2
AD_DRAW
 70
     0
  0
APPID
  2
DESIGNERASSEMBLIES
 70
     0
  0
APPID
  2
ACADM_DIM_EDIT
 70
     0
  0
APPID
  2
AMDT_DM_ADJ
 70
     0
  0
APPID
  2
ACAD_PSEXT
 70
     0
  0
APPID
  2
ACAECLAYERSTANDARD
 70
     0
  0
APPID
  2
DCO15
 70
     0
  0
APPID
  2
GENIUS_GENOBJ-N-HTC_13
 70
     0
  0
APPID
  2
GENIUS_GENHATCH_13
 70
     0
  0
APPID
  2
ACAD_NAV_VCDISPLAY
 70
     0
  0
APPID
  2
ACAD_DSTYLE_DIMARC_LENGTH_
 70
     0
  0
APPID
  2
GENIUS_GENREC_14
 70
     0
  0
APPID
  2
GENIUS_GENOBJ-N-REC_13
 70
     0
  0
APPID
  2
GENIUS_GENCEN_19
 70
     0
  0
APPID
  2
ACAD_DSTYLE_DIMBREAK
 70
     0
  0
APPID
  2
ACAD_DSTYLE_DIMJAG
 70
     0
  0
APPID
  2
ACAD_DSTYLE_DIMINSPECT
 70
     0
  0
APPID
  2
ACAD_EXEMPT_FROM_CAD_STANDARDS
 70
     0
  0
APPID
  2
ACAD_MLEADERVER
 70
     0
  0
APPID
  2
ACADANNOMONITORALERTICONDI
 70
     0
  0
APPID
  2
CONTENTBLOCKICON
 70
     0
  0
ENDTAB
  0
TABLE
  2
DIMSTYLE
 70
    10
  0
DIMSTYLE
  2
SANKYO
 70
     0
  3

  4
"
  5
DOTSMALL
  6

  7

 40
1.0
 41
7.0
 42
1.0
 43
7.0
 44
3.0
 45
0.0
 46
0.0
 47
0.1
 48
0.1
140
7.0
141
0.0
142
0.0
143
0.0393701
144
1.0
145
0.0
146
0.71
147
1.3
 71
     0
 72
     0
 73
     0
 74
     0
 75
     0
 76
     0
 77
     1
 78
     8
170
     0
171
     2
172
     1
173
     0
174
     0
175
     0
176
   256
177
   256
178
   256
  0
DIMSTYLE
  2
SANKYO$0
 70
     0
  3

  4
"
  5
DOTSMALL
  6

  7

 40
1.0
 41
7.0
 42
1.0
 43
7.0
 44
3.0
 45
0.0
 46
0.0
 47
0.1
 48
0.1
140
7.0
141
0.0
142
0.0
143
0.0393701
144
1.0
145
0.0
146
0.71
147
1.3
 71
     0
 72
     0
 73
     0
 74
     0
 75
     0
 76
     0
 77
     1
 78
     8
170
     0
171
     2
172
     1
173
     0
174
     0
175
     0
176
   256
177
   256
178
   256
  0
DIMSTYLE
  2
DTOS-3
 70
     0
  3

  4
"
  5
DOT
  6

  7

 40
2.0
 41
0.7
 42
1.0
 43
7.0
 44
1.0
 45
0.0
 46
0.0
 47
0.1
 48
0.1
140
2.5
141
0.0
142
0.0
143
0.0393701
144
1.0
145
0.0
146
0.71
147
1.0
 71
     0
 72
     0
 73
     0
 74
     0
 75
     0
 76
     0
 77
     1
 78
     8
170
     0
171
     2
172
     1
173
     0
174
     1
175
     0
176
   256
177
   256
178
   256
  0
DIMSTYLE
  2
AM_ISO
 70
     0
  3

  4
"
  5

  6

  7

 40
1.0
 41
3.5
 42
1.0
 43
10.0
 44
1.0
 45
0.0
 46
0.0
 47
0.1
 48
0.1
140
3.5
141
0.0
142
0.0
143
0.0393701
144
1.0
145
0.0
146
0.71
147
1.5
 71
     0
 72
     0
 73
     0
 74
     0
 75
     0
 76
     0
 77
     1
 78
     8
170
     0
171
     2
172
     1
173
     0
174
     0
175
     0
176
   256
177
   256
178
     2
  0
DIMSTYLE
  2
AM_ISO$3
 70
     0
  3

  4
"
  5

  6

  7

 40
1.0
 41
3.5
 42
1.0
 43
10.0
 44
1.0
 45
0.0
 46
0.0
 47
0.1
 48
0.1
140
3.5
141
0.0
142
0.0
143
0.0393701
144
1.0
145
0.0
146
0.71
147
1.5
 71
     0
 72
     0
 73
     0
 74
     1
 75
     0
 76
     0
 77
     1
 78
     8
170
     0
171
     2
172
     0
173
     0
174
     0
175
     0
176
   256
177
   256
178
     2
  0
DIMSTYLE
  2
AM_ISO$4
 70
     0
  3

  4
"
  5

  6

  7

 40
1.0
 41
3.5
 42
1.0
 43
10.0
 44
1.0
 45
0.0
 46
0.0
 47
0.1
 48
0.1
140
3.5
141
0.0
142
0.0
143
0.0393701
144
1.0
145
0.0
146
0.71
147
1.5
 71
     0
 72
     0
 73
     0
 74
     1
 75
     0
 76
     0
 77
     1
 78
     8
170
     0
171
     2
172
     0
173
     0
174
     0
175
     0
176
   256
177
   256
178
     2
  0
DIMSTYLE
  2
AM_ISO$6
 70
     0
  3

  4
"
  5

  6

  7

 40
1.0
 41
3.5
 42
1.0
 43
10.0
 44
1.0
 45
0.0
 46
0.0
 47
0.1
 48
0.1
140
3.5
141
0.0
142
0.0
143
0.0393701
144
1.0
145
0.0
146
0.71
147
1.5
 71
     0
 72
     0
 73
     0
 74
     0
 75
     0
 76
     0
 77
     0
 78
     8
170
     0
171
     2
172
     1
173
     0
174
     0
175
     0
176
   256
177
   256
178
     2
  0
DIMSTYLE
  2
AM_ISO$7
 70
     0
  3

  4
"
  5

  6

  7

 40
1.0
 41
3.5
 42
1.0
 43
10.0
 44
1.0
 45
0.0
 46
0.0
 47
0.1
 48
0.1
140
3.5
141
0.0
142
0.0
143
0.0393701
144
1.0
145
0.0
146
0.71
147
1.5
 71
     0
 72
     0
 73
     0
 74
     0
 75
     0
 76
     0
 77
     1
 78
     8
170
     0
171
     2
172
     1
173
     0
174
     0
175
     0
176
   256
177
   256
178
     2
  0
DIMSTYLE
  2
AM_ISO$SF
 70
     0
  3

  4
"
  5

  6

  7

 40
1.0
 41
3.5
 42
1.0
 43
10.0
 44
1.0
 45
0.0
 46
0.0
 47
0.1
 48
0.1
140
3.5
141
0.0
142
0.0
143
0.0393701
144
1.0
145
0.0
146
0.71
147
1.5
 71
     0
 72
     0
 73
     0
 74
     0
 75
     1
 76
     1
 77
     1
 78
     8
170
     0
171
     2
172
     1
173
     0
174
     0
175
     0
176
   256
177
   256
178
     2
  0
DIMSTYLE
  2
AM_ISO$SH
 70
     0
  3

  4
"
  5

  6
GENAXEH
  7

 40
1.0
 41
3.5
 42
1.0
 43
10.0
 44
1.0
 45
0.0
 46
0.0
 47
0.1
 48
0.1
140
3.5
141
0.0
142
0.0
143
0.0393701
144
2.0
145
0.0
146
0.71
147
1.5
 71
     0
 72
     0
 73
     0
 74
     0
 75
     1
 76
     1
 77
     1
 78
     8
170
     0
171
     2
172
     1
173
     1
174
     0
175
     0
176
   256
177
   256
178
     2
  0
ENDTAB
  0
ENDSEC
  0
SECTION
  2
BLOCKS
  0
BLOCK
  8
0
  2
$MODEL_SPACE
 70
     0
 10
0.0
 20
0.0
 30
0.0
  3
$MODEL_SPACE
  1

  0
ENDBLK
  5
1A
  8
0
  0
BLOCK
 67
     1
  8
0
  2
$PAPER_SPACE
 70
     0
 10
0.0
 20
0.0
 30
0.0
  3
$PAPER_SPACE
  1

  0
ENDBLK
  5
17
 67
     1
  8
0
  0
BLOCK
  8
0
  2
_OPEN
 70
     0
 10
0.0
 20
0.0
 30
0.0
  3
_OPEN
  1

  0
LINE
  5
30B
  8
0
  6
BYBLOCK
 62
     0
 10
-1.0
 20
0.1666666666666666
 30
0.0
 11
0.0
 21
0.0
 31
0.0
  0
LINE
  5
30C
  8
0
  6
BYBLOCK
 62
     0
 10
-1.0
 20
-0.1666666666666666
 30
0.0
 11
0.0
 21
0.0
 31
0.0
  0
LINE
  5
30D
  8
0
  6
BYBLOCK
 62
     0
 10
0.0
 20
0.0
 30
0.0
 11
-1.0
 21
0.0
 31
0.0
  0
ENDBLK
  5
30F
  8
0
  0
BLOCK
  8
0
  2
_DOTSMALL
 70
     0
 10
0.0
 20
0.0
 30
0.0
  3
_DOTSMALL
  1

  0
POLYLINE
  5
A331
  8
0
  6
BYBLOCK
 62
     0
 66
     1
 10
0.0
 20
0.0
 30
0.0
 70
     1
 40
0.5
 41
0.5
  0
VERTEX
  5
1BAD6
  8
0
  6
BYBLOCK
 62
     0
 10
-0.0625
 20
0.0
 30
0.0
 42
1.0
  0
VERTEX
  5
1BAD7
  8
0
  6
BYBLOCK
 62
     0
 10
0.0625
 20
0.0
 30
0.0
 42
1.0
  0
SEQEND
  5
1BAD8
  8
0
  6
BYBLOCK
 62
     0
  0
ENDBLK
  5
A333
  8
0
  0
BLOCK
  8
0
  2
_DOT
 70
     0
 10
0.0
 20
0.0
 30
0.0
  3
_DOT
  1

  0
POLYLINE
  5
1287A
  8
0
  6
BYBLOCK
 62
     0
 66
     1
 10
0.0
 20
0.0
 30
0.0
 70
     1
 40
0.5
 41
0.5
  0
VERTEX
  5
1BADA
  8
0
  6
BYBLOCK
 62
     0
 10
-0.25
 20
0.0
 30
0.0
 42
1.0
  0
VERTEX
  5
1BADB
  8
0
  6
BYBLOCK
 62
     0
 10
0.25
 20
0.0
 30
0.0
 42
1.0
  0
SEQEND
  5
1BADC
  8
0
  6
BYBLOCK
 62
     0
  0
LINE
  5
1287B
  8
0
  6
BYBLOCK
 62
     0
 10
-0.5
 20
0.0
 30
0.0
 11
-1.0
 21
0.0
 31
0.0
  0
ENDBLK
  5
1287C
  8
0
  0
BLOCK
  8
0
  2
GENAXEH
 70
     0
 10
0.0
 20
0.0
 30
0.0
  3
GENAXEH
  1

  0
LINE
  5
1B4DE
  8
0
 10
-1.0
 20
0.0
 30
0.0
 11
1.0
 21
0.0
 31
0.0
  0
ENDBLK
  5
1B4E0
  8
0
  0
ENDSEC
  0
SECTION
  2
ENTITIES
  0
LINE
  5
9B1A
  8
WK
 10
23.5
 20
16.25
 30
0.0
 11
1165.5
 21
16.25
 31
0.0
  0
LINE
  5
9B1C
  8
WK
 10
23.5
 20
824.75
 30
0.0
 11
23.5
 21
16.25
 31
0.0
  0
TEXT
  5
9BE2
  8
WK
 10
22.5
 20
16.25
 30
0.0
 40
3.2000000000000002
  1
A0
 50
90.0
 41
0.8299999999999999
  0
LINE
  5
9C31
  8
WK
 10
1085.5
 20
34.25
 30
0.0
 11
1085.5
 21
16.25
 31
0.0
  0
LINE
  5
9C32
  8
WK
 10
890.49999999999989
 20
34.25
 30
0.0
 11
890.49999999999989
 21
16.25
 31
0.0
  0
LINE
  5
9C34
  8
WK
 10
1045.5
 20
34.25
 30
0.0
 11
1045.5
 21
16.25
 31
0.0
  0
LINE
  5
9C35
  8
WK
 10
1065.5
 20
34.25
 30
0.0
 11
1065.5
 21
16.25
 31
0.0
  0
LINE
  5
9C37
  8
WK
 10
1005.5
 20
34.25
 30
0.0
 11
1005.5
 21
16.25
 31
0.0
  0
LINE
  5
9C38
  8
WK
 10
985.5
 20
34.25
 30
0.0
 11
985.5
 21
16.25
 31
0.0
  0
LINE
  5
9C3A
  8
WK
 10
890.49999999999989
 20
34.25
 30
0.0
 11
1165.5
 21
34.25
 31
0.0
  0
LINE
  5
9C3B
  8
WK
 10
899.5
 20
26.25
 30
0.0
 11
972.49999999999989
 21
26.25
 31
0.0
  0
LINE
  5
9C3E
  8
WK
 10
1005.5
 20
22.25
 30
0.0
 11
1045.5
 21
22.25
 31
0.0
  0
LINE
  5
9C3F
  8
WK
 10
1005.5
 20
28.25
 30
0.0
 11
1045.5
 21
28.25
 31
0.0
  0
LINE
  5
9C46
  8
WK
 10
1151.8094750193111
 20
25.25
 30
0.0
 11
1163.8094750193111
 21
25.25
 31
0.0
  0
CIRCLE
  5
9C47
  8
WK
 10
1157.8094750193111
 20
25.25
 30
0.0
 40
6.0
  0
TEXT
  5
9C56
  8
WK
 10
992.52780952380954
 20
20.649999643948512
 30
0.0
 40
3.2000000000000002
  1
1:1
 41
0.8299999999999999
 72
     4
 11
995.5
 21
22.249999643948509
 31
0.0
  0
TEXT
  5
9C57
  8
WK
 10
1087.8031333333331
 20
30.150000000000009
 30
0.0
 40
3.2000000000000002
  1
図番
 41
0.8299999999999999
  0
TEXT
  5
9C58
  8
WK
 10
1067.9290000000001
 20
30.150000000000009
 30
0.0
 40
3.2000000000000002
  1
検図
 41
0.8299999999999999
  0
TEXT
  5
9C59
  8
WK
 10
1047.9290000000001
 20
30.150000000000009
 30
0.0
 40
3.2000000000000002
  1
作図
 41
0.8299999999999999
  0
TEXT
  5
9C5A
  8
WK
 10
1006.5535725057121
 20
29.149999999999999
 30
0.0
 40
3.2000000000000002
  1
作成
 41
0.8299999999999999
  0
TEXT
  5
9C5B
  8
WK
 10
1006.5535725057121
 20
23.149999999999999
 30
0.0
 40
3.2000000000000002
  1
制定
 41
0.8299999999999999
  0
TEXT
  5
9C5C
  8
WK
 10
1006.5535725057121
 20
17.149999999999999
 30
0.0
 40
3.2000000000000002
  1
廃止
 41
0.8299999999999999
  0
TEXT
  5
9C5D
  8
WK
 10
986.42899999999997
 20
30.149999999999999
 30
0.0
 40
3.2000000000000002
  1
尺度
 41
0.8299999999999999
  0
TEXT
  5
9C5E
  8
WK
 10
973.49999999999989
 20
18.25
 30
0.0
 40
4.0
  1
基準図
 41
0.8
  0
TEXT
  5
9C77
  8
WK
 10
892.30313333333345
 20
30.150000000000009
 30
0.0
 40
3.2000000000000002
  1
図名
 41
0.8299999999999999
  0
LINE
  5
9E0D
  8
WK
 10
23.5
 20
824.75
 30
0.0
 11
1165.5
 21
824.75
 31
0.0
  0
LINE
  5
9E18
  8
WK
 10
1165.5
 20
824.75
 30
0.0
 11
1165.5
 21
16.25
 31
0.0
  0
TEXT
  5
12887
  8
WK
 10
1130.0726417273511
 20
826.75
 30
0.0
 40
4.0
  1
大栄建材株式会社
 41
0.9
 72
     2
 11
1163.672641727351
 21
826.75
 31
0.0
  0
TEXT
  5
1578A
  8
MJ
 10
796.64649149273009
 20
792.03593215641729
 30
0.0
 40
12.0
  1
■開口寸法
 41
0.95
 11
796.64649149273009
 21
798.0359321564174
 31
0.0
 73
     2
  0
LINE
  5
16EAD
  8
OS
 10
73.5
 20
193.79470125439661
 30
0.0
 11
378.14203900721992
 21
193.79470125439661
 31
0.0
  0
LINE
  5
16EAE
  8
OS
 10
241.5000080537431
 20
265.79470278566117
 30
0.0
 11
73.5
 21
265.79470282324752
 31
0.0
  0
LINE
  5
16EAF
  8
OS
 10
73.5
 20
195.79470125439661
 30
0.0
 11
378.14203900721992
 21
195.79470125439661
 31
0.0
  0
LINE
  5
16EB0
  8
OS
 10
73.5
 20
199.79470125439661
 30
0.0
 11
378.14203900721992
 21
199.79470125439661
 31
0.0
  0
LINE
  5
16EB1
  8
OS
 10
73.5
 20
203.79470125439661
 30
0.0
 11
378.14203900721992
 21
203.79470125439661
 31
0.0
  0
LINE
  5
16EB2
  8
OS
 10
73.5
 20
197.79470125439661
 30
0.0
 11
378.14203900721992
 21
197.7947012543959
 31
0.0
  0
LINE
  5
16EB3
  8
OS
 10
73.5
 20
201.79470125439661
 30
0.0
 11
378.14203900721992
 21
201.79470125439661
 31
0.0
  0
LINE
  5
16EB4
  8
OS
 10
73.5
 20
205.79470125439661
 30
0.0
 11
378.14203900721992
 21
205.79470125439661
 31
0.0
  0
LINE
  5
16EB5
  8
OS
 10
73.5
 20
602.24764838291514
 30
0.0
 11
378.14204442335722
 21
602.24764838291321
 31
0.0
  0
LINE
  5
16EB8
  8
KI1
 10
313.5000005500242
 20
565.24764916738218
 30
0.0
 11
313.50000185304481
 21
513.24764995184955
 31
0.0
  0
LINE
  5
16EB9
  8
KI1
 10
346.5000005500242
 20
565.24764974563334
 30
0.0
 11
346.50000933170583
 21
214.7947012543116
 31
0.0
  0
LINE
  5
16EC3
  8
KI1
 10
277.5000005500242
 20
565.24764916738218
 30
0.0
 11
277.50000221152658
 21
513.24764995184955
 31
0.0
  0
LINE
  5
16EC5
  8
KI1
 10
310.5000005500242
 20
565.24764974563334
 30
0.0
 11
310.50000221152669
 21
513.24764995184955
 31
0.0
  0
LINE
  5
16EC6
  8
KI1
 10
310.50000269080618
 20
498.24764995184961
 30
0.0
 11
310.50000933170583
 21
214.7947012543116
 31
0.0
  0
LINE
  5
16ED0
  8
KI1
 10
241.5000005500242
 20
565.24764916738218
 30
0.0
 11
241.5000093317058
 21
214.7947012543116
 31
0.0
  0
LINE
  5
16ED7
  8
KI1
 10
274.5000005500242
 20
565.24764974563334
 30
0.0
 11
274.50000185304492
 21
513.24764995184955
 31
0.0
  0
LINE
  5
16EDB
  8
PH
 10
204.00000275065261
 20
493.4902636852334
 30
0.0
 11
204.00000953404921
 21
205.79470125439661
 31
0.0
  0
LINE
  5
16EDC
  8
PH
 10
163.86981854988699
 20
473.49026368523408
 30
0.0
 11
204.00000275065261
 21
473.4902636852334
 31
0.0
  0
LINE
  5
16EDD
  8
PH
 10
163.86981854988699
 20
493.49026368523408
 30
0.0
 11
204.00000275065301
 21
493.4902636852334
 31
0.0
  0
LINE
  5
16EDE
  8
PH
 10
163.86981854988699
 20
336.31678948911008
 30
0.0
 11
204.00000275065261
 21
336.31678948910923
 31
0.0
  0
LINE
  5
16EDF
  8
PH
 10
163.86981854988699
 20
356.31678948911008
 30
0.0
 11
204.00000275065301
 21
356.31678948910923
 31
0.0
  0
LINE
  5
16EE0
  8
OS
 10
353.50000000000051
 20
644.74765303809113
 30
0.0
 11
248.50000000000051
 21
644.74765303809113
 31
0.0
  0
LINE
  5
16EE2
  8
OS
 10
73.5
 20
614.74764838291514
 30
0.0
 11
378.14204442335722
 21
614.74764838291321
 31
0.0
  0
LINE
  5
16EE3
  8
OS
 10
346.50000807880127
 20
265.79470249749312
 30
0.0
 11
359.50000836765548
 21
265.7947028232482
 31
0.0
  0
LINE
  5
16EE4
  8
OS
 10
359.50000967510141
 20
205.79470125439661
 30
0.0
 11
359.50000836765548
 21
265.7947028232482
 31
0.0
  0
LINE
  5
16EE5
  8
OS
 10
248.50000000000051
 20
614.74765303809113
 30
0.0
 11
248.50000000000051
 21
644.74765303809113
 31
0.0
  0
LINE
  5
16EE6
  8
OS
 10
73.5
 20
614.74764838291446
 30
0.0
 11
73.5
 21
193.79470125439661
 31
0.0
  0
LINE
  5
16EE7
  8
OS
 10
353.50000967510101
 20
265.7947028233325
 30
0.0
 11
353.5
 21
602.24764995184967
 31
0.0
  0
LINE
  5
16EE9
  8
OS
 10
353.50000000000051
 20
614.74765303809113
 30
0.0
 11
353.50000000000051
 21
644.74765303809113
 31
0.0
  0
LINE
  5
16EEB
  8
TS
 10
353.50000967510141
 20
205.79470112365209
 30
0.0
 11
353.50000836765548
 21
265.7947028232482
 31
0.0
  0
LINE
  5
16EEC
  8
OS
 10
248.50000000000051
 20
614.74765303809113
 30
0.0
 11
353.50000000000051
 21
644.74765303809113
 31
0.0
  0
LINE
  5
16EF1
  8
CL
 10
353.5
 20
602.24765303809113
 30
0.0
 11
353.5
 21
723.5571835653169
 31
0.0
  0
TEXT
  5
16F03
  8
MJ
 10
115.54285979515861
 20
410.75318222524589
 30
0.0
 40
10.0
  1
[収納棚]
 41
0.95
 72
     1
 11
138.7500026523015
 21
415.75318222524589
 31
0.0
 73
     2
  0
LINE
  5
16F08
  8
OS
 10
504.40672634502749
 20
184.47378151304221
 30
0.0
 11
504.40672634501573
 21
536.51901516972589
 31
0.0
  0
LINE
  5
16F09
  8
OS
 10
511.90672634502801
 20
184.47378151304221
 30
0.0
 11
511.90672634501931
 21
536.51901516972589
 31
0.0
  0
LINE
  5
16F0B
  8
OS
 10
1039.40671283594
 20
201.29470125439661
 30
0.0
 11
1039.4067128359479
 21
536.51901323566312
 31
0.0
  0
LINE
  5
16F0C
  8
OS
 10
1031.906712835937
 20
193.79470125439701
 30
0.0
 11
1031.9067128359441
 21
536.51901323566312
 31
0.0
  0
LINE
  5
16F0D
  8
KI2
 10
511.90672634501931
 20
214.79470270456679
 30
0.0
 11
841.40671637806872
 21
214.79470238222041
 31
0.0
  0
LINE
  5
16F0E
  8
KI2
 10
702.40669635339793
 20
306.79469388041713
 30
0.0
 11
1031.9067128359391
 21
306.7947007705049
 31
0.0
  0
LINE
  5
16F0F
  8
KI2
 10
1031.9067128359379
 20
255.49470077050429
 30
0.0
 11
866.40669860306036
 21
255.4947023822161
 31
0.0
  0
LINE
  5
16F10
  8
KI2
 10
1031.9067128359379
 20
266.09470077050389
 30
0.0
 11
866.40669604042318
 21
266.09470238221598
 31
0.0
  0
LINE
  5
16F11
  8
KI2
 10
1031.9067128359379
 20
262.04470077050468
 30
0.0
 11
866.4066970195438
 21
262.04470238221597
 31
0.0
  0
LINE
  5
16F12
  8
KI2
 10
1031.9067128359379
 20
259.54470077050399
 30
0.0
 11
866.40669762393975
 21
259.54470238221597
 31
0.0
  0
LINE
  5
16F13
  8
KI2
 10
702.40669382702526
 20
298.89468536471742
 30
0.0
 11
789.74004617594085
 21
298.89469594729098
 31
0.0
  0
LINE
  5
16F14
  8
KI2
 10
807.74004617594085
 20
298.89469594729098
 30
0.0
 11
1031.9067128359391
 21
298.89469225480519
 31
0.0
  0
LINE
  5
16F15
  8
KI2
 10
702.40669484240982
 20
294.69468536471783
 30
0.0
 11
789.74004617594085
 21
294.69469594729168
 31
0.0
  0
LINE
  5
16F16
  8
KI2
 10
807.74004617594085
 20
294.69469594729168
 30
0.0
 11
1031.9067128359391
 21
294.6946922548056
 31
0.0
  0
LINE
  5
16F17
  8
KI2
 10
702.40669549515781
 20
291.99468183428098
 30
0.0
 11
789.74004617594085
 21
291.99469241685489
 31
0.0
  0
LINE
  5
16F18
  8
KI2
 10
677.40668949354222
 20
262.89468536471833
 30
0.0
 11
511.90672634501931
 21
262.89469418886819
 31
0.0
  0
LINE
  5
16F19
  8
KI2
 10
807.74004617594085
 20
291.99469241685489
 30
0.0
 11
1031.9067128359379
 21
291.99468872436881
 31
0.0
  0
LINE
  5
16F1A
  8
KI2
 10
677.4066901462902
 20
265.59468889515438
 30
0.0
 11
511.90672634501931
 21
265.59469771930429
 31
0.0
  0
LINE
  5
16F1B
  8
KI2
 10
677.40668847815732
 20
258.69468536471851
 30
0.0
 11
511.90672634501931
 21
258.69469418886843
 31
0.0
  0
LINE
  5
16F1C
  8
KI2
 10
677.40668782540934
 20
255.99468183428169
 30
0.0
 11
511.90672634501931
 21
255.99469065843161
 31
0.0
  0
LINE
  5
16F1D
  8
KI2
 10
789.74004617594085
 20
222.69469594729171
 30
0.0
 11
511.90672634501931
 21
222.6946941888684
 31
0.0
  0
LINE
  5
16F1E
  8
KI2
 10
789.74004617594085
 20
229.5946994777276
 30
0.0
 11
511.90672634501931
 21
229.59469771930429
 31
0.0
  0
LINE
  5
16F1F
  8
KI2
 10
841.40671955718926
 20
229.594697396958
 30
0.0
 11
807.74004617594085
 21
229.5946994777276
 31
0.0
  0
LINE
  5
16F20
  8
KI2
 10
789.74004617594085
 20
226.8946959472915
 30
0.0
 11
511.90672634501931
 21
226.89469418886819
 31
0.0
  0
LINE
  5
16F21
  8
KI2
 10
841.40671890444128
 20
226.89469386652189
 30
0.0
 11
807.74004617594085
 21
226.8946959472915
 31
0.0
  0
LINE
  5
16F24
  8
KI2
 10
841.40671788905649
 20
222.69469386652199
 30
0.0
 11
807.74004617594085
 21
222.69469594729171
 31
0.0
  0
LINE
  5
16F31
  8
PH
 10
745.90671283594043
 20
456.11627922116139
 30
0.0
 11
745.90671283594043
 21
429.13635556961151
 31
0.0
  0
LINE
  5
16F34
  8
PH
 10
504.40672634501658
 20
429.13635750367177
 30
0.0
 11
1031.906712835942
 21
429.13635556961577
 31
0.0
  0
LINE
  5
16F3A
  8
PH
 10
519.40672634501573
 20
456.11628115522592
 30
0.0
 11
519.40672634501573
 21
429.13635750367609
 31
0.0
  0
LINE
  5
16F3B
  8
PH
 10
725.90671283594043
 20
456.11627922116139
 30
0.0
 11
725.90671283594043
 21
429.13635556961151
 31
0.0
  0
LINE
  5
16F3D
  8
PH
 10
891.40671283594043
 20
456.11627922116338
 30
0.0
 11
891.40671283594043
 21
429.13635556961412
 31
0.0
  0
LINE
  5
16F3E
  8
PH
 10
853.40671283594054
 20
454.13635556961412
 30
0.0
 11
853.40671283594054
 21
317.29470125439769
 31
0.0
  0
LINE
  5
16F40
  8
PH
 10
763.90671283594043
 20
454.13635458383192
 30
0.0
 11
763.90671283594327
 21
317.29470125439587
 31
0.0
  0
LINE
  5
16F41
  8
PH
 10
1016.9067128359439
 20
456.11627922116338
 30
0.0
 11
1016.9067128359439
 21
429.13635556961378
 31
0.0
  0
LINE
  5
16F46
  8
PH
 10
871.40671283594043
 20
456.11627922116338
 30
0.0
 11
871.40671283594043
 21
429.13635556961412
 31
0.0
  0
TEXT
  5
16F47
  8
MJ
 10
607.11671959047794
 20
434.98409444865649
 30
0.0
 40
7.0
  1
(冷蔵庫)
 41
0.9
 72
     1
 11
622.65671959047779
 21
438.48409444865649
 31
0.0
 73
     2
  0
TEXT
  5
16F48
  8
MJ
 10
774.21671283594037
 20
434.98409444865649
 30
0.0
 40
7.0
  1
(スライドテーブル)
 41
0.9
 72
     1
 11
808.65671283594031
 21
438.48409444865649
 31
0.0
 73
     2
  0
LINE
  5
16F4A
  8
OS
 10
1051.9067128359161
 20
536.51901323566312
 30
0.0
 11
1051.9067128359361
 21
213.79470125439661
 31
0.0
  0
LINE
  5
16F4B
  8
PH
 10
710.90671283594043
 20
454.13635458383192
 30
0.0
 11
710.90671283594043
 21
347.7934769400178
 31
0.0
  0
LINE
  5
16F4D
  8
OS
 10
491.90672634504801
 20
536.51901516972589
 30
0.0
 11
491.90672634502749
 21
184.47378151304011
 31
0.0
  0
LINE
  5
16F4F
  8
PH
 10
534.40672634501573
 20
454.13635651789411
 30
0.0
 11
534.40672634501573
 21
347.79347887407903
 31
0.0
  0
LINE
  5
16F51
  8
PH
 10
534.40672634501573
 20
347.79347887407943
 30
0.0
 11
710.90671283594043
 21
347.79348028432332
 31
0.0
  0
LINE
  5
16F54
  8
OS
 10
466.67069328267797
 20
536.51901323566312
 30
0.0
 11
1065.588571063566
 21
536.51901323567006
 31
0.0
  0
LINE
  5
16F59
  8
PH
 10
763.90671283594043
 20
317.29470125439587
 30
0.0
 11
853.40671283594054
 21
317.29470125439769
 31
0.0
  0
TEXT
  5
16F5C
  8
MJ
 10
749.19957848906392
 20
507.91135760047308
 30
0.0
 40
10.0
  1
[収納棚]
 41
0.95
 72
     1
 11
772.40672134620672
 21
512.91135760047314
 31
0.0
 73
     2
  0
LINE
  5
16F9B
  8
KI2
 10
708.40669787647039
 20
304.99469607541818
 30
0.0
 11
702.40670184130624
 21
304.99469607541818
 31
0.0
  0
LINE
  5
16F9C
  8
KI2
 10
708.40669787647039
 20
304.29469607541841
 30
0.0
 11
702.40670184130624
 21
304.29469607541841
 31
0.0
  0
LINE
  5
16F9E
  8
KI2
 10
702.40669635340203
 20
288.5946960754182
 30
0.0
 11
708.40669715119566
 21
288.59469462486868
 31
0.0
  0
LINE
  5
16F9F
  8
KI2
 10
702.4066965226325
 20
289.29469607541802
 30
0.0
 11
708.40669732042682
 21
289.2946946248685
 31
0.0
  0
LINE
  5
16FA0
  8
KI2
 10
711.4066978764705
 20
291.59469462486868
 30
0.0
 11
711.4066978764705
 21
301.99469607541818
 31
0.0
  0
LINE
  5
16FA1
  8
KI2
 10
710.70669787647023
 20
291.59469462486868
 30
0.0
 11
710.70669787647023
 21
301.99469607541818
 31
0.0
  0
ARC
  5
16FA2
  8
KI2
 10
708.40669787647039
 20
301.99469607541818
 30
0.0
 40
3.0
 50
0.0
 51
90.0
1001
GENIUS_GENODEF_13
1002
{
1000
HIER
1070
     0
1002
}
1002
{
1000
MANEDIT
1070
     0
1002
}
1002
{
1000
NOSEL
1070
     0
1002
}
1002
{
1000
BEHIND
1070
     0
1002
}
1002
{
1000
OTHER
1070
     0
1002
}
1002
{
1000
REACTOR
1002
}
1001
GENIUS_GENOBJ-N-FIL_13
1002
{
1000
OWNER
1000
GEN
1002
}
  0
ARC
  5
16FA3
  8
KI2
 10
708.40669787647039
 20
301.99469607541818
 30
0.0
 40
2.2999999999999989
 50
0.0
 51
90.0
1001
GENIUS_GENODEF_13
1002
{
1000
HIER
1070
     0
1002
}
1002
{
1000
MANEDIT
1070
     0
1002
}
1002
{
1000
NOSEL
1070
     0
1002
}
1002
{
1000
BEHIND
1070
     0
1002
}
1002
{
1000
OTHER
1070
     0
1002
}
1002
{
1000
REACTOR
1002
}
1001
GENIUS_GENOBJ-N-FIL_13
1002
{
1000
OWNER
1000
GEN
1002
}
  0
ARC
  5
16FA4
  8
KI2
 10
708.40669787647039
 20
291.59469462486868
 30
0.0
 40
3.0
 50
269.99998614827302
 51
0.0
1001
GENIUS_GENODEF_13
1002
{
1000
HIER
1070
     0
1002
}
1002
{
1000
MANEDIT
1070
     0
1002
}
1002
{
1000
NOSEL
1070
     0
1002
}
1002
{
1000
BEHIND
1070
     0
1002
}
1002
{
1000
OTHER
1070
     0
1002
}
1002
{
1000
REACTOR
1002
}
1001
GENIUS_GENOBJ-N-FIL_13
1002
{
1000
OWNER
1000
GEN
1002
}
  0
ARC
  5
16FA5
  8
KI2
 10
708.40669787647039
 20
291.59469462486868
 30
0.0
 40
2.2999999999999989
 50
269.99998614827302
 51
0.0
1001
GENIUS_GENODEF_13
1002
{
1000
HIER
1070
     0
1002
}
1002
{
1000
MANEDIT
1070
     0
1002
}
1002
{
1000
NOSEL
1070
     0
1002
}
1002
{
1000
BEHIND
1070
     0
1002
}
1002
{
1000
OTHER
1070
     0
1002
}
1002
{
1000
REACTOR
1002
}
1001
GENIUS_GENOBJ-N-FIL_13
1002
{
1000
OWNER
1000
GEN
1002
}
  0
LINE
  5
16FA7
  8
KI2
 10
872.40670086349678
 20
268.99470457721787
 30
0.0
 11
866.40670482833252
 21
268.99470457721787
 31
0.0
  0
LINE
  5
16FA8
  8
KI2
 10
872.40670086349678
 20
268.29470457721811
 30
0.0
 11
866.40670482833252
 21
268.29470457721811
 31
0.0
  0
LINE
  5
16FAA
  8
KI2
 10
866.4066993404283
 20
252.59470457721781
 30
0.0
 11
872.40670013822205
 21
252.59470312666829
 31
0.0
  0
LINE
  5
16FAB
  8
KI2
 10
866.40669950965878
 20
253.2947045772176
 30
0.0
 11
872.40670030745298
 21
253.29470312666811
 31
0.0
  0
LINE
  5
16FAC
  8
KI2
 10
875.40670086349667
 20
255.59470312666829
 30
0.0
 11
875.40670086349667
 21
265.99470457721787
 31
0.0
  0
LINE
  5
16FAD
  8
KI2
 10
874.70670086349662
 20
255.59470312666829
 30
0.0
 11
874.70670086349662
 21
265.99470457721787
 31
0.0
  0
ARC
  5
16FAE
  8
KI2
 10
872.40670086349678
 20
265.99470457721787
 30
0.0
 40
3.0
 50
0.0
 51
90.0
1001
GENIUS_GENODEF_13
1002
{
1000
HIER
1070
     0
1002
}
1002
{
1000
MANEDIT
1070
     0
1002
}
1002
{
1000
NOSEL
1070
     0
1002
}
1002
{
1000
BEHIND
1070
     0
1002
}
1002
{
1000
OTHER
1070
     0
1002
}
1002
{
1000
REACTOR
1002
}
1001
GENIUS_GENOBJ-N-FIL_13
1002
{
1000
OWNER
1000
GEN
1002
}
  0
ARC
  5
16FAF
  8
KI2
 10
872.40670086349678
 20
265.99470457721787
 30
0.0
 40
2.2999999999999989
 50
0.0
 51
90.0
1001
GENIUS_GENODEF_13
1002
{
1000
HIER
1070
     0
1002
}
1002
{
1000
MANEDIT
1070
     0
1002
}
1002
{
1000
NOSEL
1070
     0
1002
}
1002
{
1000
BEHIND
1070
     0
1002
}
1002
{
1000
OTHER
1070
     0
1002
}
1002
{
1000
REACTOR
1002
}
1001
GENIUS_GENOBJ-N-FIL_13
1002
{
1000
OWNER
1000
GEN
1002
}
  0
ARC
  5
16FB0
  8
KI2
 10
872.40670086349678
 20
255.59470312666829
 30
0.0
 40
3.0
 50
269.99998614827302
 51
0.0
1001
GENIUS_GENODEF_13
1002
{
1000
HIER
1070
     0
1002
}
1002
{
1000
MANEDIT
1070
     0
1002
}
1002
{
1000
NOSEL
1070
     0
1002
}
1002
{
1000
BEHIND
1070
     0
1002
}
1002
{
1000
OTHER
1070
     0
1002
}
1002
{
1000
REACTOR
1002
}
1001
GENIUS_GENOBJ-N-FIL_13
1002
{
1000
OWNER
1000
GEN
1002
}
  0
ARC
  5
16FB1
  8
KI2
 10
872.40670086349678
 20
255.59470312666829
 30
0.0
 40
2.2999999999999989
 50
269.99998614827302
 51
0.0
1001
GENIUS_GENODEF_13
1002
{
1000
HIER
1070
     0
1002
}
1002
{
1000
MANEDIT
1070
     0
1002
}
1002
{
1000
NOSEL
1070
     0
1002
}
1002
{
1000
BEHIND
1070
     0
1002
}
1002
{
1000
OTHER
1070
     0
1002
}
1002
{
1000
REACTOR
1002
}
1001
GENIUS_GENOBJ-N-FIL_13
1002
{
1000
OWNER
1000
GEN
1002
}
  0
LINE
  5
16FB3
  8
KI2
 10
835.40671439934636
 20
232.99470407180991
 30
0.0
 11
841.40671043451039
 21
232.99470407180991
 31
0.0
  0
LINE
  5
16FB4
  8
KI2
 10
835.40671439934636
 20
232.29470407180989
 30
0.0
 11
841.40671043451039
 21
232.29470407180989
 31
0.0
  0
LINE
  5
16FB6
  8
KI2
 10
841.40671592241472
 20
216.59470407180979
 30
0.0
 11
835.40671512462086
 21
216.5947026212601
 31
0.0
  0
LINE
  5
16FB7
  8
KI2
 10
841.40671575318413
 20
217.29470407180969
 30
0.0
 11
835.40671495538982
 21
217.2947026212602
 31
0.0
  0
LINE
  5
16FB8
  8
KI2
 10
832.7400477260129
 20
219.59470262126021
 30
0.0
 11
832.7400477260129
 21
229.99470407180991
 31
0.0
  0
LINE
  5
16FB9
  8
KI2
 10
833.44004772601318
 20
219.59470262126021
 30
0.0
 11
833.44004772601318
 21
229.99470407180991
 31
0.0
  0
ARC
  5
16FBA
  8
KI2
 10
835.4580383633978
 20
230.2638975792056
 30
0.0
 40
2.731288752463922
 50
91.076715017003536
 51
185.65620616760441
1001
GENIUS_GENODEF_13
1002
{
1000
HIER
1070
     0
1002
}
1002
{
1000
MANEDIT
1070
     0
1002
}
1002
{
1000
NOSEL
1070
     0
1002
}
1002
{
1000
BEHIND
1070
     0
1002
}
1002
{
1000
OTHER
1070
     0
1002
}
1002
{
1000
REACTOR
1002
}
1001
GENIUS_GENOBJ-N-FIL_13
1002
{
1000
OWNER
1000
GEN
1002
}
  0
ARC
  5
16FBB
  8
KI2
 10
835.4588850512655
 20
230.25927312204669
 30
0.0
 40
2.0360994396580758
 50
91.468241327764716
 51
187.4660766031493
1001
GENIUS_GENODEF_13
1002
{
1000
HIER
1070
     0
1002
}
1002
{
1000
MANEDIT
1070
     0
1002
}
1002
{
1000
NOSEL
1070
     0
1002
}
1002
{
1000
BEHIND
1070
     0
1002
}
1002
{
1000
OTHER
1070
     0
1002
}
1002
{
1000
REACTOR
1002
}
1001
GENIUS_GENOBJ-N-FIL_13
1002
{
1000
OWNER
1000
GEN
1002
}
  0
ARC
  5
16FBC
  8
KI2
 10
835.45803837535993
 20
219.3255091369054
 30
0.0
 40
2.73128876209692
 50
174.34379433811711
 51
268.9232999529961
1001
GENIUS_GENODEF_13
1002
{
1000
HIER
1070
     0
1002
}
1002
{
1000
MANEDIT
1070
     0
1002
}
1002
{
1000
NOSEL
1070
     0
1002
}
1002
{
1000
BEHIND
1070
     0
1002
}
1002
{
1000
OTHER
1070
     0
1002
}
1002
{
1000
REACTOR
1002
}
1001
GENIUS_GENOBJ-N-FIL_13
1002
{
1000
OWNER
1000
GEN
1002
}
  0
ARC
  5
16FBD
  8
KI2
 10
835.45888506247377
 20
219.33013359322001
 30
0.0
 40
2.0360994478871408
 50
172.53392405714931
 51
268.53177401486511
1001
GENIUS_GENODEF_13
1002
{
1000
HIER
1070
     0
1002
}
1002
{
1000
MANEDIT
1070
     0
1002
}
1002
{
1000
NOSEL
1070
     0
1002
}
1002
{
1000
BEHIND
1070
     0
1002
}
1002
{
1000
OTHER
1070
     0
1002
}
1002
{
1000
REACTOR
1002
}
1001
GENIUS_GENOBJ-N-FIL_13
1002
{
1000
OWNER
1000
GEN
1002
}
  0
LINE
  5
16FBF
  8
KI2
 10
671.40668498844707
 20
268.99469557000629
 30
0.0
 11
677.40668102361133
 21
268.99469557000629
 31
0.0
  0
LINE
  5
16FC0
  8
KI2
 10
671.40668498844707
 20
268.2946955700063
 30
0.0
 11
677.40668102361133
 21
268.2946955700063
 31
0.0
  0
LINE
  5
16FC2
  8
KI2
 10
677.40668651151555
 20
252.59469557000619
 30
0.0
 11
671.40668571372169
 21
252.59469411945659
 31
0.0
  0
LINE
  5
16FC3
  8
KI2
 10
677.40668634228496
 20
253.2946955700061
 30
0.0
 11
671.40668554449076
 21
253.29469411945661
 31
0.0
  0
LINE
  5
16FC4
  8
KI2
 10
668.40668498844695
 20
255.59469411945659
 30
0.0
 11
668.40668498844695
 21
265.9946955700064
 31
0.0
  0
LINE
  5
16FC5
  8
KI2
 10
669.10668498844734
 20
255.59469411945659
 30
0.0
 11
669.10668498844734
 21
265.9946955700064
 31
0.0
  0
ARC
  5
16FC6
  8
KI2
 10
671.40668498844707
 20
265.9946955700064
 30
0.0
 40
3.0
 50
90.0
 51
180.0
1001
GENIUS_GENODEF_13
1002
{
1000
HIER
1070
     0
1002
}
1002
{
1000
MANEDIT
1070
     0
1002
}
1002
{
1000
NOSEL
1070
     0
1002
}
1002
{
1000
BEHIND
1070
     0
1002
}
1002
{
1000
OTHER
1070
     0
1002
}
1002
{
1000
REACTOR
1002
}
1001
GENIUS_GENOBJ-N-FIL_13
1002
{
1000
OWNER
1000
GEN
1002
}
  0
ARC
  5
16FC7
  8
KI2
 10
671.40668498844707
 20
265.9946955700064
 30
0.0
 40
2.2999999999999989
 50
90.0
 51
180.0
1001
GENIUS_GENODEF_13
1002
{
1000
HIER
1070
     0
1002
}
1002
{
1000
MANEDIT
1070
     0
1002
}
1002
{
1000
NOSEL
1070
     0
1002
}
1002
{
1000
BEHIND
1070
     0
1002
}
1002
{
1000
OTHER
1070
     0
1002
}
1002
{
1000
REACTOR
1002
}
1001
GENIUS_GENOBJ-N-FIL_13
1002
{
1000
OWNER
1000
GEN
1002
}
  0
ARC
  5
16FC8
  8
KI2
 10
671.40668498844707
 20
255.59469411945659
 30
0.0
 40
3.0
 50
180.0
 51
270.00001385172698
1001
GENIUS_GENODEF_13
1002
{
1000
HIER
1070
     0
1002
}
1002
{
1000
MANEDIT
1070
     0
1002
}
1002
{
1000
NOSEL
1070
     0
1002
}
1002
{
1000
BEHIND
1070
     0
1002
}
1002
{
1000
OTHER
1070
     0
1002
}
1002
{
1000
REACTOR
1002
}
1001
GENIUS_GENOBJ-N-FIL_13
1002
{
1000
OWNER
1000
GEN
1002
}
  0
ARC
  5
16FC9
  8
KI2
 10
671.40668498844707
 20
255.59469411945659
 30
0.0
 40
2.2999999999999989
 50
180.0
 51
270.00001385172698
1001
GENIUS_GENODEF_13
1002
{
1000
HIER
1070
     0
1002
}
1002
{
1000
MANEDIT
1070
     0
1002
}
1002
{
1000
NOSEL
1070
     0
1002
}
1002
{
1000
BEHIND
1070
     0
1002
}
1002
{
1000
OTHER
1070
     0
1002
}
1002
{
1000
REACTOR
1002
}
1001
GENIUS_GENOBJ-N-FIL_13
1002
{
1000
OWNER
1000
GEN
1002
}
  0
LINE
  5
16FCB
  8
KI2
 10
507.40672436629768
 20
304.99470439415632
 30
0.0
 11
513.40672040146194
 21
304.99470439415632
 31
0.0
  0
LINE
  5
16FCC
  8
KI2
 10
507.40672436629768
 20
304.29470439415621
 30
0.0
 11
513.40672040146194
 21
304.29470439415621
 31
0.0
  0
LINE
  5
16FCE
  8
KI2
 10
513.40672588936616
 20
288.59470439415622
 30
0.0
 11
507.40672509157241
 21
288.59470294360648
 31
0.0
  0
LINE
  5
16FCF
  8
KI2
 10
513.40672572013557
 20
289.29470439415599
 30
0.0
 11
507.40672492234131
 21
289.29470294360652
 31
0.0
  0
LINE
  5
16FD0
  8
KI2
 10
504.40672436629762
 20
291.59470294360648
 30
0.0
 11
504.40672436629762
 21
301.9947043941562
 31
0.0
  0
LINE
  5
16FD1
  8
KI2
 10
505.1067243662979
 20
291.59470294360648
 30
0.0
 11
505.1067243662979
 21
301.9947043941562
 31
0.0
  0
ARC
  5
16FD2
  8
KI2
 10
507.40672436629768
 20
301.9947043941562
 30
0.0
 40
3.0
 50
90.0
 51
180.0
1001
GENIUS_GENODEF_13
1002
{
1000
HIER
1070
     0
1002
}
1002
{
1000
MANEDIT
1070
     0
1002
}
1002
{
1000
NOSEL
1070
     0
1002
}
1002
{
1000
BEHIND
1070
     0
1002
}
1002
{
1000
OTHER
1070
     0
1002
}
1002
{
1000
REACTOR
1002
}
1001
GENIUS_GENOBJ-N-FIL_13
1002
{
1000
OWNER
1000
GEN
1002
}
  0
ARC
  5
16FD3
  8
KI2
 10
507.40672436629768
 20
301.9947043941562
 30
0.0
 40
2.2999999999999989
 50
90.0
 51
180.0
1001
GENIUS_GENODEF_13
1002
{
1000
HIER
1070
     0
1002
}
1002
{
1000
MANEDIT
1070
     0
1002
}
1002
{
1000
NOSEL
1070
     0
1002
}
1002
{
1000
BEHIND
1070
     0
1002
}
1002
{
1000
OTHER
1070
     0
1002
}
1002
{
1000
REACTOR
1002
}
1001
GENIUS_GENOBJ-N-FIL_13
1002
{
1000
OWNER
1000
GEN
1002
}
  0
ARC
  5
16FD4
  8
KI2
 10
507.40672436629768
 20
291.59470294360648
 30
0.0
 40
3.0
 50
180.0
 51
270.00001385172698
1001
GENIUS_GENODEF_13
1002
{
1000
HIER
1070
     0
1002
}
1002
{
1000
MANEDIT
1070
     0
1002
}
1002
{
1000
NOSEL
1070
     0
1002
}
1002
{
1000
BEHIND
1070
     0
1002
}
1002
{
1000
OTHER
1070
     0
1002
}
1002
{
1000
REACTOR
1002
}
1001
GENIUS_GENOBJ-N-FIL_13
1002
{
1000
OWNER
1000
GEN
1002
}
  0
ARC
  5
16FD5
  8
KI2
 10
507.40672436629768
 20
291.59470294360648
 30
0.0
 40
2.2999999999999989
 50
180.0
 51
270.00001385172698
1001
GENIUS_GENODEF_13
1002
{
1000
HIER
1070
     0
1002
}
1002
{
1000
MANEDIT
1070
     0
1002
}
1002
{
1000
NOSEL
1070
     0
1002
}
1002
{
1000
BEHIND
1070
     0
1002
}
1002
{
1000
OTHER
1070
     0
1002
}
1002
{
1000
REACTOR
1002
}
1001
GENIUS_GENOBJ-N-FIL_13
1002
{
1000
OWNER
1000
GEN
1002
}
  0
LINE
  5
16FD7
  8
KI2
 10
1036.4067143590139
 20
232.99470296550609
 30
0.0
 11
1030.406718323849
 21
232.99470296550609
 31
0.0
  0
LINE
  5
16FD8
  8
KI2
 10
1036.4067143590139
 20
232.2947029655063
 30
0.0
 11
1030.406718323849
 21
232.2947029655063
 31
0.0
  0
LINE
  5
16FDA
  8
KI2
 10
1030.406712835945
 20
216.594702965506
 30
0.0
 11
1036.4067136337389
 21
216.5947015149566
 31
0.0
  0
LINE
  5
16FDB
  8
KI2
 10
1030.406713005176
 20
217.29470296550579
 30
0.0
 11
1036.40671380297
 21
217.29470151495639
 31
0.0
  0
LINE
  5
16FDC
  8
KI2
 10
1039.4067143590139
 20
219.59470151495651
 30
0.0
 11
1039.4067143590139
 21
229.99470296550609
 31
0.0
  0
LINE
  5
16FDD
  8
KI2
 10
1038.7067143590141
 20
219.59470151495651
 30
0.0
 11
1038.7067143590141
 21
229.99470296550609
 31
0.0
  0
ARC
  5
16FDE
  8
KI2
 10
1036.4067143590139
 20
229.99470296550609
 30
0.0
 40
3.0
 50
0.0
 51
90.0
1001
GENIUS_GENODEF_13
1002
{
1000
HIER
1070
     0
1002
}
1002
{
1000
MANEDIT
1070
     0
1002
}
1002
{
1000
NOSEL
1070
     0
1002
}
1002
{
1000
BEHIND
1070
     0
1002
}
1002
{
1000
OTHER
1070
     0
1002
}
1002
{
1000
REACTOR
1002
}
1001
GENIUS_GENOBJ-N-FIL_13
1002
{
1000
OWNER
1000
GEN
1002
}
  0
ARC
  5
16FDF
  8
KI2
 10
1036.4067143590139
 20
229.99470296550609
 30
0.0
 40
2.2999999999999989
 50
0.0
 51
90.0
1001
GENIUS_GENODEF_13
1002
{
1000
HIER
1070
     0
1002
}
1002
{
1000
MANEDIT
1070
     0
1002
}
1002
{
1000
NOSEL
1070
     0
1002
}
1002
{
1000
BEHIND
1070
     0
1002
}
1002
{
1000
OTHER
1070
     0
1002
}
1002
{
1000
REACTOR
1002
}
1001
GENIUS_GENOBJ-N-FIL_13
1002
{
1000
OWNER
1000
GEN
1002
}
  0
ARC
  5
16FE0
  8
KI2
 10
1036.4067143590139
 20
219.59470151495651
 30
0.0
 40
3.0
 50
269.99998614827302
 51
0.0
1001
GENIUS_GENODEF_13
1002
{
1000
HIER
1070
     0
1002
}
1002
{
1000
MANEDIT
1070
     0
1002
}
1002
{
1000
NOSEL
1070
     0
1002
}
1002
{
1000
BEHIND
1070
     0
1002
}
1002
{
1000
OTHER
1070
     0
1002
}
1002
{
1000
REACTOR
1002
}
1001
GENIUS_GENOBJ-N-FIL_13
1002
{
1000
OWNER
1000
GEN
1002
}
  0
ARC
  5
16FE1
  8
KI2
 10
1036.4067143590139
 20
219.59470151495651
 30
0.0
 40
2.2999999999999989
 50
269.99998614827302
 51
0.0
1001
GENIUS_GENODEF_13
1002
{
1000
HIER
1070
     0
1002
}
1002
{
1000
MANEDIT
1070
     0
1002
}
1002
{
1000
NOSEL
1070
     0
1002
}
1002
{
1000
BEHIND
1070
     0
1002
}
1002
{
1000
OTHER
1070
     0
1002
}
1002
{
1000
REACTOR
1002
}
1001
GENIUS_GENOBJ-N-FIL_13
1002
{
1000
OWNER
1000
GEN
1002
}
  0
TEXT
  5
17A0E
  8
MJ
 10
362.6204179010096
 20
727.49662402523541
 30
0.0
 40
10.0
  1
壁前面
 41
0.95
  0
LINE
  5
17A0F
  8
MJ
 10
358.37500000000051
 20
735.73600134085166
 30
0.0
 11
353.5
 21
727.29225365395337
 31
0.0
  0
LINE
  5
17A10
  8
MJ
 10
348.6250000000004
 20
735.73600134085166
 30
0.0
 11
358.37500000000051
 21
735.73600134085166
 31
0.0
  0
LINE
  5
17A11
  8
MJ
 10
353.5
 20
727.29225365395337
 30
0.0
 11
348.6250000000004
 21
735.73600134085166
 31
0.0
  0
TEXT
  5
17A13
  8
SU
 10
374.09180446016262
 20
635.87359668411375
 30
0.0
 40
7.0
  1
下地材
 41
0.9
  0
LINE
  5
17A19
  8
OS
 10
1039.4067128359361
 20
201.29470125439701
 30
0.0
 11
1065.588571063566
 21
201.2947012543957
 31
0.0
  0
LINE
  5
17A1A
  8
OS
 10
1051.9067128359341
 20
213.79470125439701
 30
0.0
 11
1065.588571063566
 21
213.7947012543957
 31
0.0
  0
LINE
  5
17A1B
  8
OS
 10
1031.906712835937
 20
193.79470125439701
 30
0.0
 11
1065.5885710635639
 21
193.7947012543957
 31
0.0
  0
LINE
  5
180C5
  8
TS
 10
811.14649149273009
 20
761.74999999999989
 30
0.0
 11
811.14649149273009
 21
716.75000000000023
 31
0.0
  0
LINE
  5
180C6
  8
OS
 10
796.64649149273009
 20
774.75
 30
0.0
 11
796.64649149273009
 21
666.82837717091093
 31
0.0
  0
LINE
  5
180C8
  8
OS
 10
809.64649149273009
 20
761.74999999999989
 30
0.0
 11
809.64649149273009
 21
666.82837717091093
 31
0.0
  0
LINE
  5
180C9
  8
OS
 10
809.64649149273009
 20
761.74999999999989
 30
0.0
 11
1068.1464914927301
 21
761.74999999999966
 31
0.0
  0
LINE
  5
180CB
  8
OS
 10
796.64649149273009
 20
774.75
 30
0.0
 11
1091.5
 21
774.74999999999966
 31
0.0
  0
LINE
  5
180CC
  8
OS
 10
1081.1464914927301
 20
761.74999999999989
 30
0.0
 11
1081.1464914927301
 21
670.75
 31
0.0
  0
LINE
  5
180CD
  8
OS
 10
1068.1464914927301
 20
761.74999999999989
 30
0.0
 11
1068.1464914927301
 21
670.75
 31
0.0
  0
LINE
  5
180CE
  8
OS
 10
1081.1464914927301
 20
670.75
 30
0.0
 11
1068.1464914927301
 21
670.75
 31
0.0
  0
LINE
  5
180CF
  8
MJ
 10
1081.1464914927301
 20
761.74999999999989
 30
0.0
 11
1091.5
 21
761.74999999999966
 31
0.0
  0
LINE
  5
180D0
  8
KI1
 10
809.64649149273009
 20
716.75
 30
0.0
 11
1068.1464914927301
 21
716.74999999999966
 31
0.0
  0
LINE
  5
180D1
  8
TS
 10
1067.3964914927301
 20
761.74999999999966
 30
0.0
 11
1067.3964914927301
 21
716.74999999999966
 31
0.0
  0
LINE
  5
180D2
  8
TS
 10
1065.8964914927301
 20
761.74999999999966
 30
0.0
 11
1065.8964914927301
 21
716.74999999999966
 31
0.0
  0
LINE
  5
180D3
  8
TS
 10
983.89649149272998
 20
761.74999999999966
 30
0.0
 11
983.89649149272998
 21
716.74999999999966
 31
0.0
  0
LINE
  5
180D4
  8
TS
 10
903.89649149273009
 20
761.74999999999966
 30
0.0
 11
903.89649149273009
 21
716.74999999999966
 31
0.0
  0
LINE
  5
180D5
  8
TS
 10
985.89649149272998
 20
761.74999999999966
 30
0.0
 11
985.89649149272998
 21
716.74999999999966
 31
0.0
  0
LINE
  5
180D6
  8
TS
 10
901.89649149272998
 20
761.74999999999966
 30
0.0
 11
901.89649149272998
 21
716.74999999999966
 31
0.0
  0
LINE
  5
180D7
  8
KI1
 10
980.01315815939677
 20
674.60000000000014
 30
0.0
 11
1068.1464914927301
 21
674.59999999999957
 31
0.0
  0
LINE
  5
180D8
  8
KI1
 10
1068.1464914927301
 20
671.29999999999995
 30
0.0
 11
980.01315815939677
 21
671.29999999999995
 31
0.0
  0
LINE
  5
180DE
  8
KI1
 10
809.64649149273009
 20
678.49999999999966
 30
0.0
 11
897.77982482606353
 21
678.50000000000011
 31
0.0
  0
LINE
  5
180DF
  8
KI1
 10
897.77982482606353
 20
681.79999999999995
 30
0.0
 11
809.64649149273009
 21
681.79999999999995
 31
0.0
  0
TEXT
  5
180E2
  8
MJ
 10
882.98602979952454
 20
786.47718398936115
 30
0.0
 40
7.0
  1
(冷蔵庫)
 41
0.9
  0
LINE
  5
180E3
  8
PH
 10
819.04649149273052
 20
756.74999999999989
 30
0.0
 11
894.04649149273018
 21
756.74999999999989
 31
0.0
  0
LINE
  5
180E4
  8
PH
 10
894.04649149273018
 20
756.74999999999989
 30
0.0
 11
894.04649149273018
 21
691.75
 31
0.0
  0
LINE
  5
180E5
  8
PH
 10
894.04649149273018
 20
691.75
 30
0.0
 11
819.04649149273052
 21
691.75
 31
0.0
  0
LINE
  5
180E6
  8
PH
 10
819.04649149273052
 20
691.75
 30
0.0
 11
819.04649149273052
 21
756.74999999999989
 31
0.0
  0
TEXT
  5
18B80
  8
SU
 10
1066.973734704784
 20
162.8929936996833
 30
0.0
 40
7.0
  1
巾木
 41
0.9
  0
TEXT
  5
18EFF
  8
SU
 10
187.88799971334399
 20
176.70828395888751
 30
0.0
 40
7.0
  1
巾木
 41
0.9
  0
TEXT
  5
19A39
  8
SU
 10
1066.6861643952791
 20
174.62138563112191
 30
0.0
 40
7.0
  1
巾木と緩衝する部分カット
 41
0.85
  0
TEXT
  5
19A3A
  8
SU
 10
1066.9737347047831
 20
185.30621481979051
 30
0.0
 40
7.0
  1
樹脂目板
 41
0.9
  0
TEXT
  5
1A2D1
  8
MJ
 10
1005.5
 20
42.25
 30
0.0
 40
7.0
  1
re12a001
 41
0.8299999999999999
  0
TEXT
  5
1A2D2
  8
MJ
 10
1005.5
 20
78.25
 30
0.0
 40
7.0
  1
リアリゼ（キッチンスペース収納）
 41
0.8299999999999999
  0
TEXT
  5
1A2D3
  8
MJ
 10
1005.5
 20
51.25
 30
0.0
 40
7.0
  1
たて横断面
 41
0.8299999999999999
  0
TEXT
  5
1A2D4
  8
MJ
 10
1005.5
 20
69.25
 30
0.0
 40
7.0
  1
扉３枚　収納２列+冷蔵庫タイプ
 41
0.8299999999999999
  0
TEXT
  5
1A2D5
  8
MJ
 10
1005.5
 20
60.25
 30
0.0
 40
7.0
  1
クレーヴァ25　Yレール引戸
 41
0.8299999999999999
  0
LINE
  5
1A3D1
  8
KI2
 10
254.5000093317058
 20
210.799537806193
 30
0.0
 11
257.00000933170583
 21
209.29953780619309
 31
0.0
  0
LINE
  5
1A3D2
  8
KI2
 10
261.50000933170583
 20
210.799537806193
 30
0.0
 11
259.00000933170583
 21
209.29953780619309
 31
0.0
  0
LINE
  5
1A3D3
  8
KI2
 10
261.50000933170583
 20
214.7947012543116
 30
0.0
 11
261.50000933170583
 21
210.799537806193
 31
0.0
  0
LINE
  5
1A3D4
  8
KI2
 10
257.00000933170583
 20
207.79953780619309
 30
0.0
 11
258.00000933170583
 21
207.79953780619309
 31
0.0
  0
LINE
  5
1A3D5
  8
KI2
 10
259.00000933170583
 20
207.79953780619309
 30
0.0
 11
258.00000933170583
 21
207.79953780619309
 31
0.0
  0
LINE
  5
1A3D6
  8
KI2
 10
257.00000933170583
 20
214.7947012543116
 30
0.0
 11
257.00000933170583
 21
207.79953780619309
 31
0.0
  0
LINE
  5
1A3D7
  8
KI2
 10
259.00000933170583
 20
214.7947012543116
 30
0.0
 11
259.00000933170583
 21
207.79953780619309
 31
0.0
  0
LINE
  5
1A3D8
  8
KI2
 10
254.5000093317058
 20
214.7947012543116
 30
0.0
 11
254.5000093317058
 21
210.799537806193
 31
0.0
  0
LINE
  5
1A3D9
  8
KI2
 10
273.00000933170583
 20
213.2947012543116
 30
0.0
 11
243.0000093317058
 21
213.2947012543116
 31
0.0
  0
LINE
  5
1A3DA
  8
KI1
 10
274.50000933170583
 20
214.7947012543116
 30
0.0
 11
241.5000093317058
 21
214.7947012543116
 31
0.0
  0
ARC
  5
1A3DB
  8
KI2
 10
273.00000933170583
 20
214.7947012543116
 30
0.0
 40
1.5
 50
270.0
 51
0.0
  0
ARC
  5
1A3DC
  8
KI2
 10
243.0000093317058
 20
214.7947012543116
 30
0.0
 40
1.5
 50
180.0
 51
270.0
  0
LINE
  5
1A3DD
  8
KI2
 10
290.50000933170583
 20
210.7995385906606
 30
0.0
 11
293.00000933170583
 21
209.2995385906606
 31
0.0
  0
LINE
  5
1A3DE
  8
KI2
 10
297.50000933170583
 20
210.7995385906606
 30
0.0
 11
295.00000933170583
 21
209.2995385906606
 31
0.0
  0
LINE
  5
1A3DF
  8
KI2
 10
297.50000933170583
 20
214.79470203877921
 30
0.0
 11
297.50000933170583
 21
210.7995385906606
 31
0.0
  0
LINE
  5
1A3E0
  8
KI2
 10
293.00000933170583
 20
207.7995385906606
 30
0.0
 11
294.00000933170583
 21
207.7995385906606
 31
0.0
  0
LINE
  5
1A3E1
  8
KI2
 10
295.00000933170583
 20
207.7995385906606
 30
0.0
 11
294.00000933170583
 21
207.7995385906606
 31
0.0
  0
LINE
  5
1A3E2
  8
KI2
 10
293.00000933170583
 20
214.79470203877921
 30
0.0
 11
293.00000933170583
 21
207.7995385906606
 31
0.0
  0
LINE
  5
1A3E3
  8
KI2
 10
295.00000933170583
 20
214.79470203877921
 30
0.0
 11
295.00000933170583
 21
207.7995385906606
 31
0.0
  0
LINE
  5
1A3E4
  8
KI2
 10
290.50000933170583
 20
214.79470203877921
 30
0.0
 11
290.50000933170583
 21
210.7995385906606
 31
0.0
  0
LINE
  5
1A3E5
  8
KI2
 10
309.00000933170571
 20
213.29470203877921
 30
0.0
 11
279.00000933170583
 21
213.29470203877921
 31
0.0
  0
LINE
  5
1A3E6
  8
KI1
 10
310.50000933170571
 20
214.79470203877921
 30
0.0
 11
277.50000933170571
 21
214.79470203877921
 31
0.0
  0
ARC
  5
1A3E7
  8
KI2
 10
309.00000933170571
 20
214.79470203877921
 30
0.0
 40
1.5
 50
270.0
 51
0.0
  0
ARC
  5
1A3E8
  8
KI2
 10
279.00000933170583
 20
214.79470203877921
 30
0.0
 40
1.5
 50
180.0
 51
270.0
  0
LINE
  5
1A3E9
  8
KI2
 10
326.50000933170571
 20
210.79953937512821
 30
0.0
 11
329.00000933170571
 21
209.29953937512821
 31
0.0
  0
LINE
  5
1A3EA
  8
KI2
 10
333.50000933170571
 20
210.79953937512821
 30
0.0
 11
331.00000933170571
 21
209.29953937512821
 31
0.0
  0
LINE
  5
1A3EB
  8
KI2
 10
333.50000933170571
 20
214.79470282324669
 30
0.0
 11
333.50000933170571
 21
210.79953937512821
 31
0.0
  0
LINE
  5
1A3EC
  8
KI2
 10
329.00000933170571
 20
207.79953937512821
 30
0.0
 11
330.00000933170571
 21
207.79953937512821
 31
0.0
  0
LINE
  5
1A3ED
  8
KI2
 10
331.00000933170571
 20
207.79953937512821
 30
0.0
 11
330.00000933170571
 21
207.79953937512821
 31
0.0
  0
LINE
  5
1A3EE
  8
KI2
 10
329.00000933170571
 20
214.79470282324669
 30
0.0
 11
329.00000933170571
 21
207.79953937512821
 31
0.0
  0
LINE
  5
1A3EF
  8
KI2
 10
331.00000933170571
 20
214.79470282324669
 30
0.0
 11
331.00000933170571
 21
207.79953937512821
 31
0.0
  0
LINE
  5
1A3F0
  8
KI2
 10
326.50000933170571
 20
214.79470282324669
 30
0.0
 11
326.50000933170571
 21
210.79953937512821
 31
0.0
  0
LINE
  5
1A3F1
  8
KI2
 10
345.00000933170571
 20
213.29470282324669
 30
0.0
 11
315.00000933170571
 21
213.29470282324669
 31
0.0
  0
LINE
  5
1A3F2
  8
KI1
 10
346.50000933170571
 20
214.79470282324669
 30
0.0
 11
313.50000933170571
 21
214.79470282324669
 31
0.0
  0
ARC
  5
1A3F3
  8
KI2
 10
345.00000933170571
 20
214.79470282324669
 30
0.0
 40
1.5
 50
270.0
 51
0.0
  0
ARC
  5
1A3F4
  8
KI2
 10
315.00000933170571
 20
214.79470282324669
 30
0.0
 40
1.5
 50
180.0
 51
270.0
  0
LINE
  5
1A3F5
  8
KI1
 10
325.20001467537219
 20
210.49469382825669
 30
0.0
 11
298.80002173624462
 21
210.49469382825669
 31
0.0
  0
LINE
  5
1A3F6
  8
KI1
 10
312.28285692017658
 20
206.99469376934229
 30
0.0
 11
324.60001560474541
 21
206.99469376934229
 31
0.0
  0
LINE
  5
1A3F7
  8
KI1
 10
324.74617394661919
 20
205.79470125439661
 30
0.0
 11
312.00001820580798
 21
205.79470125439661
 31
0.0
  0
LINE
  5
1A3F8
  8
KI1
 10
317.20001820580819
 20
209.2947013133128
 30
0.0
 11
322.90002464366222
 21
209.2947013133128
 31
0.0
  0
LINE
  5
1A3FA
  8
KI1
 10
275.70001581968432
 20
206.99469376934229
 30
0.0
 11
263.40002080687231
 21
206.99469376934229
 31
0.0
  0
LINE
  5
1A3FB
  8
KI1
 10
263.25386246499647
 20
205.79470125439661
 30
0.0
 11
276.00001820580792
 21
205.79470125439661
 31
0.0
  0
ARC
  5
1A3FC
  8
KI1
 10
271.25001820580792
 20
207.7446938282566
 30
0.0
 40
0.4499999999999992
 50
180.0
 51
0.0
  0
LINE
  5
1A3FD
  8
KI1
 10
289.20001467537207
 20
210.49469382825669
 30
0.0
 11
262.80002173624462
 21
210.49469382825669
 31
0.0
  0
LINE
  5
1A3FE
  8
KI1
 10
264.13659235816198
 20
207.8995872099724
 30
0.0
 11
264.41328604839958
 21
207.50430050262841
 31
0.0
  0
ARC
  5
1A3FF
  8
KI1
 10
265.02010333070439
 20
207.6849394529311
 30
0.0
 40
0.3000000099360252
 50
304.99198913573122
 51
34.858993530263639
  0
LINE
  5
1A400
  8
KI1
 10
270.8000182058081
 20
209.4946938282566
 30
0.0
 11
270.8000182058081
 21
207.7446938282566
 31
0.0
  0
LINE
  5
1A401
  8
KI1
 10
263.40002080687231
 20
208.29469879472731
 30
0.0
 11
263.40002080687231
 21
206.99469376934229
 31
0.0
  0
LINE
  5
1A402
  8
KI1
 10
255.90001820580801
 20
206.99470125439731
 30
0.0
 11
255.90001820580801
 21
209.5360468882925
 31
0.0
  0
LINE
  5
1A403
  8
KI1
 10
260.10001820580783
 20
206.99470125439731
 30
0.0
 11
260.10001820580783
 21
209.5360468882925
 31
0.0
  0
LINE
  5
1A404
  8
KI1
 10
253.0014139274476
 20
209.47546545762839
 30
0.0
 11
249.20001820580819
 21
206.24022348070659
 31
0.0
  0
LINE
  5
1A405
  8
KI1
 10
254.70001820580819
 20
206.79470125439749
 30
0.0
 11
254.70001820580819
 21
208.83658540105921
 31
0.0
  0
LINE
  5
1A406
  8
KI1
 10
252.69999560925041
 20
210.7946963350584
 30
0.0
 11
248.00001820580789
 21
206.79470125439749
 31
0.0
  0
LINE
  5
1A407
  8
KI1
 10
260.10001820580783
 20
206.99470125439731
 30
0.0
 11
258.00001820580792
 21
206.99470125439731
 31
0.0
  0
LINE
  5
1A408
  8
KI1
 10
255.70001820580819
 20
205.79470125439661
 30
0.0
 11
260.24617394661931
 21
205.79470125439661
 31
0.0
  0
LINE
  5
1A409
  8
KI1
 10
255.90001820580801
 20
206.99470125439731
 30
0.0
 11
258.00001820580792
 21
206.99470125439731
 31
0.0
  0
LINE
  5
1A40A
  8
KI1
 10
249.20001820580819
 20
206.24022348070659
 30
0.0
 11
249.20001820580819
 21
205.79470125439661
 31
0.0
  0
LINE
  5
1A40B
  8
KI1
 10
248.00001820580789
 20
206.79470125439749
 30
0.0
 11
248.00001820580789
 21
205.79470125439661
 31
0.0
  0
LINE
  5
1A40C
  8
KI1
 10
249.20001820580819
 20
205.79470125439661
 30
0.0
 11
248.00001820580789
 21
205.79470125439661
 31
0.0
  0
ARC
  5
1A40D
  8
KI1
 10
255.70001820580819
 20
206.79470125439749
 30
0.0
 40
1.0
 50
180.0
 51
270.0
  0
LINE
  5
1A40E
  8
KI1
 10
265.1096435103363
 20
207.38141698209731
 30
0.0
 11
265.19212624964121
 21
207.43915489960969
 31
0.0
  0
ARC
  5
1A40F
  8
KI1
 10
264.82291529576293
 20
207.7910462294596
 30
0.0
 40
0.4999999937576218
 50
214.9919738769554
 51
304.99198913573122
  0
ARC
  5
1A410
  8
KI1
 10
261.75001820580792
 20
206.54470125439661
 30
0.0
 40
0.5
 50
19.72084247195729
 51
160.2791575280427
  0
LINE
  5
1A411
  8
KI1
 10
261.1875218040812
 20
206.45726353977059
 30
0.0
 11
261.27934427707692
 21
206.71342011170961
 31
0.0
  0
ARC
  5
1A412
  8
KI1
 10
260.24617394661931
 20
206.79470125439661
 30
0.0
 40
1.0
 50
270.0
 51
340.27915752804267
  0
ARC
  5
1A413
  8
KI1
 10
263.25386246499647
 20
206.79470125439661
 30
0.0
 40
1.0
 50
199.72084247195721
 51
270.0
  0
LINE
  5
1A414
  8
KI1
 10
262.31251460753469
 20
206.45726353977059
 30
0.0
 11
262.22069213453892
 21
206.71342011170961
 31
0.0
  0
ARC
  5
1A415
  8
KI1
 10
254.40001820580801
 20
208.83658540105921
 30
0.0
 40
0.3
 50
0.0
 51
50.000000000013678
  0
ARC
  5
1A416
  8
KI1
 10
253.32547391463601
 20
209.09469633505819
 30
0.0
 40
0.5
 50
90.0
 51
130.40000551602199
  0
LINE
  5
1A417
  8
KI1
 10
253.78126880755599
 20
209.59469633505771
 30
0.0
 11
253.32547391463601
 21
209.59469633505771
 31
0.0
  0
LINE
  5
1A418
  8
KI1
 10
254.1026626123994
 20
209.4777185566179
 30
0.0
 11
254.59285448871469
 21
209.06639873399561
 31
0.0
  0
ARC
  5
1A419
  8
KI1
 10
253.78126880755599
 20
209.09469633505819
 30
0.0
 40
0.5
 50
50.000000000013678
 51
90.0
  0
LINE
  5
1A41A
  8
KI1
 10
254.40002314871339
 20
210.7946963350584
 30
0.0
 11
252.69999560925041
 21
210.7946963350584
 31
0.0
  0
LINE
  5
1A41B
  8
KI1
 10
254.40001820580801
 20
210.7946963350584
 30
0.0
 11
255.90001820580801
 21
209.5360468882925
 31
0.0
  0
ARC
  5
1A41C
  8
KI1
 10
263.80002081865541
 20
208.59469879472741
 30
0.0
 40
0.3
 50
270.0
 51
0.0
  0
LINE
  5
1A41D
  8
KI1
 10
265.2662731537211
 20
207.85640197958421
 30
0.0
 11
264.98381793031291
 21
208.26189833385359
 31
0.0
  0
LINE
  5
1A41E
  8
KI1
 10
264.98381793031291
 20
208.26189833385359
 30
0.0
 11
265.10002928021282
 21
208.66863805850261
 31
0.0
  0
LINE
  5
1A41F
  8
KI1
 10
264.20002175981023
 20
209.2947013133128
 30
0.0
 11
264.20002175981023
 21
208.79469129789021
 31
0.0
  0
LINE
  5
1A420
  8
KI1
 10
264.20002175981023
 20
208.79469129789021
 30
0.0
 11
264.06545756260903
 21
208.32368158316621
 31
0.0
  0
ARC
  5
1A421
  8
KI1
 10
264.54620409326662
 20
208.1863154245454
 30
0.0
 40
0.4999999937576218
 50
164.0549926757796
 51
214.99198913573119
  0
LINE
  5
1A422
  8
KI1
 10
264.1000208186552
 20
208.6947013133115
 30
0.0
 11
264.1000208186552
 21
208.59469879472741
 31
0.0
  0
ARC
  5
1A423
  8
KI1
 10
263.50002081865517
 20
208.6947013133115
 30
0.0
 40
0.6
 50
0.0
 51
90.0
  0
LINE
  5
1A424
  8
KI1
 10
265.10002928021282
 20
208.66863805850261
 30
0.0
 11
265.10002928021282
 21
209.4946938282566
 31
0.0
  0
LINE
  5
1A425
  8
KI1
 10
270.8000182058081
 20
209.4946938282566
 30
0.0
 11
265.10002928021282
 21
209.4946938282566
 31
0.0
  0
LINE
  5
1A426
  8
KI1
 10
262.60002579690848
 20
210.4946963350578
 30
0.0
 11
262.60002579690848
 21
209.2947013133128
 31
0.0
  0
ARC
  5
1A427
  8
KI1
 10
262.30002579690841
 20
210.4946963350578
 30
0.0
 40
0.3
 50
0.0
 51
90.0
  0
LINE
  5
1A428
  8
KI1
 10
262.80002173624462
 20
210.49469382825669
 30
0.0
 11
262.80002173624462
 21
209.2947013133128
 31
0.0
  0
LINE
  5
1A429
  8
KI1
 10
261.60001820580783
 20
210.7946963350584
 30
0.0
 11
260.10001820580783
 21
209.5360468882925
 31
0.0
  0
LINE
  5
1A42A
  8
KI1
 10
261.60001820580783
 20
210.7946963350584
 30
0.0
 11
262.30002579690841
 21
210.7946963350584
 31
0.0
  0
LINE
  5
1A42B
  8
KI1
 10
263.80002081865541
 20
208.29469879472731
 30
0.0
 11
263.40002080687231
 21
208.29469879472731
 31
0.0
  0
LINE
  5
1A42D
  8
KI1
 10
264.20002175981023
 20
209.2947013133128
 30
0.0
 11
262.60002579690848
 21
209.2947013133128
 31
0.0
  0
LINE
  5
1A42E
  8
KI1
 10
316.30001820580821
 20
209.2947013133128
 30
0.0
 11
316.30001820580821
 21
207.7446938282566
 31
0.0
  0
LINE
  5
1A42F
  8
KI1
 10
317.20001820580819
 20
209.2947013133128
 30
0.0
 11
317.20001820580819
 21
207.7446938282566
 31
0.0
  0
LINE
  5
1A430
  8
KI1
 10
306.8000182058081
 20
209.2947013133128
 30
0.0
 11
306.8000182058081
 21
207.7446938282566
 31
0.0
  0
LINE
  5
1A431
  8
KI1
 10
307.70001820580819
 20
209.2947013133128
 30
0.0
 11
307.70001820580819
 21
207.7446938282566
 31
0.0
  0
LINE
  5
1A433
  8
KI1
 10
299.40002080687242
 20
208.29469879472731
 30
0.0
 11
299.40002080687242
 21
206.99469376934229
 31
0.0
  0
LINE
  5
1A434
  8
KI1
 10
300.13659235816198
 20
207.8995872099724
 30
0.0
 11
300.41328604839958
 21
207.50430050262841
 31
0.0
  0
ARC
  5
1A435
  8
KI1
 10
301.02010333070439
 20
207.6849394529311
 30
0.0
 40
0.3000000099360252
 50
304.99198913573122
 51
34.858993530263639
  0
LINE
  5
1A436
  8
KI1
 10
288.60001560474529
 20
208.29469879472731
 30
0.0
 11
288.60001560474529
 21
206.99469376934229
 31
0.0
  0
LINE
  5
1A437
  8
KI1
 10
291.90001820580801
 20
206.99470125439731
 30
0.0
 11
291.90001820580801
 21
209.5360468882925
 31
0.0
  0
LINE
  5
1A438
  8
KI1
 10
296.10001820580783
 20
206.99470125439731
 30
0.0
 11
296.10001820580783
 21
209.5360468882925
 31
0.0
  0
LINE
  5
1A439
  8
KI1
 10
287.8634615657142
 20
207.8995872099724
 30
0.0
 11
287.58676787547671
 21
207.50430050262841
 31
0.0
  0
ARC
  5
1A43A
  8
KI1
 10
286.97995059317151
 20
207.6849394529311
 30
0.0
 40
0.3000000099360252
 50
145.14099121094179
 51
235.0079956054594
  0
LINE
  5
1A43B
  8
KI1
 10
280.3000182058081
 20
209.4946938282566
 30
0.0
 11
280.3000182058081
 21
207.7446938282566
 31
0.0
  0
LINE
  5
1A43C
  8
KI1
 10
281.20001820580819
 20
209.4946938282566
 30
0.0
 11
281.20001820580819
 21
207.7446938282566
 31
0.0
  0
LINE
  5
1A43D
  8
KI1
 10
271.70001820580819
 20
209.4946938282566
 30
0.0
 11
271.70001820580819
 21
207.7446938282566
 31
0.0
  0
LINE
  5
1A43F
  8
KI1
 10
296.10001820580783
 20
206.99470125439731
 30
0.0
 11
294.00001820580792
 21
206.99470125439731
 31
0.0
  0
LINE
  5
1A440
  8
KI1
 10
296.24617394661919
 20
205.79470125439661
 30
0.0
 11
291.75386246499647
 21
205.79470125439661
 31
0.0
  0
LINE
  5
1A441
  8
KI1
 10
276.30001581968548
 20
206.99469376934229
 30
0.0
 11
288.60001560474529
 21
206.99469376934229
 31
0.0
  0
LINE
  5
1A442
  8
KI1
 10
288.74617394661942
 20
205.79470125439661
 30
0.0
 11
276.00001820580792
 21
205.79470125439661
 31
0.0
  0
ARC
  5
1A443
  8
KI1
 10
280.75001820580792
 20
207.7446938282566
 30
0.0
 40
0.4499999999999992
 50
180.0
 51
0.0
  0
ARC
  5
1A444
  8
KI1
 10
276.00001581968581
 20
206.99469376934229
 30
0.0
 40
0.3
 50
180.0
 51
0.0
  0
LINE
  5
1A445
  8
KI1
 10
291.90001820580801
 20
206.99470125439731
 30
0.0
 11
294.00001820580792
 21
206.99470125439731
 31
0.0
  0
ARC
  5
1A446
  8
KI1
 10
291.75386246499647
 20
206.79470125439661
 30
0.0
 40
1.0
 50
199.72084247195721
 51
270.0
  0
ARC
  5
1A447
  8
KI1
 10
288.74617394661942
 20
206.79470125439661
 30
0.0
 40
1.0
 50
270.0
 51
340.27915752804267
  0
LINE
  5
1A448
  8
KI1
 10
289.68752180408109
 20
206.45726353977059
 30
0.0
 11
289.77934427707692
 21
206.71342011170961
 31
0.0
  0
LINE
  5
1A449
  8
KI1
 10
290.81251460753469
 20
206.45726353977059
 30
0.0
 11
290.72069213453892
 21
206.71342011170961
 31
0.0
  0
ARC
  5
1A44A
  8
KI1
 10
290.25001820580792
 20
206.54470125439661
 30
0.0
 40
0.5
 50
19.72084247195729
 51
160.2791575280427
  0
LINE
  5
1A44B
  8
KI1
 10
286.89041041354039
 20
207.38141698209731
 30
0.0
 11
286.80791016197639
 21
207.43915489960969
 31
0.0
  0
ARC
  5
1A44C
  8
KI1
 10
287.17713862811343
 20
207.7910462294596
 30
0.0
 40
0.4999999937576218
 50
235.0079956054594
 51
325.00799560545943
  0
ARC
  5
1A44D
  8
KI1
 10
307.25001820580792
 20
207.7446938282566
 30
0.0
 40
0.4499999999999992
 50
180.0
 51
0.0
  0
LINE
  5
1A44E
  8
KI1
 10
311.71717949144028
 20
206.99469376934229
 30
0.0
 11
299.40002080687242
 21
206.99469376934229
 31
0.0
  0
LINE
  5
1A44F
  8
KI1
 10
299.25386246499659
 20
205.79470125439661
 30
0.0
 11
312.00001820580798
 21
205.79470125439661
 31
0.0
  0
LINE
  5
1A450
  8
KI1
 10
301.10964351033539
 20
207.38141698209731
 30
0.0
 11
301.19212624964121
 21
207.43915489960969
 31
0.0
  0
ARC
  5
1A451
  8
KI1
 10
300.82291529576293
 20
207.7910462294596
 30
0.0
 40
0.4999999937576218
 50
214.9919738769554
 51
304.99198913573122
  0
ARC
  5
1A452
  8
KI1
 10
297.75001820580792
 20
206.54470125439661
 30
0.0
 40
0.5
 50
19.72084247195729
 51
160.2791575280427
  0
LINE
  5
1A453
  8
KI1
 10
297.18752180408109
 20
206.45726353977059
 30
0.0
 11
297.27934427707697
 21
206.71342011170961
 31
0.0
  0
LINE
  5
1A454
  8
KI1
 10
298.31251460753469
 20
206.45726353977059
 30
0.0
 11
298.22069213453881
 21
206.71342011170961
 31
0.0
  0
ARC
  5
1A455
  8
KI1
 10
299.25386246499659
 20
206.79470125439661
 30
0.0
 40
1.0
 50
199.72084247195721
 51
270.0
  0
ARC
  5
1A456
  8
KI1
 10
296.24617394661919
 20
206.79470125439661
 30
0.0
 40
1.0
 50
270.0
 51
340.27915752804267
  0
ARC
  5
1A457
  8
KI1
 10
316.75001820580798
 20
207.7446938282566
 30
0.0
 40
0.4499999999999992
 50
180.0
 51
0.0
  0
ARC
  5
1A458
  8
KI1
 10
312.0000205919323
 20
206.99469376934229
 30
0.0
 40
0.3
 50
180.0
 51
0.0
  0
LINE
  5
1A459
  8
KI1
 10
286.90002464366211
 20
209.4946938282566
 30
0.0
 11
281.20001820580819
 21
209.4946938282566
 31
0.0
  0
LINE
  5
1A45A
  8
KI1
 10
280.3000182058081
 20
209.4946938282566
 30
0.0
 11
271.70001820580819
 21
209.4946938282566
 31
0.0
  0
LINE
  5
1A45B
  8
KI1
 10
289.40001061470821
 20
210.4946963350578
 30
0.0
 11
289.40001061470821
 21
209.2947013133128
 31
0.0
  0
ARC
  5
1A45C
  8
KI1
 10
289.70001061470839
 20
210.4946963350578
 30
0.0
 40
0.3
 50
90.0
 51
180.0
  0
LINE
  5
1A45D
  8
KI1
 10
289.20001467537207
 20
209.2947013133128
 30
0.0
 11
289.20001467537207
 21
210.49469382825669
 31
0.0
  0
LINE
  5
1A45E
  8
KI1
 10
290.40001820580801
 20
210.7946963350584
 30
0.0
 11
291.90001820580801
 21
209.5360468882925
 31
0.0
  0
LINE
  5
1A460
  8
KI1
 10
289.70001061470839
 20
210.79469633505749
 30
0.0
 11
290.40001820580801
 21
210.7946963350584
 31
0.0
  0
ARC
  5
1A461
  8
KI1
 10
288.20001559296128
 20
208.59469879472741
 30
0.0
 40
0.3
 50
180.0
 51
270.0
  0
LINE
  5
1A462
  8
KI1
 10
287.80003216406573
 20
208.79469129789021
 30
0.0
 11
287.93461387352539
 21
208.32368158316621
 31
0.0
  0
LINE
  5
1A463
  8
KI1
 10
287.80003216406573
 20
209.2947013133128
 30
0.0
 11
287.80003216406573
 21
208.79469129789021
 31
0.0
  0
LINE
  5
1A464
  8
KI1
 10
286.73379828241332
 20
207.85640197958421
 30
0.0
 11
287.01623599356122
 21
208.26189833385359
 31
0.0
  0
LINE
  5
1A465
  8
KI1
 10
287.01623599356122
 20
208.26189833385359
 30
0.0
 11
286.90002464366211
 21
208.66863805850261
 31
0.0
  0
ARC
  5
1A466
  8
KI1
 10
287.45383231834973
 20
208.1863154245454
 30
0.0
 40
0.4999999937576218
 50
325.00799560545943
 51
15.9449920654379
  0
LINE
  5
1A467
  8
KI1
 10
287.90001559296252
 20
208.6947013133115
 30
0.0
 11
287.90001559296252
 21
208.59469879472741
 31
0.0
  0
LINE
  5
1A468
  8
KI1
 10
286.90002464366211
 20
208.66863805850261
 30
0.0
 11
286.90002464366211
 21
209.4946938282566
 31
0.0
  0
LINE
  5
1A469
  8
KI1
 10
288.20001559296128
 20
208.29469879472731
 30
0.0
 11
288.60001560474529
 21
208.29469879472731
 31
0.0
  0
LINE
  5
1A46A
  8
KI1
 10
287.80003216406573
 20
209.2947013133128
 30
0.0
 11
289.40001061470821
 21
209.2947013133128
 31
0.0
  0
ARC
  5
1A46B
  8
KI1
 10
288.50001559296152
 20
208.6947013133115
 30
0.0
 40
0.6
 50
90.0
 51
180.0
  0
LINE
  5
1A46C
  8
KI1
 10
299.80002081865541
 20
208.29469879472731
 30
0.0
 11
299.40002080687242
 21
208.29469879472731
 31
0.0
  0
ARC
  5
1A46D
  8
KI1
 10
299.80002081865541
 20
208.59469879472741
 30
0.0
 40
0.3
 50
270.0
 51
0.0
  0
LINE
  5
1A46E
  8
KI1
 10
298.3000257969083
 20
210.7946963350584
 30
0.0
 11
297.6000132629033
 21
210.7946963350584
 31
0.0
  0
LINE
  5
1A46F
  8
KI1
 10
298.60002579690848
 20
210.4946963350578
 30
0.0
 11
298.60002579690848
 21
209.2947013133128
 31
0.0
  0
ARC
  5
1A470
  8
KI1
 10
298.3000257969083
 20
210.4946963350578
 30
0.0
 40
0.3
 50
0.0
 51
90.0
  0
LINE
  5
1A471
  8
KI1
 10
301.26627315372019
 20
207.85640197958421
 30
0.0
 11
300.98381793031291
 21
208.26189833385359
 31
0.0
  0
LINE
  5
1A472
  8
KI1
 10
301.10002928021271
 20
208.66863805850261
 30
0.0
 11
301.10002928021271
 21
209.2947013133128
 31
0.0
  0
LINE
  5
1A473
  8
KI1
 10
300.98381793031291
 20
208.26189833385359
 30
0.0
 11
301.10002928021271
 21
208.66863805850261
 31
0.0
  0
LINE
  5
1A475
  8
KI1
 10
300.20002175981023
 20
209.2947013133128
 30
0.0
 11
300.20002175981023
 21
208.79469129789021
 31
0.0
  0
LINE
  5
1A476
  8
KI1
 10
300.20002175981023
 20
208.79469129789021
 30
0.0
 11
300.06545756260903
 21
208.32368158316621
 31
0.0
  0
LINE
  5
1A477
  8
KI1
 10
298.80002173624462
 20
210.49469382825669
 30
0.0
 11
298.80002173624462
 21
209.2947013133128
 31
0.0
  0
ARC
  5
1A478
  8
KI1
 10
300.54620409326662
 20
208.1863154245454
 30
0.0
 40
0.4999999937576218
 50
164.0549926757796
 51
214.99198913573119
  0
LINE
  5
1A479
  8
KI1
 10
300.20002175981023
 20
209.2947013133128
 30
0.0
 11
298.60002579690848
 21
209.2947013133128
 31
0.0
  0
LINE
  5
1A47A
  8
KI1
 10
300.10002081865508
 20
208.6947013133115
 30
0.0
 11
300.10002081865508
 21
208.59469879472741
 31
0.0
  0
ARC
  5
1A47B
  8
KI1
 10
299.50002081865529
 20
208.6947013133115
 30
0.0
 40
0.6
 50
0.0
 51
90.0
  0
LINE
  5
1A47D
  8
KI1
 10
297.60001820580783
 20
210.7946963350584
 30
0.0
 11
296.10001820580783
 21
209.5360468882925
 31
0.0
  0
LINE
  5
1A47E
  8
KI1
 10
301.10002928021271
 20
209.2947013133128
 30
0.0
 11
306.8000182058081
 21
209.2947013133128
 31
0.0
  0
LINE
  5
1A47F
  8
KI1
 10
307.70001820580819
 20
209.2947013133128
 30
0.0
 11
316.30001820580821
 21
209.2947013133128
 31
0.0
  0
LINE
  5
1A480
  8
KI1
 10
333.30001820580821
 20
206.79470125439749
 30
0.0
 11
333.30001820580821
 21
208.74332386942859
 31
0.0
  0
LINE
  5
1A481
  8
KI1
 10
332.10001820580788
 20
209.5360468882925
 30
0.0
 11
332.10001820580788
 21
206.99470125439731
 31
0.0
  0
LINE
  5
1A482
  8
KI1
 10
324.60001560474541
 20
208.29469879472731
 30
0.0
 11
324.60001560474541
 21
206.99469376934229
 31
0.0
  0
LINE
  5
1A483
  8
KI1
 10
323.86346156571341
 20
207.8995872099724
 30
0.0
 11
323.58676787547671
 21
207.50430050262841
 31
0.0
  0
ARC
  5
1A484
  8
KI1
 10
322.97995059317151
 20
207.6849394529311
 30
0.0
 40
0.3000000099360252
 50
145.14099121094179
 51
235.0079956054594
  0
LINE
  5
1A485
  8
KI1
 10
327.90001820580801
 20
206.99470125439731
 30
0.0
 11
327.90001820580801
 21
209.5360468882925
 31
0.0
  0
LINE
  5
1A486
  8
KI1
 10
334.9986224841706
 20
209.47546545762839
 30
0.0
 11
338.80001820580821
 21
206.24022348070659
 31
0.0
  0
LINE
  5
1A488
  8
KI1
 10
335.30004080236642
 20
210.7946963350584
 30
0.0
 11
340.00001820580798
 21
206.79470125439749
 31
0.0
  0
LINE
  5
1A489
  8
KI1
 10
332.10001820580788
 20
206.99470125439731
 30
0.0
 11
330.00001820580928
 21
206.99470125439731
 31
0.0
  0
LINE
  5
1A48A
  8
KI1
 10
332.3000182058081
 20
205.79470125439661
 30
0.0
 11
327.75386246499647
 21
205.79470125439661
 31
0.0
  0
LINE
  5
1A48B
  8
KI1
 10
322.89041041354051
 20
207.38141698209731
 30
0.0
 11
322.80791016197651
 21
207.43915489960969
 31
0.0
  0
ARC
  5
1A48C
  8
KI1
 10
323.17713862811348
 20
207.7910462294596
 30
0.0
 40
0.4999999937576218
 50
235.0079956054594
 51
325.00799560545943
  0
ARC
  5
1A48D
  8
KI1
 10
324.74617394661919
 20
206.79470125439661
 30
0.0
 40
1.0
 50
270.0
 51
340.27915752804267
  0
ARC
  5
1A48E
  8
KI1
 10
326.25001820580798
 20
206.54470125439661
 30
0.0
 40
0.5
 50
19.72084247195729
 51
160.2791575280427
  0
LINE
  5
1A48F
  8
KI1
 10
325.6875218040812
 20
206.45726353977059
 30
0.0
 11
325.77934427707697
 21
206.7134201117095
 31
0.0
  0
ARC
  5
1A490
  8
KI1
 10
327.75386246499647
 20
206.79470125439661
 30
0.0
 40
1.0
 50
199.72084247195721
 51
270.0
  0
LINE
  5
1A491
  8
KI1
 10
326.81251460753481
 20
206.45726353977059
 30
0.0
 11
326.72069213453869
 21
206.7134201117095
 31
0.0
  0
LINE
  5
1A492
  8
KI1
 10
327.90001820580801
 20
206.99470125439731
 30
0.0
 11
330.00001820580928
 21
206.99470125439731
 31
0.0
  0
LINE
  5
1A493
  8
KI1
 10
340.00001820580798
 20
206.79470125439749
 30
0.0
 11
340.00001820580798
 21
205.79470125439661
 31
0.0
  0
LINE
  5
1A494
  8
KI1
 10
338.80001820580821
 20
206.24022348070659
 30
0.0
 11
338.80001820580821
 21
205.79470125439661
 31
0.0
  0
LINE
  5
1A496
  8
KI1
 10
340.00001820580798
 20
205.79470125439661
 30
0.0
 11
338.80001820580821
 21
205.79470125439661
 31
0.0
  0
ARC
  5
1A497
  8
KI1
 10
332.3000182058081
 20
206.79470125439749
 30
0.0
 40
1.0
 50
270.0
 51
0.0
  0
LINE
  5
1A498
  8
KI1
 10
323.80003216406573
 20
209.2947013133128
 30
0.0
 11
325.40001061470832
 21
209.2947013133128
 31
0.0
  0
LINE
  5
1A49A
  8
KI1
 10
324.20001559296139
 20
208.29469879472731
 30
0.0
 11
324.60001560474541
 21
208.29469879472731
 31
0.0
  0
ARC
  5
1A49B
  8
KI1
 10
324.20001559296139
 20
208.59469879472741
 30
0.0
 40
0.3
 50
180.0
 51
270.0
  0
LINE
  5
1A49C
  8
KI1
 10
323.80003216406573
 20
208.79469129789021
 30
0.0
 11
323.93461387352642
 21
208.32368158316621
 31
0.0
  0
LINE
  5
1A49D
  8
KI1
 10
323.80003216406573
 20
209.2947013133128
 30
0.0
 11
323.80003216406573
 21
208.79469129789021
 31
0.0
  0
LINE
  5
1A49E
  8
KI1
 10
322.73379828241337
 20
207.85640197958421
 30
0.0
 11
323.01623599356122
 21
208.26189833385359
 31
0.0
  0
LINE
  5
1A49F
  8
KI1
 10
322.90002464366222
 20
208.66863805850261
 30
0.0
 11
322.90002464366222
 21
209.2947013133128
 31
0.0
  0
LINE
  5
1A4A0
  8
KI1
 10
323.01623599356122
 20
208.26189833385359
 30
0.0
 11
322.90002464366222
 21
208.66863805850261
 31
0.0
  0
ARC
  5
1A4A1
  8
KI1
 10
323.45383231834973
 20
208.1863154245454
 30
0.0
 40
0.4999999937576218
 50
325.00799560545943
 51
15.9449920654379
  0
LINE
  5
1A4A2
  8
KI1
 10
323.90001559296257
 20
208.6947013133115
 30
0.0
 11
323.90001559296257
 21
208.59469879472741
 31
0.0
  0
ARC
  5
1A4A3
  8
KI1
 10
324.50001559296157
 20
208.6947013133115
 30
0.0
 40
0.6
 50
90.0
 51
180.0
  0
LINE
  5
1A4A4
  8
KI1
 10
326.40001820580812
 20
210.7946963350584
 30
0.0
 11
327.90001820580801
 21
209.5360468882925
 31
0.0
  0
LINE
  5
1A4A6
  8
KI1
 10
325.40001061470832
 20
210.4946963350578
 30
0.0
 11
325.40001061470832
 21
209.2947013133128
 31
0.0
  0
LINE
  5
1A4A7
  8
KI1
 10
325.7000106147085
 20
210.7946963350584
 30
0.0
 11
326.4000231487135
 21
210.7946963350584
 31
0.0
  0
ARC
  5
1A4A8
  8
KI1
 10
325.7000106147085
 20
210.4946963350578
 30
0.0
 40
0.3
 50
90.0
 51
180.0
  0
LINE
  5
1A4A9
  8
KI1
 10
325.20001467537219
 20
209.2947013133128
 30
0.0
 11
325.20001467537219
 21
210.49469382825669
 31
0.0
  0
ARC
  5
1A4AC
  8
KI1
 10
333.80001820580821
 20
208.74332386942859
 30
0.0
 40
0.5
 50
129.9999999999863
 51
180.0
  0
LINE
  5
1A4AD
  8
KI1
 10
333.89737379921741
 20
209.4777185566179
 30
0.0
 11
333.47862440096571
 21
209.1263460909874
 31
0.0
  0
ARC
  5
1A4AE
  8
KI1
 10
334.21876760406133
 20
209.09469633505819
 30
0.0
 40
0.5
 50
90.0
 51
129.9999999999863
  0
LINE
  5
1A4AF
  8
KI1
 10
334.6745624969804
 20
209.59469633505771
 30
0.0
 11
334.21876760406133
 21
209.59469633505771
 31
0.0
  0
ARC
  5
1A4B0
  8
KI1
 10
334.6745624969804
 20
209.09469633505819
 30
0.0
 40
0.5
 50
49.599994483977987
 51
90.0
  0
LINE
  5
1A4B1
  8
KI1
 10
333.60001326290342
 20
210.7946963350584
 30
0.0
 11
335.30004080236642
 21
210.7946963350584
 31
0.0
  0
LINE
  5
1A4B3
  8
KI1
 10
333.60001820580788
 20
210.7946963350584
 30
0.0
 11
332.10001820580788
 21
209.5360468882925
 31
0.0
  0
LINE
  5
1A60A
  8
KI1
 10
313.5000005500242
 20
565.24764916738218
 30
0.0
 11
346.5000005500242
 21
565.24764916738218
 31
0.0
  0
LINE
  5
1A60B
  8
KI1
 10
277.5000005500242
 20
565.24764916738218
 30
0.0
 11
310.5000005500242
 21
565.24764916738218
 31
0.0
  0
LINE
  5
1A60C
  8
KI1
 10
241.5000005500242
 20
565.24764916738218
 30
0.0
 11
274.5000005500242
 21
565.24764916738218
 31
0.0
  0
LINE
  5
1A614
  8
KI1
 10
322.04999737425919
 20
575.89764838291399
 30
0.0
 11
315.89999737425921
 21
575.89764838291399
 31
0.0
  0
LINE
  5
1A615
  8
KI1
 10
323.19999737425923
 20
574.74764838291401
 30
0.0
 11
306.81999737425917
 21
574.74764838291401
 31
0.0
  0
LINE
  5
1A616
  8
KI1
 10
315.74999737425912
 20
600.54764838291408
 30
0.0
 11
324.49999737425912
 21
600.54764838291408
 31
0.0
  0
LINE
  5
1A617
  8
KI1
 10
316.39999737425921
 20
599.3976483829141
 30
0.0
 11
343.5999973742592
 21
599.3976483829141
 31
0.0
  0
LINE
  5
1A618
  8
KI1
 10
314.74999737425912
 20
575.89764838291399
 30
0.0
 11
308.01999737425911
 21
575.89764838291399
 31
0.0
  0
ARC
  5
1A619
  8
KI1
 10
307.4199973742592
 20
577.1476483829141
 30
0.0
 40
0.5999999999999996
 50
0.0
 51
180.0
  0
LINE
  5
1A61A
  8
KI1
 10
306.81999737425917
 20
577.1476483829141
 30
0.0
 11
306.81999737425917
 21
574.74764838291401
 31
0.0
  0
LINE
  5
1A61B
  8
KI1
 10
308.01999737425911
 20
577.1476483829141
 30
0.0
 11
308.01999737425911
 21
575.89764838291399
 31
0.0
  0
ARC
  5
1A61C
  8
KI1
 10
315.24999737425912
 20
601.74764838291401
 30
0.0
 40
0.5
 50
0.0
 51
180.0
  0
LINE
  5
1A61D
  8
KI1
 10
314.74999737425912
 20
575.89764838291399
 30
0.0
 11
314.74999737425912
 21
601.74764838291401
 31
0.0
  0
LINE
  5
1A61E
  8
KI1
 10
315.74999737425912
 20
601.74764838291401
 30
0.0
 11
315.74999737425912
 21
600.54764838291408
 31
0.0
  0
LINE
  5
1A61F
  8
KI1
 10
315.89999737425921
 20
575.89764838291399
 30
0.0
 11
315.89999737425921
 21
598.8976483829141
 31
0.0
  0
ARC
  5
1A620
  8
KI1
 10
316.39999737425921
 20
598.8976483829141
 30
0.0
 40
0.4999999999999999
 50
90.0
 51
180.0
  0
LINE
  5
1A621
  8
KI1
 10
349.54999737425919
 20
574.74764838291401
 30
0.0
 11
336.79999737425919
 21
574.74764838291401
 31
0.0
  0
LINE
  5
1A622
  8
KI1
 10
350.3499973742592
 20
575.74764838291389
 30
0.0
 11
345.24999737425912
 21
575.74764838291389
 31
0.0
  0
LINE
  5
1A623
  8
KI1
 10
334.54999737425919
 20
575.74764838291389
 30
0.0
 11
336.49999737425912
 21
575.74764838291389
 31
0.0
  0
LINE
  5
1A624
  8
KI1
 10
334.5512615136081
 20
583.19764838291394
 30
0.0
 11
336.49999737425912
 21
583.19764838291394
 31
0.0
  0
ARC
  5
1A625
  8
KI1
 10
334.75126151360797
 20
582.54764838291385
 30
0.0
 40
0.5
 50
180.0
 51
270.0
  0
LINE
  5
1A626
  8
KI1
 10
334.54999737425919
 20
578.44764838291383
 30
0.0
 11
334.74999737425912
 21
578.44764838291383
 31
0.0
  0
ARC
  5
1A627
  8
KI1
 10
334.99999737425912
 20
601.74764838291401
 30
0.0
 40
0.5
 50
0.0
 51
180.0
  0
LINE
  5
1A628
  8
KI1
 10
325.25126151360797
 20
582.04764838291385
 30
0.0
 11
323.69999737425923
 21
582.04764838291385
 31
0.0
  0
LINE
  5
1A629
  8
KI1
 10
325.44999737425923
 20
575.74764838291389
 30
0.0
 11
323.49999737425912
 21
575.74764838291389
 31
0.0
  0
LINE
  5
1A62A
  8
KI1
 10
325.45126151360807
 20
583.19764838291394
 30
0.0
 11
323.49999737425912
 21
583.19764838291394
 31
0.0
  0
LINE
  5
1A62B
  8
KI1
 10
324.5999973742592
 20
577.44764838291394
 30
0.0
 11
325.24999737425912
 21
578.44764838291383
 31
0.0
  0
ARC
  5
1A62C
  8
KI1
 10
324.99999737425912
 20
601.74764838291401
 30
0.0
 40
0.5
 50
0.0
 51
180.0
  0
LINE
  5
1A62D
  8
KI1
 10
324.49999737425912
 20
601.74764838291401
 30
0.0
 11
324.49999737425912
 21
600.54764838291408
 31
0.0
  0
ARC
  5
1A62E
  8
KI1
 10
322.92499737425919
 20
583.92264838291408
 30
0.0
 40
0.5749999999999959
 50
0.0
 51
180.0
  0
ARC
  5
1A62F
  8
KI1
 10
323.19999737425923
 20
575.04764838291408
 30
0.0
 40
0.2999999999999999
 50
270.0
 51
0.0
  0
LINE
  5
1A630
  8
KI1
 10
322.34999737425909
 20
576.19764838291405
 30
0.0
 11
322.34999737425909
 21
583.92264838291408
 31
0.0
  0
ARC
  5
1A631
  8
KI1
 10
322.04999737425919
 20
576.19764838291405
 30
0.0
 40
0.2999999999999999
 50
270.0
 51
0.0
  0
LINE
  5
1A632
  8
KI1
 10
323.69999737425923
 20
582.04764838291385
 30
0.0
 11
323.49999737425912
 21
580.54764838291385
 31
0.0
  0
LINE
  5
1A633
  8
KI1
 10
323.49999737425912
 20
577.04764838291385
 30
0.0
 11
323.49999737425912
 21
580.54764838291385
 31
0.0
  0
LINE
  5
1A634
  8
KI1
 10
324.5999973742592
 20
577.04764838291385
 30
0.0
 11
323.49999737425912
 21
577.04764838291385
 31
0.0
  0
LINE
  5
1A635
  8
KI1
 10
324.5999973742592
 20
577.04764838291385
 30
0.0
 11
324.5999973742592
 21
577.44764838291394
 31
0.0
  0
LINE
  5
1A636
  8
KI1
 10
323.49999737425912
 20
583.92264838291408
 30
0.0
 11
323.49999737425912
 21
583.19764838291394
 31
0.0
  0
LINE
  5
1A637
  8
KI1
 10
323.49999737425912
 20
575.04764838291408
 30
0.0
 11
323.49999737425912
 21
575.74764838291389
 31
0.0
  0
LINE
  5
1A638
  8
KI1
 10
325.49999737425912
 20
601.74764838291401
 30
0.0
 11
325.49999737425912
 21
600.54764838291408
 31
0.0
  0
ARC
  5
1A639
  8
KI1
 10
325.44999737425923
 20
576.04764838291396
 30
0.0
 40
0.2999999999999999
 50
270.0
 51
0.0
  0
ARC
  5
1A63A
  8
KI1
 10
325.45126151360807
 20
582.89764838291376
 30
0.0
 40
0.2999999999999999
 50
0.0
 51
90.0
  0
LINE
  5
1A63B
  8
KI1
 10
325.75126151360797
 20
582.89764838291376
 30
0.0
 11
325.75126151360797
 21
582.54764838291385
 31
0.0
  0
LINE
  5
1A63C
  8
KI1
 10
325.74999737425912
 20
578.14764838291387
 30
0.0
 11
325.74999737425912
 21
576.04764838291396
 31
0.0
  0
ARC
  5
1A63D
  8
KI1
 10
325.44999737425923
 20
578.14764838291387
 30
0.0
 40
0.2999999999999999
 50
0.0
 51
90.0
  0
LINE
  5
1A63E
  8
KI1
 10
325.44999737425923
 20
578.44764838291383
 30
0.0
 11
325.24999737425912
 21
578.44764838291383
 31
0.0
  0
ARC
  5
1A63F
  8
KI1
 10
325.25126151360797
 20
582.54764838291385
 30
0.0
 40
0.5
 50
270.0
 51
0.0
  0
LINE
  5
1A640
  8
KI1
 10
334.49999737425912
 20
600.54764838291408
 30
0.0
 11
325.49999737425912
 21
600.54764838291408
 31
0.0
  0
LINE
  5
1A641
  8
KI1
 10
334.49999737425912
 20
601.74764838291401
 30
0.0
 11
334.49999737425912
 21
600.54764838291408
 31
0.0
  0
ARC
  5
1A642
  8
KI1
 10
334.54999737425919
 20
576.04764838291396
 30
0.0
 40
0.2999999999999999
 50
180.0
 51
270.0
  0
ARC
  5
1A643
  8
KI1
 10
334.5512615136081
 20
582.89764838291376
 30
0.0
 40
0.2999999999999999
 50
90.0
 51
180.0
  0
LINE
  5
1A644
  8
KI1
 10
334.25126151360797
 20
582.89764838291376
 30
0.0
 11
334.25126151360797
 21
582.54764838291385
 31
0.0
  0
LINE
  5
1A645
  8
KI1
 10
334.24999737425912
 20
578.14764838291387
 30
0.0
 11
334.24999737425912
 21
576.04764838291396
 31
0.0
  0
ARC
  5
1A646
  8
KI1
 10
334.54999737425919
 20
578.14764838291387
 30
0.0
 40
0.2999999999999999
 50
90.0
 51
180.0
  0
LINE
  5
1A647
  8
KI1
 10
337.94999737425923
 20
575.89764838291399
 30
0.0
 11
344.0999973742592
 21
575.89764838291399
 31
0.0
  0
LINE
  5
1A648
  8
KI1
 10
344.24999737425912
 20
600.54764838291408
 30
0.0
 11
335.49999737425912
 21
600.54764838291408
 31
0.0
  0
ARC
  5
1A649
  8
KI1
 10
337.94999737425923
 20
576.19764838291405
 30
0.0
 40
0.2999999999999999
 50
180.0
 51
270.0
  0
LINE
  5
1A64A
  8
KI1
 10
335.49999737425912
 20
601.74764838291401
 30
0.0
 11
335.49999737425912
 21
600.54764838291408
 31
0.0
  0
LINE
  5
1A64B
  8
KI1
 10
334.75126151360797
 20
582.04764838291385
 30
0.0
 11
336.29999737425919
 21
582.04764838291385
 31
0.0
  0
LINE
  5
1A64C
  8
KI1
 10
335.39999737425921
 20
577.04764838291385
 30
0.0
 11
336.49999737425912
 21
577.04764838291385
 31
0.0
  0
LINE
  5
1A64D
  8
KI1
 10
335.39999737425921
 20
577.04764838291385
 30
0.0
 11
335.39999737425921
 21
577.44764838291394
 31
0.0
  0
LINE
  5
1A64E
  8
KI1
 10
335.39999737425921
 20
577.44764838291394
 30
0.0
 11
334.74999737425912
 21
578.44764838291383
 31
0.0
  0
LINE
  5
1A64F
  8
KI1
 10
336.29999737425919
 20
582.04764838291385
 30
0.0
 11
336.49999737425912
 21
580.54764838291385
 31
0.0
  0
LINE
  5
1A650
  8
KI1
 10
336.49999737425912
 20
577.04764838291385
 30
0.0
 11
336.49999737425912
 21
580.54764838291385
 31
0.0
  0
LINE
  5
1A651
  8
KI1
 10
337.64999737425921
 20
576.19764838291405
 30
0.0
 11
337.64999737425921
 21
583.92264838291408
 31
0.0
  0
LINE
  5
1A652
  8
KI1
 10
336.49999737425912
 20
583.92264838291408
 30
0.0
 11
336.49999737425912
 21
583.19764838291394
 31
0.0
  0
ARC
  5
1A653
  8
KI1
 10
337.07499737425923
 20
583.92264838291408
 30
0.0
 40
0.5749999999999959
 50
0.0
 51
180.0
  0
LINE
  5
1A654
  8
KI1
 10
336.49999737425912
 20
575.04764838291408
 30
0.0
 11
336.49999737425912
 21
575.74764838291389
 31
0.0
  0
ARC
  5
1A655
  8
KI1
 10
336.79999737425919
 20
575.04764838291408
 30
0.0
 40
0.2999999999999999
 50
180.0
 51
270.0
  0
ARC
  5
1A656
  8
KI1
 10
344.74999737425912
 20
601.74764838291401
 30
0.0
 40
0.5
 50
0.0
 51
180.0
  0
LINE
  5
1A657
  8
KI1
 10
344.24999737425912
 20
601.74764838291401
 30
0.0
 11
344.24999737425912
 21
600.54764838291408
 31
0.0
  0
LINE
  5
1A658
  8
KI1
 10
344.0999973742592
 20
575.89764838291399
 30
0.0
 11
344.0999973742592
 21
598.8976483829141
 31
0.0
  0
ARC
  5
1A659
  8
KI1
 10
343.5999973742592
 20
598.8976483829141
 30
0.0
 40
0.4999999999999999
 50
0.0
 51
90.0
  0
LINE
  5
1A65A
  8
KI1
 10
345.24999737425912
 20
575.74764838291389
 30
0.0
 11
345.24999737425912
 21
601.74764838291401
 31
0.0
  0
ARC
  5
1A65B
  8
KI1
 10
350.3499973742592
 20
575.24764838291401
 30
0.0
 40
0.5
 50
0.0
 51
90.0
  0
ARC
  5
1A65C
  8
KI1
 10
349.54999737425919
 20
574.44764838291405
 30
0.0
 40
0.2999999999999999
 50
0.0
 51
90.0
  0
LINE
  5
1A65D
  8
KI1
 10
349.8499973742592
 20
574.44764838291405
 30
0.0
 11
349.8499973742592
 21
562.24764838291401
 31
0.0
  0
LINE
  5
1A65E
  8
KI1
 10
350.84999737425909
 20
575.24764838291401
 30
0.0
 11
350.84999737425909
 21
562.24764838291401
 31
0.0
  0
ARC
  5
1A65F
  8
KI1
 10
350.3499973742592
 20
562.24764838291401
 30
0.0
 40
0.5
 50
180.0
 51
0.0
  0
LINE
  5
1A660
  8
KI1
 10
308.24999737425912
 20
600.54764838291408
 30
0.0
 11
299.49999737425912
 21
600.54764838291408
 31
0.0
  0
ARC
  5
1A661
  8
KI1
 10
306.09999737425898
 20
575.24764838291401
 30
0.0
 40
0.5
 50
270.0
 51
0.0
  0
LINE
  5
1A662
  8
KI1
 10
308.09999737425898
 20
578.24764838291401
 30
0.0
 11
306.59999737425898
 21
578.24764838291401
 31
0.0
  0
LINE
  5
1A663
  8
KI1
 10
305.94999737425911
 20
579.39764838291399
 30
0.0
 11
308.09999737425898
 21
579.39764838291399
 31
0.0
  0
LINE
  5
1A664
  8
KI1
 10
279.74999737425912
 20
600.54764838291408
 30
0.0
 11
288.49999737425912
 21
600.54764838291408
 31
0.0
  0
LINE
  5
1A665
  8
KI1
 10
282.04999737425908
 20
579.39764838291399
 30
0.0
 11
279.8999973742591
 21
579.39764838291399
 31
0.0
  0
LINE
  5
1A666
  8
KI1
 10
279.8999973742591
 20
578.24764838291401
 30
0.0
 11
281.3999973742591
 21
578.24764838291401
 31
0.0
  0
LINE
  5
1A667
  8
KI1
 10
280.3999973742591
 20
599.3976483829141
 30
0.0
 11
307.59999737425898
 21
599.3976483829141
 31
0.0
  0
ARC
  5
1A668
  8
KI1
 10
279.24999737425912
 20
601.74764838291401
 30
0.0
 40
0.5
 50
0.0
 51
180.0
  0
ARC
  5
1A669
  8
KI1
 10
279.324997374259
 20
576.47764838291403
 30
0.0
 40
0.575000000000003
 50
180.0
 51
0.0
  0
LINE
  5
1A66A
  8
KI1
 10
278.74999737425912
 20
576.47764838291403
 30
0.0
 11
278.74999737425912
 21
601.74764838291401
 31
0.0
  0
LINE
  5
1A66B
  8
KI1
 10
279.74999737425912
 20
601.74764838291401
 30
0.0
 11
279.74999737425912
 21
600.54764838291408
 31
0.0
  0
LINE
  5
1A66C
  8
KI1
 10
279.8999973742591
 20
579.39764838291399
 30
0.0
 11
279.8999973742591
 21
598.8976483829141
 31
0.0
  0
LINE
  5
1A66D
  8
KI1
 10
279.8999973742591
 20
576.47764838291403
 30
0.0
 11
279.8999973742591
 21
578.24764838291401
 31
0.0
  0
ARC
  5
1A66E
  8
KI1
 10
280.3999973742591
 20
598.8976483829141
 30
0.0
 40
0.4999999999999999
 50
90.0
 51
180.0
  0
LINE
  5
1A66F
  8
KI1
 10
289.49999737425912
 20
600.54764838291408
 30
0.0
 11
298.49999737425901
 21
600.54764838291408
 31
0.0
  0
ARC
  5
1A670
  8
KI1
 10
286.92499737425908
 20
583.92264838291408
 30
0.0
 40
0.5749999999999959
 50
0.0
 51
180.0
  0
LINE
  5
1A671
  8
KI1
 10
287.19999737425923
 20
574.74764838291401
 30
0.0
 11
281.8999973742591
 21
574.74764838291401
 31
0.0
  0
LINE
  5
1A672
  8
KI1
 10
286.04999737425908
 20
575.89764838291399
 30
0.0
 11
282.54999737425908
 21
575.89764838291399
 31
0.0
  0
ARC
  5
1A673
  8
KI1
 10
282.04999737425908
 20
578.8976483829141
 30
0.0
 40
0.5
 50
0.0
 51
90.0
  0
ARC
  5
1A674
  8
KI1
 10
281.8999973742591
 20
575.24764838291401
 30
0.0
 40
0.5
 50
180.0
 51
270.0
  0
LINE
  5
1A675
  8
KI1
 10
281.3999973742591
 20
575.24764838291401
 30
0.0
 11
281.3999973742591
 21
578.24764838291401
 31
0.0
  0
LINE
  5
1A676
  8
KI1
 10
282.54999737425908
 20
578.8976483829141
 30
0.0
 11
282.54999737425908
 21
575.89764838291399
 31
0.0
  0
LINE
  5
1A677
  8
KI1
 10
286.34999737425909
 20
576.19764838291405
 30
0.0
 11
286.34999737425909
 21
583.92264838291408
 31
0.0
  0
ARC
  5
1A678
  8
KI1
 10
286.04999737425908
 20
576.19764838291405
 30
0.0
 40
0.2999999999999999
 50
270.0
 51
0.0
  0
LINE
  5
1A679
  8
KI1
 10
289.25126151360797
 20
582.04764838291385
 30
0.0
 11
287.69999737425911
 21
582.04764838291385
 31
0.0
  0
LINE
  5
1A67A
  8
KI1
 10
289.44999737425923
 20
575.74764838291389
 30
0.0
 11
287.49999737425912
 21
575.74764838291389
 31
0.0
  0
LINE
  5
1A67B
  8
KI1
 10
289.45126151360807
 20
583.19764838291383
 30
0.0
 11
287.49999737425912
 21
583.19764838291383
 31
0.0
  0
LINE
  5
1A67C
  8
KI1
 10
288.59999737425898
 20
577.44764838291383
 30
0.0
 11
289.24999737425912
 21
578.44764838291383
 31
0.0
  0
ARC
  5
1A67D
  8
KI1
 10
288.99999737425912
 20
601.74764838291401
 30
0.0
 40
0.5
 50
0.0
 51
180.0
  0
LINE
  5
1A67E
  8
KI1
 10
287.49999737425912
 20
580.54764838291385
 30
0.0
 11
287.69999737425911
 21
582.04764838291385
 31
0.0
  0
LINE
  5
1A67F
  8
KI1
 10
287.49999737425912
 20
577.04764838291385
 30
0.0
 11
287.49999737425912
 21
580.54764838291385
 31
0.0
  0
LINE
  5
1A680
  8
KI1
 10
288.59999737425898
 20
577.04764838291385
 30
0.0
 11
287.49999737425912
 21
577.04764838291385
 31
0.0
  0
LINE
  5
1A681
  8
KI1
 10
288.59999737425898
 20
577.04764838291385
 30
0.0
 11
288.59999737425898
 21
577.44764838291383
 31
0.0
  0
LINE
  5
1A682
  8
KI1
 10
287.49999737425912
 20
583.92264838291408
 30
0.0
 11
287.49999737425912
 21
583.19764838291383
 31
0.0
  0
LINE
  5
1A683
  8
KI1
 10
288.49999737425912
 20
601.74764838291401
 30
0.0
 11
288.49999737425912
 21
600.54764838291408
 31
0.0
  0
ARC
  5
1A684
  8
KI1
 10
287.19999737425923
 20
575.04764838291408
 30
0.0
 40
0.2999999999999999
 50
270.0
 51
0.0
  0
LINE
  5
1A685
  8
KI1
 10
287.49999737425912
 20
575.04764838291408
 30
0.0
 11
287.49999737425912
 21
575.74764838291389
 31
0.0
  0
ARC
  5
1A686
  8
KI1
 10
289.44999737425923
 20
576.04764838291396
 30
0.0
 40
0.2999999999999999
 50
270.0
 51
0.0
  0
ARC
  5
1A687
  8
KI1
 10
289.45126151360807
 20
582.89764838291376
 30
0.0
 40
0.2999999999999999
 50
0.0
 51
90.0
  0
LINE
  5
1A688
  8
KI1
 10
289.75126151360797
 20
582.89764838291376
 30
0.0
 11
289.75126151360797
 21
582.54764838291385
 31
0.0
  0
LINE
  5
1A689
  8
KI1
 10
289.74999737425912
 20
578.14764838291387
 30
0.0
 11
289.74999737425912
 21
576.04764838291396
 31
0.0
  0
ARC
  5
1A68A
  8
KI1
 10
289.44999737425923
 20
578.14764838291387
 30
0.0
 40
0.2999999999999999
 50
0.0
 51
90.0
  0
LINE
  5
1A68B
  8
KI1
 10
289.44999737425923
 20
578.44764838291383
 30
0.0
 11
289.24999737425912
 21
578.44764838291383
 31
0.0
  0
ARC
  5
1A68C
  8
KI1
 10
289.25126151360797
 20
582.54764838291385
 30
0.0
 40
0.5
 50
270.0
 51
0.0
  0
LINE
  5
1A68D
  8
KI1
 10
289.49999737425912
 20
601.74764838291401
 30
0.0
 11
289.49999737425912
 21
600.54764838291408
 31
0.0
  0
LINE
  5
1A68E
  8
KI1
 10
298.75126151360797
 20
582.04764838291385
 30
0.0
 11
300.29999737425908
 21
582.04764838291385
 31
0.0
  0
LINE
  5
1A68F
  8
KI1
 10
298.54999737425908
 20
575.74764838291389
 30
0.0
 11
300.49999737425912
 21
575.74764838291389
 31
0.0
  0
LINE
  5
1A690
  8
KI1
 10
299.3999973742591
 20
577.04764838291385
 30
0.0
 11
300.49999737425912
 21
577.04764838291385
 31
0.0
  0
LINE
  5
1A691
  8
KI1
 10
298.55126151360798
 20
583.19764838291383
 30
0.0
 11
300.49999737425912
 21
583.19764838291383
 31
0.0
  0
ARC
  5
1A692
  8
KI1
 10
298.75126151360797
 20
582.54764838291385
 30
0.0
 40
0.5
 50
180.0
 51
270.0
  0
LINE
  5
1A693
  8
KI1
 10
298.54999737425908
 20
578.44764838291383
 30
0.0
 11
298.74999737425912
 21
578.44764838291383
 31
0.0
  0
ARC
  5
1A694
  8
KI1
 10
298.99999737425912
 20
601.74764838291401
 30
0.0
 40
0.5
 50
0.0
 51
180.0
  0
ARC
  5
1A695
  8
KI1
 10
298.54999737425908
 20
576.04764838291396
 30
0.0
 40
0.2999999999999999
 50
180.0
 51
270.0
  0
ARC
  5
1A696
  8
KI1
 10
298.55126151360798
 20
582.89764838291376
 30
0.0
 40
0.2999999999999999
 50
90.0
 51
180.0
  0
LINE
  5
1A697
  8
KI1
 10
298.25126151360797
 20
582.89764838291376
 30
0.0
 11
298.25126151360797
 21
582.54764838291385
 31
0.0
  0
LINE
  5
1A698
  8
KI1
 10
298.24999737425912
 20
578.14764838291387
 30
0.0
 11
298.24999737425912
 21
576.04764838291396
 31
0.0
  0
ARC
  5
1A699
  8
KI1
 10
298.54999737425908
 20
578.14764838291387
 30
0.0
 40
0.2999999999999999
 50
90.0
 51
180.0
  0
LINE
  5
1A69A
  8
KI1
 10
298.49999737425912
 20
601.74764838291401
 30
0.0
 11
298.49999737425912
 21
600.54764838291408
 31
0.0
  0
LINE
  5
1A69B
  8
KI1
 10
299.3999973742591
 20
577.04764838291385
 30
0.0
 11
299.3999973742591
 21
577.44764838291383
 31
0.0
  0
LINE
  5
1A69C
  8
KI1
 10
299.3999973742591
 20
577.44764838291383
 30
0.0
 11
298.74999737425912
 21
578.44764838291383
 31
0.0
  0
LINE
  5
1A69D
  8
KI1
 10
299.49999737425912
 20
601.74764838291401
 30
0.0
 11
299.49999737425912
 21
600.54764838291408
 31
0.0
  0
LINE
  5
1A69E
  8
KI1
 10
300.79999737425908
 20
574.74764838291401
 30
0.0
 11
306.09999737425898
 21
574.74764838291401
 31
0.0
  0
LINE
  5
1A69F
  8
KI1
 10
301.94999737425911
 20
575.89764838291399
 30
0.0
 11
305.449997374259
 21
575.89764838291399
 31
0.0
  0
ARC
  5
1A6A0
  8
KI1
 10
301.94999737425911
 20
576.19764838291405
 30
0.0
 40
0.2999999999999999
 50
180.0
 51
270.0
  0
LINE
  5
1A6A1
  8
KI1
 10
300.29999737425908
 20
582.04764838291385
 30
0.0
 11
300.49999737425912
 21
580.54764838291385
 31
0.0
  0
LINE
  5
1A6A2
  8
KI1
 10
300.49999737425912
 20
577.04764838291385
 30
0.0
 11
300.49999737425912
 21
580.54764838291385
 31
0.0
  0
LINE
  5
1A6A3
  8
KI1
 10
301.6499973742591
 20
576.19764838291405
 30
0.0
 11
301.6499973742591
 21
583.92264838291408
 31
0.0
  0
LINE
  5
1A6A4
  8
KI1
 10
300.49999737425912
 20
583.92264838291408
 30
0.0
 11
300.49999737425912
 21
583.19764838291383
 31
0.0
  0
ARC
  5
1A6A5
  8
KI1
 10
301.07499737425911
 20
583.92264838291408
 30
0.0
 40
0.5749999999999959
 50
0.0
 51
180.0
  0
LINE
  5
1A6A6
  8
KI1
 10
300.49999737425912
 20
575.04764838291408
 30
0.0
 11
300.49999737425912
 21
575.74764838291389
 31
0.0
  0
ARC
  5
1A6A7
  8
KI1
 10
300.79999737425908
 20
575.04764838291408
 30
0.0
 40
0.2999999999999999
 50
180.0
 51
270.0
  0
LINE
  5
1A6A8
  8
KI1
 10
306.59999737425898
 20
575.24764838291401
 30
0.0
 11
306.59999737425898
 21
578.24764838291401
 31
0.0
  0
ARC
  5
1A6A9
  8
KI1
 10
308.74999737425912
 20
601.74764838291401
 30
0.0
 40
0.5
 50
0.0
 51
180.0
  0
ARC
  5
1A6AA
  8
KI1
 10
308.67499737425908
 20
576.47764838291403
 30
0.0
 40
0.575000000000003
 50
180.0
 51
0.0
  0
LINE
  5
1A6AB
  8
KI1
 10
308.24999737425912
 20
601.74764838291401
 30
0.0
 11
308.24999737425912
 21
600.54764838291408
 31
0.0
  0
LINE
  5
1A6AC
  8
KI1
 10
308.09999737425898
 20
579.39764838291399
 30
0.0
 11
308.09999737425898
 21
598.8976483829141
 31
0.0
  0
LINE
  5
1A6AD
  8
KI1
 10
308.09999737425898
 20
576.47764838291403
 30
0.0
 11
308.09999737425898
 21
578.24764838291401
 31
0.0
  0
ARC
  5
1A6AE
  8
KI1
 10
307.59999737425898
 20
598.8976483829141
 30
0.0
 40
0.4999999999999999
 50
0.0
 51
90.0
  0
LINE
  5
1A6AF
  8
KI1
 10
309.24999737425912
 20
576.47764838291403
 30
0.0
 11
309.24999737425912
 21
601.74764838291401
 31
0.0
  0
ARC
  5
1A6B0
  8
KI1
 10
305.94999737425923
 20
578.8976483829141
 30
0.0
 40
0.5
 50
90.0
 51
180.0
  0
LINE
  5
1A6B1
  8
KI1
 10
305.44999737425923
 20
578.8976483829141
 30
0.0
 11
305.44999737425923
 21
575.89764838291399
 31
0.0
  0
LINE
  5
1A6B2
  8
KI1
 10
265.949997374259
 20
575.89764838291399
 30
0.0
 11
272.09999737425898
 21
575.89764838291399
 31
0.0
  0
LINE
  5
1A6B3
  8
KI1
 10
264.79999737425908
 20
574.74764838291401
 30
0.0
 11
281.17999737425907
 21
574.74764838291401
 31
0.0
  0
LINE
  5
1A6B4
  8
KI1
 10
272.24999737425912
 20
600.54764838291408
 30
0.0
 11
263.49999737425912
 21
600.54764838291408
 31
0.0
  0
LINE
  5
1A6B5
  8
KI1
 10
271.59999737425898
 20
599.3976483829141
 30
0.0
 11
244.3999973742591
 21
599.3976483829141
 31
0.0
  0
LINE
  5
1A6B6
  8
KI1
 10
273.24999737425912
 20
575.89764838291399
 30
0.0
 11
279.9799973742592
 21
575.89764838291399
 31
0.0
  0
ARC
  5
1A6B7
  8
KI1
 10
280.57999737425899
 20
577.1476483829141
 30
0.0
 40
0.5999999999999996
 50
0.0
 51
180.0
  0
LINE
  5
1A6B8
  8
KI1
 10
281.17999737425907
 20
577.1476483829141
 30
0.0
 11
281.17999737425907
 21
574.74764838291401
 31
0.0
  0
LINE
  5
1A6B9
  8
KI1
 10
279.9799973742592
 20
577.1476483829141
 30
0.0
 11
279.9799973742592
 21
575.89764838291399
 31
0.0
  0
ARC
  5
1A6BA
  8
KI1
 10
272.74999737425912
 20
601.74764838291401
 30
0.0
 40
0.5
 50
0.0
 51
180.0
  0
LINE
  5
1A6BB
  8
KI1
 10
273.24999737425912
 20
575.89764838291399
 30
0.0
 11
273.24999737425912
 21
601.74764838291401
 31
0.0
  0
LINE
  5
1A6BC
  8
KI1
 10
272.24999737425912
 20
601.74764838291401
 30
0.0
 11
272.24999737425912
 21
600.54764838291408
 31
0.0
  0
LINE
  5
1A6BD
  8
KI1
 10
272.09999737425898
 20
575.89764838291399
 30
0.0
 11
272.09999737425898
 21
598.8976483829141
 31
0.0
  0
ARC
  5
1A6BE
  8
KI1
 10
271.59999737425898
 20
598.8976483829141
 30
0.0
 40
0.4999999999999999
 50
0.0
 51
90.0
  0
LINE
  5
1A6BF
  8
KI1
 10
238.449997374259
 20
574.74764838291401
 30
0.0
 11
251.199997374259
 21
574.74764838291401
 31
0.0
  0
LINE
  5
1A6C0
  8
KI1
 10
237.6499973742591
 20
575.74764838291389
 30
0.0
 11
242.7499973742591
 21
575.74764838291389
 31
0.0
  0
LINE
  5
1A6C1
  8
KI1
 10
253.449997374259
 20
575.74764838291389
 30
0.0
 11
251.4999973742591
 21
575.74764838291389
 31
0.0
  0
LINE
  5
1A6C2
  8
KI1
 10
253.44873323491009
 20
583.19764838291394
 30
0.0
 11
251.4999973742591
 21
583.19764838291394
 31
0.0
  0
ARC
  5
1A6C3
  8
KI1
 10
253.24873323491019
 20
582.54764838291385
 30
0.0
 40
0.5
 50
270.0
 51
0.0
  0
LINE
  5
1A6C4
  8
KI1
 10
253.449997374259
 20
578.44764838291383
 30
0.0
 11
253.2499973742591
 21
578.44764838291383
 31
0.0
  0
ARC
  5
1A6C5
  8
KI1
 10
252.9999973742591
 20
601.74764838291401
 30
0.0
 40
0.5
 50
0.0
 51
180.0
  0
LINE
  5
1A6C6
  8
KI1
 10
262.74873323491022
 20
582.04764838291385
 30
0.0
 11
264.29999737425908
 21
582.04764838291385
 31
0.0
  0
LINE
  5
1A6C7
  8
KI1
 10
262.54999737425908
 20
575.74764838291389
 30
0.0
 11
264.49999737425912
 21
575.74764838291389
 31
0.0
  0
LINE
  5
1A6C8
  8
KI1
 10
262.54873323491017
 20
583.19764838291394
 30
0.0
 11
264.49999737425912
 21
583.19764838291394
 31
0.0
  0
LINE
  5
1A6C9
  8
KI1
 10
263.3999973742591
 20
577.44764838291394
 30
0.0
 11
262.74999737425912
 21
578.44764838291383
 31
0.0
  0
ARC
  5
1A6CA
  8
KI1
 10
262.99999737425912
 20
601.74764838291401
 30
0.0
 40
0.5
 50
0.0
 51
180.0
  0
LINE
  5
1A6CB
  8
KI1
 10
263.49999737425912
 20
601.74764838291401
 30
0.0
 11
263.49999737425912
 21
600.54764838291408
 31
0.0
  0
ARC
  5
1A6CC
  8
KI1
 10
265.07499737425911
 20
583.92264838291408
 30
0.0
 40
0.5749999999999959
 50
0.0
 51
180.0
  0
ARC
  5
1A6CD
  8
KI1
 10
264.79999737425908
 20
575.04764838291408
 30
0.0
 40
0.2999999999999999
 50
180.0
 51
270.0
  0
LINE
  5
1A6CE
  8
KI1
 10
265.6499973742591
 20
576.19764838291405
 30
0.0
 11
265.6499973742591
 21
583.92264838291408
 31
0.0
  0
ARC
  5
1A6CF
  8
KI1
 10
265.949997374259
 20
576.19764838291405
 30
0.0
 40
0.2999999999999999
 50
180.0
 51
270.0
  0
LINE
  5
1A6D0
  8
KI1
 10
264.29999737425908
 20
582.04764838291385
 30
0.0
 11
264.49999737425912
 21
580.54764838291385
 31
0.0
  0
LINE
  5
1A6D1
  8
KI1
 10
264.49999737425912
 20
577.04764838291385
 30
0.0
 11
264.49999737425912
 21
580.54764838291385
 31
0.0
  0
LINE
  5
1A6D2
  8
KI1
 10
263.3999973742591
 20
577.04764838291385
 30
0.0
 11
264.49999737425912
 21
577.04764838291385
 31
0.0
  0
LINE
  5
1A6D3
  8
KI1
 10
263.3999973742591
 20
577.04764838291385
 30
0.0
 11
263.3999973742591
 21
577.44764838291394
 31
0.0
  0
LINE
  5
1A6D4
  8
KI1
 10
264.49999737425912
 20
583.92264838291408
 30
0.0
 11
264.49999737425912
 21
583.19764838291394
 31
0.0
  0
LINE
  5
1A6D5
  8
KI1
 10
264.49999737425912
 20
575.04764838291408
 30
0.0
 11
264.49999737425912
 21
575.74764838291389
 31
0.0
  0
LINE
  5
1A6D6
  8
KI1
 10
262.49999737425912
 20
601.74764838291401
 30
0.0
 11
262.49999737425912
 21
600.54764838291408
 31
0.0
  0
ARC
  5
1A6D7
  8
KI1
 10
262.54999737425908
 20
576.04764838291396
 30
0.0
 40
0.2999999999999999
 50
180.0
 51
270.0
  0
ARC
  5
1A6D8
  8
KI1
 10
262.54873323491017
 20
582.89764838291376
 30
0.0
 40
0.2999999999999999
 50
90.0
 51
180.0
  0
LINE
  5
1A6D9
  8
KI1
 10
262.24873323491022
 20
582.89764838291376
 30
0.0
 11
262.24873323491022
 21
582.54764838291385
 31
0.0
  0
LINE
  5
1A6DA
  8
KI1
 10
262.24999737425912
 20
578.14764838291387
 30
0.0
 11
262.24999737425912
 21
576.04764838291396
 31
0.0
  0
ARC
  5
1A6DB
  8
KI1
 10
262.54999737425908
 20
578.14764838291387
 30
0.0
 40
0.2999999999999999
 50
90.0
 51
180.0
  0
LINE
  5
1A6DC
  8
KI1
 10
262.54999737425908
 20
578.44764838291383
 30
0.0
 11
262.74999737425912
 21
578.44764838291383
 31
0.0
  0
ARC
  5
1A6DD
  8
KI1
 10
262.74873323491022
 20
582.54764838291385
 30
0.0
 40
0.5
 50
180.0
 51
270.0
  0
LINE
  5
1A6DE
  8
KI1
 10
253.4999973742591
 20
600.54764838291408
 30
0.0
 11
262.49999737425912
 21
600.54764838291408
 31
0.0
  0
LINE
  5
1A6DF
  8
KI1
 10
253.4999973742591
 20
601.74764838291401
 30
0.0
 11
253.4999973742591
 21
600.54764838291408
 31
0.0
  0
ARC
  5
1A6E0
  8
KI1
 10
253.449997374259
 20
576.04764838291396
 30
0.0
 40
0.2999999999999999
 50
270.0
 51
0.0
  0
ARC
  5
1A6E1
  8
KI1
 10
253.44873323491009
 20
582.89764838291376
 30
0.0
 40
0.2999999999999999
 50
0.0
 51
90.0
  0
LINE
  5
1A6E2
  8
KI1
 10
253.74873323491019
 20
582.89764838291376
 30
0.0
 11
253.74873323491019
 21
582.54764838291385
 31
0.0
  0
LINE
  5
1A6E3
  8
KI1
 10
253.7499973742591
 20
578.14764838291387
 30
0.0
 11
253.7499973742591
 21
576.04764838291396
 31
0.0
  0
ARC
  5
1A6E4
  8
KI1
 10
253.449997374259
 20
578.14764838291387
 30
0.0
 40
0.2999999999999999
 50
0.0
 51
90.0
  0
LINE
  5
1A6E5
  8
KI1
 10
250.04999737425911
 20
575.89764838291399
 30
0.0
 11
243.8999973742591
 21
575.89764838291399
 31
0.0
  0
LINE
  5
1A6E6
  8
KI1
 10
243.7499973742591
 20
600.54764838291408
 30
0.0
 11
252.4999973742591
 21
600.54764838291408
 31
0.0
  0
ARC
  5
1A6E7
  8
KI1
 10
250.04999737425911
 20
576.19764838291405
 30
0.0
 40
0.2999999999999999
 50
270.0
 51
0.0
  0
LINE
  5
1A6E8
  8
KI1
 10
252.4999973742591
 20
601.74764838291401
 30
0.0
 11
252.4999973742591
 21
600.54764838291408
 31
0.0
  0
LINE
  5
1A6E9
  8
KI1
 10
253.24873323491019
 20
582.04764838291385
 30
0.0
 11
251.699997374259
 21
582.04764838291385
 31
0.0
  0
LINE
  5
1A6EA
  8
KI1
 10
252.599997374259
 20
577.04764838291385
 30
0.0
 11
251.4999973742591
 21
577.04764838291385
 31
0.0
  0
LINE
  5
1A6EB
  8
KI1
 10
252.599997374259
 20
577.04764838291385
 30
0.0
 11
252.599997374259
 21
577.44764838291394
 31
0.0
  0
LINE
  5
1A6EC
  8
KI1
 10
252.599997374259
 20
577.44764838291394
 30
0.0
 11
253.2499973742591
 21
578.44764838291383
 31
0.0
  0
LINE
  5
1A6ED
  8
KI1
 10
251.699997374259
 20
582.04764838291385
 30
0.0
 11
251.4999973742591
 21
580.54764838291385
 31
0.0
  0
LINE
  5
1A6EE
  8
KI1
 10
251.4999973742591
 20
577.04764838291385
 30
0.0
 11
251.4999973742591
 21
580.54764838291385
 31
0.0
  0
LINE
  5
1A6EF
  8
KI1
 10
250.349997374259
 20
576.19764838291405
 30
0.0
 11
250.349997374259
 21
583.92264838291408
 31
0.0
  0
LINE
  5
1A6F0
  8
KI1
 10
251.4999973742591
 20
583.92264838291408
 30
0.0
 11
251.4999973742591
 21
583.19764838291394
 31
0.0
  0
ARC
  5
1A6F1
  8
KI1
 10
250.92499737425911
 20
583.92264838291408
 30
0.0
 40
0.5749999999999959
 50
0.0
 51
180.0
  0
LINE
  5
1A6F2
  8
KI1
 10
251.4999973742591
 20
575.04764838291408
 30
0.0
 11
251.4999973742591
 21
575.74764838291389
 31
0.0
  0
ARC
  5
1A6F3
  8
KI1
 10
251.199997374259
 20
575.04764838291408
 30
0.0
 40
0.2999999999999999
 50
270.0
 51
0.0
  0
ARC
  5
1A6F4
  8
KI1
 10
243.2499973742591
 20
601.74764838291401
 30
0.0
 40
0.5
 50
0.0
 51
180.0
  0
LINE
  5
1A6F5
  8
KI1
 10
243.7499973742591
 20
601.74764838291401
 30
0.0
 11
243.7499973742591
 21
600.54764838291408
 31
0.0
  0
LINE
  5
1A6F6
  8
KI1
 10
243.8999973742591
 20
575.89764838291399
 30
0.0
 11
243.8999973742591
 21
598.8976483829141
 31
0.0
  0
ARC
  5
1A6F7
  8
KI1
 10
244.3999973742591
 20
598.8976483829141
 30
0.0
 40
0.4999999999999999
 50
90.0
 51
180.0
  0
LINE
  5
1A6F8
  8
KI1
 10
242.7499973742591
 20
575.74764838291389
 30
0.0
 11
242.7499973742591
 21
601.74764838291401
 31
0.0
  0
ARC
  5
1A6F9
  8
KI1
 10
237.6499973742591
 20
575.24764838291401
 30
0.0
 40
0.5
 50
90.0
 51
180.0
  0
ARC
  5
1A6FA
  8
KI1
 10
238.449997374259
 20
574.44764838291405
 30
0.0
 40
0.2999999999999999
 50
90.0
 51
180.0
  0
LINE
  5
1A6FB
  8
KI1
 10
238.1499973742591
 20
574.44764838291405
 30
0.0
 11
238.1499973742591
 21
562.24764838291401
 31
0.0
  0
LINE
  5
1A6FC
  8
KI1
 10
237.1499973742591
 20
575.24764838291401
 30
0.0
 11
237.1499973742591
 21
562.24764838291401
 31
0.0
  0
ARC
  5
1A6FD
  8
KI1
 10
237.6499973742591
 20
562.24764838291401
 30
0.0
 40
0.5
 50
180.0
 51
0.0
  0
LINE
  5
1A725
  8
KI2
 10
326.00005366356152
 20
582.94764979038359
 30
0.0
 11
334.00005366356152
 21
582.94764979038359
 31
0.0
  0
LINE
  5
1A726
  8
KI2
 10
324.1000536635616
 20
579.13764979038365
 30
0.0
 11
335.90005366356149
 21
579.13764979038365
 31
0.0
  0
LINE
  5
1A727
  8
KI2
 10
324.1000536635616
 20
581.13764979038365
 30
0.0
 11
335.90005366356149
 21
581.13764979038365
 31
0.0
  0
LINE
  5
1A728
  8
KI2
 10
326.00005366356152
 20
582.94764979038359
 30
0.0
 11
326.00005366356152
 21
581.13764979038365
 31
0.0
  0
LINE
  5
1A729
  8
KI2
 10
324.1000536635616
 20
581.13764979038365
 30
0.0
 11
324.1000536635616
 21
579.13764979038365
 31
0.0
  0
LINE
  5
1A72A
  8
KI2
 10
333.00005366356152
 20
579.13764979038365
 30
0.0
 11
333.00005366356152
 21
565.24764979038389
 31
0.0
  0
LINE
  5
1A72B
  8
KI2
 10
327.00005366356152
 20
579.13764979038365
 30
0.0
 11
327.00005366356152
 21
565.24764979038389
 31
0.0
  0
LINE
  5
1A72C
  8
KI2
 10
327.00005366356152
 20
576.62764979038366
 30
0.0
 11
333.00005366356152
 21
576.62764979038366
 31
0.0
  0
LINE
  5
1A72D
  8
KI2
 10
328.28005366356149
 20
591.34764979038357
 30
0.0
 11
331.7200536635616
 21
591.34764979038357
 31
0.0
  0
LINE
  5
1A72E
  8
KI2
 10
332.22005366356149
 20
590.84764979038357
 30
0.0
 11
327.78005366356149
 21
590.84764979038357
 31
0.0
  0
LINE
  5
1A72F
  8
KI2
 10
327.78005366356149
 20
590.84764979038357
 30
0.0
 11
327.78005366356149
 21
582.94764979038359
 31
0.0
  0
LINE
  5
1A730
  8
KI2
 10
328.28005366356149
 20
591.34764979038357
 30
0.0
 11
327.78005366356149
 21
590.84764979038357
 31
0.0
  0
LINE
  5
1A731
  8
KI2
 10
332.22005366356149
 20
590.84764979038357
 30
0.0
 11
332.22005366356149
 21
582.94764979038359
 31
0.0
  0
LINE
  5
1A732
  8
KI2
 10
332.22005366356149
 20
590.84764979038357
 30
0.0
 11
331.7200536635616
 21
591.34764979038357
 31
0.0
  0
LINE
  5
1A733
  8
KI2
 10
334.00005366356152
 20
582.94764979038359
 30
0.0
 11
334.00005366356152
 21
581.13764979038365
 31
0.0
  0
LINE
  5
1A734
  8
KI2
 10
335.90005366356149
 20
581.13764979038365
 30
0.0
 11
335.90005366356149
 21
579.13764979038365
 31
0.0
  0
LINE
  5
1A735
  8
KI2
 10
254.00005366356149
 20
582.94764979038359
 30
0.0
 11
262.00005366356152
 21
582.94764979038359
 31
0.0
  0
LINE
  5
1A736
  8
KI2
 10
252.10005366356151
 20
579.13764979038365
 30
0.0
 11
263.90005366356149
 21
579.13764979038365
 31
0.0
  0
LINE
  5
1A737
  8
KI2
 10
252.10005366356151
 20
581.13764979038365
 30
0.0
 11
263.90005366356149
 21
581.13764979038365
 31
0.0
  0
LINE
  5
1A738
  8
KI2
 10
254.00005366356149
 20
582.94764979038359
 30
0.0
 11
254.00005366356149
 21
581.13764979038365
 31
0.0
  0
LINE
  5
1A739
  8
KI2
 10
252.10005366356151
 20
581.13764979038365
 30
0.0
 11
252.10005366356151
 21
579.13764979038365
 31
0.0
  0
LINE
  5
1A73A
  8
KI2
 10
261.00005366356152
 20
579.13764979038365
 30
0.0
 11
261.00005366356152
 21
565.24764979038389
 31
0.0
  0
LINE
  5
1A73B
  8
KI2
 10
255.00005366356149
 20
579.13764979038365
 30
0.0
 11
255.00005366356149
 21
565.24764979038389
 31
0.0
  0
LINE
  5
1A73C
  8
KI2
 10
255.00005366356149
 20
576.62764979038366
 30
0.0
 11
261.00005366356152
 21
576.62764979038366
 31
0.0
  0
LINE
  5
1A73D
  8
KI2
 10
256.28005366356149
 20
591.34764979038357
 30
0.0
 11
259.72005366356149
 21
591.34764979038357
 31
0.0
  0
LINE
  5
1A73E
  8
KI2
 10
260.22005366356149
 20
590.84764979038357
 30
0.0
 11
255.78005366356149
 21
590.84764979038357
 31
0.0
  0
LINE
  5
1A73F
  8
KI2
 10
255.78005366356149
 20
590.84764979038357
 30
0.0
 11
255.78005366356149
 21
582.94764979038359
 31
0.0
  0
LINE
  5
1A740
  8
KI2
 10
256.28005366356149
 20
591.34764979038357
 30
0.0
 11
255.78005366356149
 21
590.84764979038357
 31
0.0
  0
LINE
  5
1A741
  8
KI2
 10
260.22005366356149
 20
590.84764979038357
 30
0.0
 11
260.22005366356149
 21
582.94764979038359
 31
0.0
  0
LINE
  5
1A742
  8
KI2
 10
260.22005366356149
 20
590.84764979038357
 30
0.0
 11
259.72005366356149
 21
591.34764979038357
 31
0.0
  0
LINE
  5
1A743
  8
KI2
 10
262.00005366356152
 20
582.94764979038359
 30
0.0
 11
262.00005366356152
 21
581.13764979038365
 31
0.0
  0
LINE
  5
1A744
  8
KI2
 10
263.90005366356149
 20
581.13764979038365
 30
0.0
 11
263.90005366356149
 21
579.13764979038365
 31
0.0
  0
LINE
  5
1A745
  8
KI2
 10
290.00005366356152
 20
582.94764979038359
 30
0.0
 11
298.00005366356152
 21
582.94764979038359
 31
0.0
  0
LINE
  5
1A746
  8
KI2
 10
288.10005366356148
 20
579.13764979038365
 30
0.0
 11
299.90005366356149
 21
579.13764979038365
 31
0.0
  0
LINE
  5
1A747
  8
KI2
 10
288.10005366356148
 20
581.13764979038365
 30
0.0
 11
299.90005366356149
 21
581.13764979038365
 31
0.0
  0
LINE
  5
1A748
  8
KI2
 10
290.00005366356152
 20
582.94764979038359
 30
0.0
 11
290.00005366356152
 21
581.13764979038365
 31
0.0
  0
LINE
  5
1A749
  8
KI2
 10
288.10005366356148
 20
581.13764979038365
 30
0.0
 11
288.10005366356148
 21
579.13764979038365
 31
0.0
  0
LINE
  5
1A74A
  8
KI2
 10
297.00005366356152
 20
579.13764979038365
 30
0.0
 11
297.00005366356152
 21
565.24764979038389
 31
0.0
  0
LINE
  5
1A74B
  8
KI2
 10
291.00005366356152
 20
579.13764979038365
 30
0.0
 11
291.00005366356152
 21
565.24764979038389
 31
0.0
  0
LINE
  5
1A74C
  8
KI2
 10
291.00005366356152
 20
576.62764979038366
 30
0.0
 11
297.00005366356152
 21
576.62764979038366
 31
0.0
  0
LINE
  5
1A74D
  8
KI2
 10
292.28005366356149
 20
591.34764979038357
 30
0.0
 11
295.72005366356149
 21
591.34764979038357
 31
0.0
  0
LINE
  5
1A74E
  8
KI2
 10
296.2200536635616
 20
590.84764979038357
 30
0.0
 11
291.78005366356149
 21
590.84764979038357
 31
0.0
  0
LINE
  5
1A74F
  8
KI2
 10
291.78005366356149
 20
590.84764979038357
 30
0.0
 11
291.78005366356149
 21
582.94764979038359
 31
0.0
  0
LINE
  5
1A750
  8
KI2
 10
292.28005366356149
 20
591.34764979038357
 30
0.0
 11
291.78005366356149
 21
590.84764979038357
 31
0.0
  0
LINE
  5
1A751
  8
KI2
 10
296.2200536635616
 20
590.84764979038357
 30
0.0
 11
296.2200536635616
 21
582.94764979038359
 31
0.0
  0
LINE
  5
1A752
  8
KI2
 10
296.2200536635616
 20
590.84764979038357
 30
0.0
 11
295.72005366356149
 21
591.34764979038357
 31
0.0
  0
LINE
  5
1A753
  8
KI2
 10
298.00005366356152
 20
582.94764979038359
 30
0.0
 11
298.00005366356152
 21
581.13764979038365
 31
0.0
  0
LINE
  5
1A754
  8
KI2
 10
299.90005366356149
 20
581.13764979038365
 30
0.0
 11
299.90005366356149
 21
579.13764979038365
 31
0.0
  0
LINE
  5
1AB24
  8
KI1
 10
274.50000222891617
 20
498.24764995184961
 30
0.0
 11
274.50000933170583
 21
214.7947012543116
 31
0.0
  0
LINE
  5
1AB25
  8
KI1
 10
277.50000269080618
 20
498.24764995184961
 30
0.0
 11
277.50000933170571
 21
214.7947012543116
 31
0.0
  0
LINE
  5
1AB27
  8
KI1
 10
313.50000222891617
 20
498.24764995184961
 30
0.0
 11
313.50000933170583
 21
214.7947012543116
 31
0.0
  0
LINE
  5
1AB57
  8
KI1
 10
841.40671637806975
 20
241.29470286611311
 30
0.0
 11
841.40671637806975
 21
208.2947028661134
 31
0.0
  0
LINE
  5
1AB58
  8
KI1
 10
841.40670497883229
 20
241.29465556225909
 30
0.0
 11
1030.406710817258
 21
241.29470125439661
 31
0.0
  0
LINE
  5
1AB59
  8
KI1
 10
841.40671637806975
 20
208.2947028661134
 30
0.0
 11
1030.4067108172601
 21
208.29470125439701
 31
0.0
  0
LINE
  5
1AB5A
  8
KI1
 10
1030.4067108172601
 20
208.29470125439701
 30
0.0
 11
1030.406710817258
 21
241.29470125439661
 31
0.0
  0
LINE
  5
1AB9B
  8
KI1
 10
677.40669712945089
 20
277.2946996426802
 30
0.0
 11
677.40669712945089
 21
244.2946996426806
 31
0.0
  0
LINE
  5
1AB9C
  8
KI1
 10
677.40669627556304
 20
277.2946571739721
 30
0.0
 11
866.40669627555758
 21
277.2947028661082
 31
0.0
  0
LINE
  5
1AB9D
  8
KI1
 10
677.40669712945089
 20
244.2946996426806
 30
0.0
 11
866.40669732174297
 21
244.29470286610871
 31
0.0
  0
LINE
  5
1AB9E
  8
KI1
 10
866.40669732174297
 20
244.29470286610871
 30
0.0
 11
866.40669732174115
 21
277.29470286610842
 31
0.0
  0
LINE
  5
1ABAA
  8
KI1
 10
513.40670269366058
 20
313.29469597602582
 30
0.0
 11
513.40670269366058
 21
280.29469597602622
 31
0.0
  0
LINE
  5
1ABAB
  8
KI1
 10
513.40670269366058
 20
313.29469597602582
 30
0.0
 11
702.40668757227968
 21
313.29474021761439
 31
0.0
  0
LINE
  5
1ABAC
  8
KI1
 10
513.40670269366058
 20
280.29469597602622
 30
0.0
 11
702.40669433471658
 21
280.29469436430912
 31
0.0
  0
LINE
  5
1ABAD
  8
KI1
 10
702.40669433471658
 20
280.29469436430912
 30
0.0
 11
702.40669433471487
 21
313.29469436430878
 31
0.0
  0
LINE
  5
1B411
  8
KI1
 10
980.01315815939677
 20
671.29999999999995
 30
0.0
 11
980.01315815939677
 21
674.60000000000014
 31
0.0
  0
LINE
  5
1B412
  8
KI1
 10
982.51315815939677
 20
678.19999999999959
 30
0.0
 11
895.27982482606342
 21
678.20000000000005
 31
0.0
  0
LINE
  5
1B413
  8
KI1
 10
895.27982482606342
 20
678.20000000000005
 30
0.0
 11
895.27982482606342
 21
674.89999999999975
 31
0.0
  0
LINE
  5
1B414
  8
KI1
 10
895.27982482606342
 20
674.89999999999975
 30
0.0
 11
982.51315815939677
 21
674.89999999999941
 31
0.0
  0
LINE
  5
1B415
  8
KI1
 10
982.51315815939677
 20
678.19999999999959
 30
0.0
 11
982.51315815939677
 21
674.89999999999941
 31
0.0
  0
LINE
  5
1B416
  8
KI1
 10
897.77982482606353
 20
681.79999999999995
 30
0.0
 11
897.77982482606353
 21
678.50000000000011
 31
0.0
  0
LINE
  5
1B6C8
  8
SU
 10
350.54993661915898
 20
574.74764910350279
 30
0.0
 11
416.14203900721992
 21
574.74764910350279
 31
0.0
  0
LINE
  5
1B6C9
  8
SU
 10
413.14203900721981
 20
574.74764910350279
 30
0.0
 11
413.14203900721981
 21
565.24764916738241
 31
0.0
  0
LINE
  5
1B6CC
  8
SU
 10
1038.406712110675
 20
201.29470125439661
 30
0.0
 11
972.31814249764091
 21
201.29470125439661
 31
0.0
  0
LINE
  5
1B6CD
  8
SU
 10
1029.4067108172601
 20
208.29470125439701
 30
0.0
 11
972.31814249764091
 21
208.29470125439701
 31
0.0
  0
LINE
  5
1B6CE
  8
SU
 10
975.31814249764113
 20
208.29470125439701
 30
0.0
 11
975.31814249764113
 21
201.29470125439661
 31
0.0
  0
LINE
  5
1B6CF
  8
SU
 10
975.31814249764113
 20
201.29470125439661
 30
0.0
 11
975.31814249764113
 21
185.22136792106329
 31
0.0
  0
LINE
  5
1B6D3
  8
SU
 10
237.14993750477581
 20
561.24764724113084
 30
0.0
 11
237.14993750477581
 21
483.24764912493242
 31
0.0
  0
LINE
  5
1B6D4
  8
SU
 10
241.50000251817499
 20
486.24764912493242
 30
0.0
 11
237.14993750477581
 21
486.24764912493242
 31
0.0
  0
LINE
  5
1B6D5
  8
SU
 10
237.14993750477581
 20
486.24764912493242
 30
0.0
 11
212.4999375047758
 21
486.24764912493242
 31
0.0
  0
LINE
  5
1B6D9
  8
SU
 10
353.50000217257298
 20
561.24765080596774
 30
0.0
 11
353.50000217257298
 21
498.24766365844499
 31
0.0
  0
LINE
  5
1B6DA
  8
SU
 10
350.84993847406469
 20
501.24766365844499
 30
0.0
 11
353.50000217257298
 21
501.24766365844499
 31
0.0
  0
LINE
  5
1B6DB
  8
SU
 10
353.50000217257298
 20
501.24766365844499
 30
0.0
 11
377.87333550590643
 21
501.24766365844499
 31
0.0
  0
LINE
  5
1B6DF
  8
SU
 10
350.84999737425909
 20
561.24764835095255
 30
0.0
 11
350.84999737425909
 21
498.24764995184961
 31
0.0
  0
LINE
  5
1B6E0
  8
SU
 10
237.14993750477581
 20
501.2476499518495
 30
0.0
 11
350.84999737425909
 21
501.2476499518495
 31
0.0
  0
LINE
  5
1B6E4
  8
SU
 10
237.1499973742591
 20
576.24764838291389
 30
0.0
 11
237.1499973742591
 21
667.74764995184978
 31
0.0
  0
LINE
  5
1B6E5
  8
SU
 10
242.7499973742591
 20
664.74764995184967
 30
0.0
 11
237.1499973742591
 21
664.74764995184967
 31
0.0
  0
LINE
  5
1B6E6
  8
SU
 10
237.1499973742591
 20
664.74764995184967
 30
0.0
 11
212.77666404092571
 21
664.74764995184967
 31
0.0
  0
LINE
  5
1B6EB
  8
SU
 10
351.34993719355759
 20
561.74764913885031
 30
0.0
 11
401.14203900721992
 21
561.74764913885031
 31
0.0
  0
LINE
  5
1B6EC
  8
SU
 10
398.14203900721998
 20
565.24764964716621
 30
0.0
 11
398.14203900721998
 21
561.74764913885031
 31
0.0
  0
LINE
  5
1B6ED
  8
SU
 10
398.14203900721998
 20
561.74764913885031
 30
0.0
 11
398.14203900721998
 21
537.37431580551686
 31
0.0
  0
LINE
  5
1B6F2
  8
SU
 10
413.14203900721981
 20
602.24764846061782
 30
0.0
 11
413.14203900721981
 21
574.74764910350279
 31
0.0
  0
LINE
  5
1B6F5
  8
SU
 10
347.5000005500242
 20
565.24764974563334
 30
0.0
 11
416.14203900721992
 21
565.24764974563334
 31
0.0
  0
LINE
  5
1B6F6
  8
SU
 10
413.14203900721969
 20
214.79470286083389
 30
0.0
 11
413.14203900721981
 21
565.24764974563334
 31
0.0
  0
LINE
  5
1B6F9
  8
SU
 10
336.3000319910085
 20
210.79469633505781
 30
0.0
 11
401.14203900721992
 21
210.79469633505781
 31
0.0
  0
LINE
  5
1B6FA
  8
SU
 10
398.14203900721992
 20
210.79469633505781
 30
0.0
 11
398.14203900721992
 21
205.7947012543959
 31
0.0
  0
LINE
  5
1B6FB
  8
SU
 10
398.14203900721992
 20
205.7947012543959
 30
0.0
 11
398.14203900721992
 21
189.72136792106261
 31
0.0
  0
LINE
  5
1B6FF
  8
SU
 10
347.50000933170583
 20
214.7947012542987
 30
0.0
 11
416.14203900721992
 21
214.7947012542987
 31
0.0
  0
LINE
  5
1B700
  8
SU
 10
413.14203900721981
 20
214.7947012542987
 30
0.0
 11
413.14203900721981
 21
205.7947012543959
 31
0.0
  0
LINE
  5
1B706
  8
SU
 10
1058.1464914927301
 20
652.8283771709107
 30
0.0
 11
1068.1464914927301
 21
646.82837717091058
 31
0.0
  0
LINE
  5
1B707
  8
SU
 10
1058.1464914927301
 20
640.8283771709107
 30
0.0
 11
1068.1464914927301
 21
646.82837717091058
 31
0.0
  0
LINE
  5
1B708
  8
SU
 10
1058.1464914927301
 20
652.8283771709107
 30
0.0
 11
1058.1464914927301
 21
640.8283771709107
 31
0.0
  0
LINE
  5
1B709
  8
SU
 10
1068.0787635481629
 20
646.86901393765118
 30
0.0
 11
1068.0787635481629
 21
646.78774040417034
 31
0.0
  0
LINE
  5
1B70A
  8
SU
 10
1067.8787635481631
 20
646.98901393765107
 30
0.0
 11
1067.8787635481631
 21
646.66774040417044
 31
0.0
  0
LINE
  5
1B70B
  8
SU
 10
1067.678763548163
 20
647.1090139376513
 30
0.0
 11
1067.678763548163
 21
646.54774040417033
 31
0.0
  0
LINE
  5
1B70C
  8
SU
 10
1067.478763548163
 20
647.22901393765119
 30
0.0
 11
1067.478763548163
 21
646.42774040417021
 31
0.0
  0
LINE
  5
1B70D
  8
SU
 10
1067.2787635481629
 20
647.34901393765108
 30
0.0
 11
1067.2787635481629
 21
646.30774040417032
 31
0.0
  0
LINE
  5
1B70E
  8
SU
 10
1067.0787635481629
 20
647.46901393765108
 30
0.0
 11
1067.0787635481629
 21
646.18774040417043
 31
0.0
  0
LINE
  5
1B70F
  8
SU
 10
1066.8787635481631
 20
647.58901393765132
 30
0.0
 11
1066.8787635481631
 21
646.06774040417031
 31
0.0
  0
LINE
  5
1B710
  8
SU
 10
1066.6787635481619
 20
647.70901393765121
 30
0.0
 11
1066.6787635481619
 21
645.94774040417019
 31
0.0
  0
LINE
  5
1B711
  8
SU
 10
1066.478763548163
 20
647.8290139376511
 30
0.0
 11
1066.478763548163
 21
645.8277404041703
 31
0.0
  0
LINE
  5
1B712
  8
SU
 10
1066.278763548162
 20
647.94901393765088
 30
0.0
 11
1066.278763548162
 21
645.70774040417041
 31
0.0
  0
LINE
  5
1B713
  8
SU
 10
1066.0787635481629
 20
648.06901393765133
 30
0.0
 11
1066.0787635481629
 21
645.58774040417029
 31
0.0
  0
LINE
  5
1B714
  8
SU
 10
1065.8787635481631
 20
648.18901393765123
 30
0.0
 11
1065.8787635481631
 21
645.46774040417006
 31
0.0
  0
LINE
  5
1B715
  8
SU
 10
1065.678763548163
 20
648.30901393765112
 30
0.0
 11
1065.678763548163
 21
645.34774040417017
 31
0.0
  0
LINE
  5
1B716
  8
SU
 10
1065.478763548163
 20
648.42901393765123
 30
0.0
 11
1065.478763548163
 21
645.22774040417028
 31
0.0
  0
LINE
  5
1B717
  8
SU
 10
1065.2787635481629
 20
648.54901393765113
 30
0.0
 11
1065.2787635481629
 21
645.10774040417016
 31
0.0
  0
LINE
  5
1B718
  8
SU
 10
1065.0787635481629
 20
648.66901393765124
 30
0.0
 11
1065.0787635481629
 21
644.98774040417027
 31
0.0
  0
LINE
  5
1B719
  8
SU
 10
1064.8787635481631
 20
648.78901393765113
 30
0.0
 11
1064.8787635481631
 21
644.86774040417026
 31
0.0
  0
LINE
  5
1B71A
  8
SU
 10
1064.678763548163
 20
648.90901393765125
 30
0.0
 11
1064.678763548163
 21
644.74774040417037
 31
0.0
  0
LINE
  5
1B71B
  8
SU
 10
1064.478763548163
 20
649.02901393765114
 30
0.0
 11
1064.478763548163
 21
644.62774040417025
 31
0.0
  0
LINE
  5
1B71C
  8
SU
 10
1064.278763548162
 20
649.14901393765115
 30
0.0
 11
1064.278763548162
 21
644.50774040417025
 31
0.0
  0
LINE
  5
1B71D
  8
SU
 10
1064.0787635481629
 20
649.26901393765115
 30
0.0
 11
1064.0787635481629
 21
644.38774040417024
 31
0.0
  0
LINE
  5
1B71E
  8
SU
 10
1063.8787635481631
 20
649.38901393765104
 30
0.0
 11
1063.8787635481631
 21
644.26774040417035
 31
0.0
  0
LINE
  5
1B71F
  8
SU
 10
1063.678763548163
 20
649.50901393765105
 30
0.0
 11
1063.678763548163
 21
644.14774040417024
 31
0.0
  0
LINE
  5
1B720
  8
SU
 10
1063.478763548163
 20
649.62901393765128
 30
0.0
 11
1063.478763548163
 21
644.02774040417034
 31
0.0
  0
LINE
  5
1B721
  8
SU
 10
1063.278763548162
 20
649.74901393765117
 30
0.0
 11
1063.278763548162
 21
643.90774040417023
 31
0.0
  0
LINE
  5
1B722
  8
SU
 10
1063.0787635481629
 20
649.86901393765118
 30
0.0
 11
1063.0787635481629
 21
643.78774040417034
 31
0.0
  0
LINE
  5
1B723
  8
SU
 10
1062.8787635481631
 20
649.98901393765107
 30
0.0
 11
1062.8787635481631
 21
643.66774040417044
 31
0.0
  0
LINE
  5
1B724
  8
SU
 10
1062.678763548163
 20
650.1090139376513
 30
0.0
 11
1062.678763548163
 21
643.54774040417033
 31
0.0
  0
LINE
  5
1B725
  8
SU
 10
1062.478763548163
 20
650.22901393765119
 30
0.0
 11
1062.478763548163
 21
643.42774040417021
 31
0.0
  0
LINE
  5
1B726
  8
SU
 10
1062.278763548162
 20
650.34901393765097
 30
0.0
 11
1062.278763548162
 21
643.30774040417032
 31
0.0
  0
LINE
  5
1B727
  8
SU
 10
1062.0787635481629
 20
650.4690139376512
 30
0.0
 11
1062.0787635481629
 21
643.18774040417043
 31
0.0
  0
LINE
  5
1B728
  8
SU
 10
1061.8787635481631
 20
650.5890139376512
 30
0.0
 11
1061.8787635481631
 21
643.06774040417031
 31
0.0
  0
LINE
  5
1B729
  8
SU
 10
1061.678763548163
 20
650.70901393765109
 30
0.0
 11
1061.678763548163
 21
642.94774040417008
 31
0.0
  0
LINE
  5
1B72A
  8
SU
 10
1061.478763548163
 20
650.82901393765098
 30
0.0
 11
1061.478763548163
 21
642.82774040417019
 31
0.0
  0
LINE
  5
1B72B
  8
SU
 10
1061.2787635481629
 20
650.94901393765088
 30
0.0
 11
1061.2787635481629
 21
642.70774040417029
 31
0.0
  0
LINE
  5
1B72C
  8
SU
 10
1061.0787635481629
 20
651.06901393765133
 30
0.0
 11
1061.0787635481629
 21
642.58774040417029
 31
0.0
  0
LINE
  5
1B72D
  8
SU
 10
1060.8787635481631
 20
651.18901393765123
 30
0.0
 11
1060.8787635481631
 21
642.46774040417017
 31
0.0
  0
LINE
  5
1B72E
  8
SU
 10
1060.678763548163
 20
651.30901393765112
 30
0.0
 11
1060.678763548163
 21
642.34774040417028
 31
0.0
  0
LINE
  5
1B72F
  8
SU
 10
1060.478763548163
 20
651.42901393765123
 30
0.0
 11
1060.478763548163
 21
642.22774040417039
 31
0.0
  0
LINE
  5
1B730
  8
SU
 10
1060.278763548162
 20
651.54901393765113
 30
0.0
 11
1060.278763548162
 21
642.10774040417016
 31
0.0
  0
LINE
  5
1B731
  8
SU
 10
1060.0787635481629
 20
651.66901393765124
 30
0.0
 11
1060.0787635481629
 21
641.98774040417027
 31
0.0
  0
LINE
  5
1B732
  8
SU
 10
1059.8787635481631
 20
651.78901393765113
 30
0.0
 11
1059.8787635481631
 21
641.86774040417015
 31
0.0
  0
LINE
  5
1B733
  8
SU
 10
1059.678763548163
 20
651.90901393765125
 30
0.0
 11
1059.678763548163
 21
641.74774040417026
 31
0.0
  0
LINE
  5
1B734
  8
SU
 10
1059.478763548163
 20
652.02901393765114
 30
0.0
 11
1059.478763548163
 21
641.62774040417025
 31
0.0
  0
LINE
  5
1B735
  8
SU
 10
1059.2787635481629
 20
652.14901393765126
 30
0.0
 11
1059.2787635481629
 21
641.50774040417025
 31
0.0
  0
LINE
  5
1B736
  8
SU
 10
1059.0787635481629
 20
652.26901393765115
 30
0.0
 11
1059.0787635481629
 21
641.38774040417024
 31
0.0
  0
LINE
  5
1B737
  8
SU
 10
1058.8787635481631
 20
652.38901393765104
 30
0.0
 11
1058.8787635481631
 21
641.26774040417035
 31
0.0
  0
LINE
  5
1B738
  8
SU
 10
1058.6787635481619
 20
652.50901393765105
 30
0.0
 11
1058.6787635481619
 21
641.14774040417024
 31
0.0
  0
LINE
  5
1B739
  8
SU
 10
1058.478763548163
 20
652.62901393765128
 30
0.0
 11
1058.478763548163
 21
641.02774040417034
 31
0.0
  0
LINE
  5
1B73A
  8
SU
 10
1058.278763548162
 20
652.74901393765106
 30
0.0
 11
1058.278763548162
 21
640.90774040417023
 31
0.0
  0
LINE
  5
1B73B
  8
SU
 10
819.64649149272998
 20
640.82837717091115
 30
0.0
 11
809.64649149273009
 21
646.82837717091115
 31
0.0
  0
LINE
  5
1B73C
  8
SU
 10
819.64649149272998
 20
652.82837717091115
 30
0.0
 11
809.64649149273009
 21
646.82837717091115
 31
0.0
  0
LINE
  5
1B73D
  8
SU
 10
819.64649149272998
 20
640.82837717091115
 30
0.0
 11
819.64649149272998
 21
652.82837717091115
 31
0.0
  0
LINE
  5
1B73E
  8
SU
 10
809.71421943729717
 20
646.78774040417045
 30
0.0
 11
809.71421943729717
 21
646.86901393765152
 31
0.0
  0
LINE
  5
1B73F
  8
SU
 10
809.91421943729711
 20
646.66774040417056
 30
0.0
 11
809.91421943729711
 21
646.98901393765141
 31
0.0
  0
LINE
  5
1B740
  8
SU
 10
810.11421943729738
 20
646.54774040417055
 30
0.0
 11
810.11421943729738
 21
647.10901393765153
 31
0.0
  0
LINE
  5
1B741
  8
SU
 10
810.3142194372972
 20
646.42774040417055
 30
0.0
 11
810.3142194372972
 21
647.22901393765164
 31
0.0
  0
LINE
  5
1B742
  8
SU
 10
810.51421943729747
 20
646.30774040417066
 30
0.0
 11
810.51421943729747
 21
647.34901393765153
 31
0.0
  0
LINE
  5
1B743
  8
SU
 10
810.71421943729717
 20
646.18774040417065
 30
0.0
 11
810.71421943729717
 21
647.46901393765143
 31
0.0
  0
LINE
  5
1B744
  8
SU
 10
810.91421943729711
 20
646.06774040417054
 30
0.0
 11
810.91421943729711
 21
647.58901393765154
 31
0.0
  0
LINE
  5
1B745
  8
SU
 10
811.11421943729727
 20
645.94774040417064
 30
0.0
 11
811.11421943729727
 21
647.70901393765166
 31
0.0
  0
LINE
  5
1B746
  8
SU
 10
811.3142194372972
 20
645.82774040417075
 30
0.0
 11
811.3142194372972
 21
647.82901393765155
 31
0.0
  0
LINE
  5
1B747
  8
SU
 10
811.51421943729747
 20
645.70774040417075
 30
0.0
 11
811.51421943729747
 21
647.94901393765144
 31
0.0
  0
LINE
  5
1B748
  8
SU
 10
811.71421943729717
 20
645.58774040417052
 30
0.0
 11
811.71421943729717
 21
648.06901393765145
 31
0.0
  0
LINE
  5
1B749
  8
SU
 10
811.91421943729711
 20
645.46774040417063
 30
0.0
 11
811.91421943729711
 21
648.18901393765168
 31
0.0
  0
LINE
  5
1B74A
  8
SU
 10
812.11421943729727
 20
645.34774040417074
 30
0.0
 11
812.11421943729727
 21
648.30901393765146
 31
0.0
  0
LINE
  5
1B74B
  8
SU
 10
812.3142194372972
 20
645.22774040417062
 30
0.0
 11
812.3142194372972
 21
648.42901393765135
 31
0.0
  0
LINE
  5
1B74C
  8
SU
 10
812.51421943729736
 20
645.10774040417073
 30
0.0
 11
812.51421943729736
 21
648.54901393765158
 31
0.0
  0
LINE
  5
1B74D
  8
SU
 10
812.71421943729729
 20
644.98774040417061
 30
0.0
 11
812.71421943729729
 21
648.66901393765147
 31
0.0
  0
LINE
  5
1B74E
  8
SU
 10
812.91421943729699
 20
644.86774040417072
 30
0.0
 11
812.91421943729699
 21
648.78901393765148
 31
0.0
  0
LINE
  5
1B74F
  8
SU
 10
813.11421943729727
 20
644.74774040417049
 30
0.0
 11
813.11421943729727
 21
648.90901393765137
 31
0.0
  0
LINE
  5
1B750
  8
SU
 10
813.3142194372972
 20
644.62774040417071
 30
0.0
 11
813.3142194372972
 21
649.0290139376516
 31
0.0
  0
LINE
  5
1B751
  8
SU
 10
813.51421943729736
 20
644.50774040417059
 30
0.0
 11
813.51421943729736
 21
649.14901393765149
 31
0.0
  0
LINE
  5
1B752
  8
SU
 10
813.71421943729729
 20
644.3877404041707
 30
0.0
 11
813.71421943729729
 21
649.26901393765161
 31
0.0
  0
LINE
  5
1B753
  8
SU
 10
813.91421943729699
 20
644.26774040417081
 30
0.0
 11
813.91421943729699
 21
649.3890139376515
 31
0.0
  0
LINE
  5
1B754
  8
SU
 10
814.11421943729727
 20
644.14774040417058
 30
0.0
 11
814.11421943729727
 21
649.5090139376515
 31
0.0
  0
LINE
  5
1B755
  8
SU
 10
814.3142194372972
 20
644.02774040417046
 30
0.0
 11
814.3142194372972
 21
649.62901393765139
 31
0.0
  0
LINE
  5
1B756
  8
SU
 10
814.51421943729736
 20
643.90774040417057
 30
0.0
 11
814.51421943729736
 21
649.74901393765163
 31
0.0
  0
LINE
  5
1B757
  8
SU
 10
814.71421943729729
 20
643.78774040417056
 30
0.0
 11
814.71421943729729
 21
649.86901393765152
 31
0.0
  0
LINE
  5
1B758
  8
SU
 10
814.91421943729699
 20
643.66774040417067
 30
0.0
 11
814.91421943729699
 21
649.98901393765141
 31
0.0
  0
LINE
  5
1B759
  8
SU
 10
815.11421943729738
 20
643.54774040417055
 30
0.0
 11
815.11421943729738
 21
650.10901393765153
 31
0.0
  0
LINE
  5
1B75A
  8
SU
 10
815.31421943729708
 20
643.42774040417055
 30
0.0
 11
815.31421943729708
 21
650.22901393765164
 31
0.0
  0
LINE
  5
1B75B
  8
SU
 10
815.51421943729736
 20
643.30774040417066
 30
0.0
 11
815.51421943729736
 21
650.34901393765153
 31
0.0
  0
LINE
  5
1B75C
  8
SU
 10
815.71421943729729
 20
643.18774040417065
 30
0.0
 11
815.71421943729729
 21
650.46901393765131
 31
0.0
  0
LINE
  5
1B75D
  8
SU
 10
815.91421943729722
 20
643.06774040417054
 30
0.0
 11
815.91421943729722
 21
650.58901393765154
 31
0.0
  0
LINE
  5
1B75E
  8
SU
 10
816.11421943729738
 20
642.94774040417064
 30
0.0
 11
816.11421943729738
 21
650.70901393765155
 31
0.0
  0
LINE
  5
1B75F
  8
SU
 10
816.31421943729708
 20
642.82774040417075
 30
0.0
 11
816.31421943729708
 21
650.82901393765155
 31
0.0
  0
LINE
  5
1B760
  8
SU
 10
816.51421943729736
 20
642.70774040417086
 30
0.0
 11
816.51421943729736
 21
650.94901393765144
 31
0.0
  0
LINE
  5
1B761
  8
SU
 10
816.71421943729717
 20
642.58774040417052
 30
0.0
 11
816.71421943729717
 21
651.06901393765145
 31
0.0
  0
LINE
  5
1B762
  8
SU
 10
816.91421943729711
 20
642.46774040417063
 30
0.0
 11
816.91421943729711
 21
651.18901393765157
 31
0.0
  0
LINE
  5
1B763
  8
SU
 10
817.11421943729738
 20
642.34774040417074
 30
0.0
 11
817.11421943729738
 21
651.30901393765146
 31
0.0
  0
LINE
  5
1B764
  8
SU
 10
817.31421943729708
 20
642.22774040417062
 30
0.0
 11
817.31421943729708
 21
651.42901393765135
 31
0.0
  0
LINE
  5
1B765
  8
SU
 10
817.51421943729747
 20
642.10774040417073
 30
0.0
 11
817.51421943729747
 21
651.54901393765158
 31
0.0
  0
LINE
  5
1B766
  8
SU
 10
817.71421943729717
 20
641.98774040417061
 30
0.0
 11
817.71421943729717
 21
651.66901393765136
 31
0.0
  0
LINE
  5
1B767
  8
SU
 10
817.91421943729711
 20
641.86774040417072
 30
0.0
 11
817.91421943729711
 21
651.78901393765159
 31
0.0
  0
LINE
  5
1B768
  8
SU
 10
818.11421943729738
 20
641.74774040417049
 30
0.0
 11
818.11421943729738
 21
651.90901393765148
 31
0.0
  0
LINE
  5
1B769
  8
SU
 10
818.3142194372972
 20
641.62774040417071
 30
0.0
 11
818.3142194372972
 21
652.02901393765148
 31
0.0
  0
LINE
  5
1B76A
  8
SU
 10
818.51421943729747
 20
641.50774040417059
 30
0.0
 11
818.51421943729747
 21
652.14901393765138
 31
0.0
  0
LINE
  5
1B76B
  8
SU
 10
818.71421943729717
 20
641.3877404041707
 30
0.0
 11
818.71421943729717
 21
652.26901393765161
 31
0.0
  0
LINE
  5
1B76C
  8
SU
 10
818.91421943729711
 20
641.26774040417081
 30
0.0
 11
818.91421943729711
 21
652.3890139376515
 31
0.0
  0
LINE
  5
1B76D
  8
SU
 10
819.11421943729727
 20
641.14774040417069
 30
0.0
 11
819.11421943729727
 21
652.50901393765162
 31
0.0
  0
LINE
  5
1B76E
  8
SU
 10
819.3142194372972
 20
641.02774040417046
 30
0.0
 11
819.3142194372972
 21
652.62901393765151
 31
0.0
  0
LINE
  5
1B76F
  8
SU
 10
819.51421943729747
 20
640.90774040417057
 30
0.0
 11
819.51421943729747
 21
652.74901393765163
 31
0.0
  0
LINE
  5
1B772
  8
SU
 10
1039.406712835942
 20
457.13635458383141
 30
0.0
 11
1039.406712835942
 21
477.13635458383152
 31
0.0
  0
LINE
  5
1B773
  8
SU
 10
1031.906712835942
 20
474.13635458383141
 30
0.0
 11
1039.406712835942
 21
474.13635458383141
 31
0.0
  0
LINE
  5
1B774
  8
SU
 10
1035.656712835942
 20
474.13635458383141
 30
0.0
 11
1029.8792849244751
 21
489.13635458383152
 31
0.0
  0
LINE
  5
1B775
  8
SU
 10
1029.8792849244751
 20
489.13635458383152
 30
0.0
 11
963.53528492447515
 21
489.13635458383152
 31
0.0
  0
LINE
  5
1B778
  8
SU
 10
241.50000104609541
 20
482.2476499518495
 30
0.0
 11
241.50000104609541
 21
468.2476499518495
 31
0.0
  0
LINE
  5
1B779
  8
SU
 10
353.50000299064249
 20
482.2476499518495
 30
0.0
 11
353.50000299064249
 21
468.2476499518495
 31
0.0
  0
LINE
  5
1B77A
  8
SU
 10
241.50000104609541
 20
471.2476499518495
 30
0.0
 11
353.50000299064249
 21
471.2476499518495
 31
0.0
  0
LINE
  5
1B77E
  8
SU
 10
434.14203900721958
 20
215.7947028233325
 30
0.0
 11
428.14203900721958
 21
205.7947028233325
 31
0.0
  0
LINE
  5
1B77F
  8
SU
 10
422.14203900721958
 20
215.7947028233325
 30
0.0
 11
428.14203900721958
 21
205.7947028233325
 31
0.0
  0
LINE
  5
1B780
  8
SU
 10
434.14203900721958
 20
215.7947028233325
 30
0.0
 11
422.14203900721958
 21
215.7947028233325
 31
0.0
  0
LINE
  5
1B781
  8
SU
 10
428.18267577396023
 20
205.8624307678997
 30
0.0
 11
428.10140224047922
 21
205.8624307678997
 31
0.0
  0
LINE
  5
1B782
  8
SU
 10
428.30267577396012
 20
206.0624307678996
 30
0.0
 11
427.98140224047933
 21
206.0624307678996
 31
0.0
  0
LINE
  5
1B783
  8
SU
 10
428.42267577396018
 20
206.26243076789979
 30
0.0
 11
427.86140224047921
 21
206.26243076789979
 31
0.0
  0
LINE
  5
1B784
  8
SU
 10
428.54267577396013
 20
206.46243076789969
 30
0.0
 11
427.74140224047909
 21
206.46243076789969
 31
0.0
  0
LINE
  5
1B785
  8
SU
 10
428.66267577396002
 20
206.66243076789991
 30
0.0
 11
427.62140224047931
 21
206.66243076789991
 31
0.0
  0
LINE
  5
1B786
  8
SU
 10
428.78267577396008
 20
206.86243076789981
 30
0.0
 11
427.50140224047942
 21
206.86243076789981
 31
0.0
  0
LINE
  5
1B787
  8
SU
 10
428.9026757739602
 20
207.0624307678996
 30
0.0
 11
427.38140224047919
 21
207.0624307678996
 31
0.0
  0
LINE
  5
1B788
  8
SU
 10
429.02267577396009
 20
207.26243076789979
 30
0.0
 11
427.26140224047907
 21
207.26243076789979
 31
0.0
  0
LINE
  5
1B789
  8
SU
 10
429.14267577395998
 20
207.4624307678996
 30
0.0
 11
427.14140224047918
 21
207.4624307678996
 31
0.0
  0
LINE
  5
1B78A
  8
SU
 10
429.26267577395993
 20
207.66243076789991
 30
0.0
 11
427.02140224047929
 21
207.66243076789991
 31
0.0
  0
LINE
  5
1B78B
  8
SU
 10
429.38267577396022
 20
207.8624307678997
 30
0.0
 11
426.90140224047917
 21
207.8624307678997
 31
0.0
  0
LINE
  5
1B78C
  8
SU
 10
429.50267577396011
 20
208.0624307678996
 30
0.0
 11
426.78140224047911
 21
208.0624307678996
 31
0.0
  0
LINE
  5
1B78D
  8
SU
 10
429.62267577396
 20
208.26243076789979
 30
0.0
 11
426.66140224047922
 21
208.26243076789979
 31
0.0
  0
LINE
  5
1B78E
  8
SU
 10
429.74267577396012
 20
208.46243076789969
 30
0.0
 11
426.54140224047927
 21
208.46243076789969
 31
0.0
  0
LINE
  5
1B78F
  8
SU
 10
429.86267577396001
 20
208.66243076789991
 30
0.0
 11
426.4214022404791
 21
208.66243076789991
 31
0.0
  0
LINE
  5
1B790
  8
SU
 10
429.98267577396018
 20
208.86243076789981
 30
0.0
 11
426.30140224047932
 21
208.86243076789981
 31
0.0
  0
LINE
  5
1B791
  8
SU
 10
430.10267577396007
 20
209.0624307678996
 30
0.0
 11
426.1814022404792
 21
209.0624307678996
 31
0.0
  0
LINE
  5
1B792
  8
SU
 10
430.22267577396008
 20
209.26243076789979
 30
0.0
 11
426.06140224047931
 21
209.26243076789979
 31
0.0
  0
LINE
  5
1B793
  8
SU
 10
430.34267577396002
 20
209.4624307678996
 30
0.0
 11
425.94140224047919
 21
209.4624307678996
 31
0.0
  0
LINE
  5
1B794
  8
SU
 10
430.4626757739602
 20
209.66243076789991
 30
0.0
 11
425.8214022404793
 21
209.66243076789991
 31
0.0
  0
LINE
  5
1B795
  8
SU
 10
430.58267577396009
 20
209.8624307678997
 30
0.0
 11
425.70140224047913
 21
209.8624307678997
 31
0.0
  0
LINE
  5
1B796
  8
SU
 10
430.70267577395992
 20
210.0624307678996
 30
0.0
 11
425.58140224047918
 21
210.0624307678996
 31
0.0
  0
LINE
  5
1B797
  8
SU
 10
430.8226757739601
 20
210.26243076789979
 30
0.0
 11
425.46140224047912
 21
210.26243076789979
 31
0.0
  0
LINE
  5
1B798
  8
SU
 10
430.9426757739601
 20
210.46243076789969
 30
0.0
 11
425.34140224047923
 21
210.46243076789969
 31
0.0
  0
LINE
  5
1B799
  8
SU
 10
431.06267577396
 20
210.66243076789991
 30
0.0
 11
425.22140224047911
 21
210.66243076789991
 31
0.0
  0
LINE
  5
1B79A
  8
SU
 10
431.18267577396023
 20
210.86243076789981
 30
0.0
 11
425.10140224047927
 21
210.86243076789981
 31
0.0
  0
LINE
  5
1B79B
  8
SU
 10
431.30267577396012
 20
211.0624307678996
 30
0.0
 11
424.98140224047938
 21
211.0624307678996
 31
0.0
  0
LINE
  5
1B79C
  8
SU
 10
431.42267577396018
 20
211.2624307678999
 30
0.0
 11
424.86140224047921
 21
211.2624307678999
 31
0.0
  0
LINE
  5
1B79D
  8
SU
 10
431.54267577396013
 20
211.46243076789969
 30
0.0
 11
424.74140224047909
 21
211.46243076789969
 31
0.0
  0
LINE
  5
1B79E
  8
SU
 10
431.66267577396002
 20
211.66243076789991
 30
0.0
 11
424.6214022404792
 21
211.66243076789991
 31
0.0
  0
LINE
  5
1B79F
  8
SU
 10
431.78267577396008
 20
211.8624307678997
 30
0.0
 11
424.50140224047931
 21
211.8624307678997
 31
0.0
  0
LINE
  5
1B7A0
  8
SU
 10
431.9026757739602
 20
212.0624307678996
 30
0.0
 11
424.38140224047919
 21
212.0624307678996
 31
0.0
  0
LINE
  5
1B7A1
  8
SU
 10
432.02267577396009
 20
212.26243076789979
 30
0.0
 11
424.26140224047907
 21
212.26243076789979
 31
0.0
  0
LINE
  5
1B7A2
  8
SU
 10
432.14267577395998
 20
212.46243076789969
 30
0.0
 11
424.14140224047918
 21
212.46243076789969
 31
0.0
  0
LINE
  5
1B7A3
  8
SU
 10
432.26267577395993
 20
212.66243076789991
 30
0.0
 11
424.02140224047929
 21
212.66243076789991
 31
0.0
  0
LINE
  5
1B7A4
  8
SU
 10
432.38267577396027
 20
212.86243076789981
 30
0.0
 11
423.90140224047917
 21
212.86243076789981
 31
0.0
  0
LINE
  5
1B7A5
  8
SU
 10
432.50267577396011
 20
213.0624307678996
 30
0.0
 11
423.78140224047911
 21
213.0624307678996
 31
0.0
  0
LINE
  5
1B7A6
  8
SU
 10
432.62267577396
 20
213.2624307678999
 30
0.0
 11
423.66140224047922
 21
213.2624307678999
 31
0.0
  0
LINE
  5
1B7A7
  8
SU
 10
432.74267577396012
 20
213.46243076789969
 30
0.0
 11
423.54140224047927
 21
213.46243076789969
 31
0.0
  0
LINE
  5
1B7A8
  8
SU
 10
432.86267577396001
 20
213.66243076789991
 30
0.0
 11
423.42140224047921
 21
213.66243076789991
 31
0.0
  0
LINE
  5
1B7A9
  8
SU
 10
432.98267577396018
 20
213.8624307678997
 30
0.0
 11
423.30140224047932
 21
213.8624307678997
 31
0.0
  0
LINE
  5
1B7AA
  8
SU
 10
433.10267577396002
 20
214.0624307678996
 30
0.0
 11
423.18140224047909
 21
214.0624307678996
 31
0.0
  0
LINE
  5
1B7AB
  8
SU
 10
433.22267577396019
 20
214.26243076789979
 30
0.0
 11
423.0614022404792
 21
214.26243076789979
 31
0.0
  0
LINE
  5
1B7AC
  8
SU
 10
433.34267577396008
 20
214.46243076789969
 30
0.0
 11
422.94140224047919
 21
214.46243076789969
 31
0.0
  0
LINE
  5
1B7AD
  8
SU
 10
433.46267577396009
 20
214.66243076789991
 30
0.0
 11
422.8214022404793
 21
214.66243076789991
 31
0.0
  0
LINE
  5
1B7AE
  8
SU
 10
433.58267577395998
 20
214.86243076789981
 30
0.0
 11
422.70140224047918
 21
214.86243076789981
 31
0.0
  0
LINE
  5
1B7AF
  8
SU
 10
433.70267577395992
 20
215.0624307678996
 30
0.0
 11
422.58140224047929
 21
215.0624307678996
 31
0.0
  0
LINE
  5
1B7B0
  8
SU
 10
433.8226757739601
 20
215.2624307678999
 30
0.0
 11
422.46140224047912
 21
215.2624307678999
 31
0.0
  0
LINE
  5
1B7B1
  8
SU
 10
433.94267577396022
 20
215.46243076789969
 30
0.0
 11
422.34140224047923
 21
215.46243076789969
 31
0.0
  0
LINE
  5
1B7B2
  8
SU
 10
434.06267577396011
 20
215.66243076789991
 30
0.0
 11
422.22140224047911
 21
215.66243076789991
 31
0.0
  0
LINE
  5
1B7B3
  8
SU
 10
422.14203900722009
 20
592.24764995184978
 30
0.0
 11
428.14203900722009
 21
602.24764995184967
 31
0.0
  0
LINE
  5
1B7B4
  8
SU
 10
434.14203900722009
 20
592.24764995184978
 30
0.0
 11
428.14203900722009
 21
602.24764995184967
 31
0.0
  0
LINE
  5
1B7B5
  8
SU
 10
422.14203900722009
 20
592.24764995184978
 30
0.0
 11
434.14203900722009
 21
592.24764995184978
 31
0.0
  0
LINE
  5
1B7B6
  8
SU
 10
428.10140224047962
 20
602.17992200728258
 30
0.0
 11
428.1826757739604
 21
602.17992200728258
 31
0.0
  0
LINE
  5
1B7B7
  8
SU
 10
427.98140224047972
 20
601.97992200728265
 30
0.0
 11
428.30267577396029
 21
601.97992200728265
 31
0.0
  0
LINE
  5
1B7B8
  8
SU
 10
427.86140224047949
 20
601.77992200728238
 30
0.0
 11
428.42267577396052
 21
601.77992200728238
 31
0.0
  0
LINE
  5
1B7B9
  8
SU
 10
427.7414022404796
 20
601.57992200728256
 30
0.0
 11
428.54267577396058
 21
601.57992200728256
 31
0.0
  0
LINE
  5
1B7BA
  8
SU
 10
427.62140224047971
 20
601.3799220072824
 30
0.0
 11
428.66267577396047
 21
601.3799220072824
 31
0.0
  0
LINE
  5
1B7BB
  8
SU
 10
427.50140224047959
 20
601.17992200728247
 30
0.0
 11
428.78267577396042
 21
601.17992200728247
 31
0.0
  0
LINE
  5
1B7BC
  8
SU
 10
427.38140224047947
 20
600.97992200728265
 30
0.0
 11
428.90267577396048
 21
600.97992200728265
 31
0.0
  0
LINE
  5
1B7BD
  8
SU
 10
427.26140224047958
 20
600.77992200728249
 30
0.0
 11
429.0226757739606
 21
600.77992200728249
 31
0.0
  0
LINE
  5
1B7BE
  8
SU
 10
427.14140224047969
 20
600.57992200728268
 30
0.0
 11
429.14267577396049
 21
600.57992200728268
 31
0.0
  0
LINE
  5
1B7BF
  8
SU
 10
427.02140224047992
 20
600.37992200728229
 30
0.0
 11
429.26267577396038
 21
600.37992200728229
 31
0.0
  0
LINE
  5
1B7C0
  8
SU
 10
426.90140224047951
 20
600.17992200728247
 30
0.0
 11
429.3826757739605
 21
600.17992200728247
 31
0.0
  0
LINE
  5
1B7C1
  8
SU
 10
426.78140224047962
 20
599.97992200728265
 30
0.0
 11
429.50267577396068
 21
599.97992200728265
 31
0.0
  0
LINE
  5
1B7C2
  8
SU
 10
426.66140224047967
 20
599.77992200728249
 30
0.0
 11
429.62267577396062
 21
599.77992200728249
 31
0.0
  0
LINE
  5
1B7C3
  8
SU
 10
426.54140224047961
 20
599.57992200728256
 30
0.0
 11
429.74267577396051
 21
599.57992200728256
 31
0.0
  0
LINE
  5
1B7C4
  8
SU
 10
426.42140224047972
 20
599.3799220072824
 30
0.0
 11
429.86267577396052
 21
599.3799220072824
 31
0.0
  0
LINE
  5
1B7C5
  8
SU
 10
426.3014022404796
 20
599.17992200728258
 30
0.0
 11
429.98267577396041
 21
599.17992200728258
 31
0.0
  0
LINE
  5
1B7C6
  8
SU
 10
426.18140224047971
 20
598.97992200728277
 30
0.0
 11
430.10267577396053
 21
598.97992200728277
 31
0.0
  0
LINE
  5
1B7C7
  8
SU
 10
426.06140224047948
 20
598.77992200728238
 30
0.0
 11
430.22267577396042
 21
598.77992200728238
 31
0.0
  0
LINE
  5
1B7C8
  8
SU
 10
425.94140224047959
 20
598.57992200728256
 30
0.0
 11
430.34267577396059
 21
598.57992200728256
 31
0.0
  0
LINE
  5
1B7C9
  8
SU
 10
425.82140224047947
 20
598.3799220072824
 30
0.0
 11
430.46267577396048
 21
598.3799220072824
 31
0.0
  0
LINE
  5
1B7CA
  8
SU
 10
425.70140224047958
 20
598.17992200728258
 30
0.0
 11
430.58267577396049
 21
598.17992200728258
 31
0.0
  0
LINE
  5
1B7CB
  8
SU
 10
425.5814022404798
 20
597.97992200728265
 30
0.0
 11
430.70267577396038
 21
597.97992200728265
 31
0.0
  0
LINE
  5
1B7CC
  8
SU
 10
425.46140224047969
 20
597.77992200728238
 30
0.0
 11
430.82267577396061
 21
597.77992200728238
 31
0.0
  0
LINE
  5
1B7CD
  8
SU
 10
425.34140224047951
 20
597.57992200728256
 30
0.0
 11
430.9426757739605
 21
597.57992200728256
 31
0.0
  0
LINE
  5
1B7CE
  8
SU
 10
425.22140224047962
 20
597.3799220072824
 30
0.0
 11
431.06267577396062
 21
597.3799220072824
 31
0.0
  0
LINE
  5
1B7CF
  8
SU
 10
425.1014022404795
 20
597.17992200728247
 30
0.0
 11
431.18267577396051
 21
597.17992200728247
 31
0.0
  0
LINE
  5
1B7D0
  8
SU
 10
424.98140224047961
 20
596.97992200728265
 30
0.0
 11
431.3026757739604
 21
596.97992200728265
 31
0.0
  0
LINE
  5
1B7D1
  8
SU
 10
424.86140224047949
 20
596.77992200728249
 30
0.0
 11
431.42267577396041
 21
596.77992200728249
 31
0.0
  0
LINE
  5
1B7D2
  8
SU
 10
424.7414022404796
 20
596.57992200728268
 30
0.0
 11
431.54267577396058
 21
596.57992200728268
 31
0.0
  0
LINE
  5
1B7D3
  8
SU
 10
424.62140224047982
 20
596.37992200728229
 30
0.0
 11
431.66267577396047
 21
596.37992200728229
 31
0.0
  0
LINE
  5
1B7D4
  8
SU
 10
424.50140224047959
 20
596.17992200728247
 30
0.0
 11
431.78267577396042
 21
596.17992200728247
 31
0.0
  0
LINE
  5
1B7D5
  8
SU
 10
424.38140224047947
 20
595.97992200728265
 30
0.0
 11
431.90267577396048
 21
595.97992200728265
 31
0.0
  0
LINE
  5
1B7D6
  8
SU
 10
424.26140224047958
 20
595.77992200728249
 30
0.0
 11
432.0226757739606
 21
595.77992200728249
 31
0.0
  0
LINE
  5
1B7D7
  8
SU
 10
424.14140224047969
 20
595.57992200728256
 30
0.0
 11
432.14267577396049
 21
595.57992200728256
 31
0.0
  0
LINE
  5
1B7D8
  8
SU
 10
424.0214022404798
 20
595.3799220072824
 30
0.0
 11
432.26267577396038
 21
595.3799220072824
 31
0.0
  0
LINE
  5
1B7D9
  8
SU
 10
423.90140224047951
 20
595.17992200728258
 30
0.0
 11
432.3826757739605
 21
595.17992200728258
 31
0.0
  0
LINE
  5
1B7DA
  8
SU
 10
423.78140224047962
 20
594.97992200728277
 30
0.0
 11
432.50267577396062
 21
594.97992200728277
 31
0.0
  0
LINE
  5
1B7DB
  8
SU
 10
423.66140224047967
 20
594.77992200728238
 30
0.0
 11
432.62267577396051
 21
594.77992200728238
 31
0.0
  0
LINE
  5
1B7DC
  8
SU
 10
423.5414022404795
 20
594.57992200728256
 30
0.0
 11
432.7426757739604
 21
594.57992200728256
 31
0.0
  0
LINE
  5
1B7DD
  8
SU
 10
423.42140224047972
 20
594.3799220072824
 30
0.0
 11
432.86267577396058
 21
594.3799220072824
 31
0.0
  0
LINE
  5
1B7DE
  8
SU
 10
423.3014022404796
 20
594.17992200728258
 30
0.0
 11
432.98267577396052
 21
594.17992200728258
 31
0.0
  0
LINE
  5
1B7DF
  8
SU
 10
423.18140224047971
 20
593.97992200728265
 30
0.0
 11
433.10267577396053
 21
593.97992200728265
 31
0.0
  0
LINE
  5
1B7E0
  8
SU
 10
423.06140224047959
 20
593.77992200728238
 30
0.0
 11
433.22267577396042
 21
593.77992200728238
 31
0.0
  0
LINE
  5
1B7E1
  8
SU
 10
422.9414022404797
 20
593.57992200728256
 30
0.0
 11
433.34267577396059
 21
593.57992200728256
 31
0.0
  0
LINE
  5
1B7E2
  8
SU
 10
422.82140224047947
 20
593.3799220072824
 30
0.0
 11
433.46267577396048
 21
593.3799220072824
 31
0.0
  0
LINE
  5
1B7E3
  8
SU
 10
422.70140224047958
 20
593.17992200728247
 30
0.0
 11
433.5826757739606
 21
593.17992200728247
 31
0.0
  0
LINE
  5
1B7E4
  8
SU
 10
422.58140224047969
 20
592.97992200728265
 30
0.0
 11
433.70267577396049
 21
592.97992200728265
 31
0.0
  0
LINE
  5
1B7E5
  8
SU
 10
422.46140224047957
 20
592.77992200728249
 30
0.0
 11
433.8226757739605
 21
592.77992200728249
 31
0.0
  0
LINE
  5
1B7E6
  8
SU
 10
422.34140224047951
 20
592.57992200728268
 30
0.0
 11
433.94267577396039
 21
592.57992200728268
 31
0.0
  0
LINE
  5
1B7E7
  8
SU
 10
422.22140224047968
 20
592.37992200728229
 30
0.0
 11
434.06267577396062
 21
592.37992200728229
 31
0.0
  0
LINE
  5
1B7E8
  8
SU
 10
1029.40671283594
 20
136.8534873754752
 30
0.0
 11
1039.40671283594
 21
130.8534873754752
 31
0.0
  0
LINE
  5
1B7E9
  8
SU
 10
1029.40671283594
 20
124.8534873754752
 30
0.0
 11
1039.40671283594
 21
130.8534873754752
 31
0.0
  0
LINE
  5
1B7EA
  8
SU
 10
1029.40671283594
 20
136.8534873754752
 30
0.0
 11
1029.40671283594
 21
124.8534873754752
 31
0.0
  0
LINE
  5
1B7EB
  8
SU
 10
1039.3389848913721
 20
130.89412414221579
 30
0.0
 11
1039.3389848913721
 21
130.81285060873481
 31
0.0
  0
LINE
  5
1B7EC
  8
SU
 10
1039.138984891373
 20
131.01412414221559
 30
0.0
 11
1039.138984891373
 21
130.69285060873489
 31
0.0
  0
LINE
  5
1B7ED
  8
SU
 10
1038.938984891372
 20
131.1341241422158
 30
0.0
 11
1038.938984891372
 21
130.5728506087348
 31
0.0
  0
LINE
  5
1B7EE
  8
SU
 10
1038.7389848913731
 20
131.25412414221569
 30
0.0
 11
1038.7389848913731
 21
130.45285060873471
 31
0.0
  0
LINE
  5
1B7EF
  8
SU
 10
1038.5389848913719
 20
131.37412414221561
 30
0.0
 11
1038.5389848913719
 21
130.33285060873479
 31
0.0
  0
LINE
  5
1B7F0
  8
SU
 10
1038.338984891373
 20
131.4941241422157
 30
0.0
 11
1038.338984891373
 21
130.2128506087349
 31
0.0
  0
LINE
  5
1B7F1
  8
SU
 10
1038.138984891373
 20
131.61412414221579
 30
0.0
 11
1038.138984891373
 21
130.09285060873481
 31
0.0
  0
LINE
  5
1B7F2
  8
SU
 10
1037.938984891372
 20
131.73412414221571
 30
0.0
 11
1037.938984891372
 21
129.97285060873469
 31
0.0
  0
LINE
  5
1B7F3
  8
SU
 10
1037.7389848913731
 20
131.8541241422156
 30
0.0
 11
1037.7389848913731
 21
129.8528506087348
 31
0.0
  0
LINE
  5
1B7F4
  8
SU
 10
1037.5389848913719
 20
131.97412414221549
 30
0.0
 11
1037.5389848913719
 21
129.73285060873491
 31
0.0
  0
LINE
  5
1B7F5
  8
SU
 10
1037.3389848913721
 20
132.0941241422158
 30
0.0
 11
1037.3389848913721
 21
129.61285060873479
 31
0.0
  0
LINE
  5
1B7F6
  8
SU
 10
1037.138984891373
 20
132.2141241422157
 30
0.0
 11
1037.138984891373
 21
129.49285060873461
 31
0.0
  0
LINE
  5
1B7F7
  8
SU
 10
1036.9389848913729
 20
132.33412414221559
 30
0.0
 11
1036.9389848913729
 21
129.37285060873481
 31
0.0
  0
LINE
  5
1B7F8
  8
SU
 10
1036.7389848913731
 20
132.4541241422157
 30
0.0
 11
1036.7389848913731
 21
129.25285060873489
 31
0.0
  0
LINE
  5
1B7F9
  8
SU
 10
1036.5389848913719
 20
132.5741241422156
 30
0.0
 11
1036.5389848913719
 21
129.1328506087348
 31
0.0
  0
LINE
  5
1B7FA
  8
SU
 10
1036.338984891373
 20
132.69412414221571
 30
0.0
 11
1036.338984891373
 21
129.01285060873491
 31
0.0
  0
LINE
  5
1B7FB
  8
SU
 10
1036.138984891373
 20
132.8141241422156
 30
0.0
 11
1036.138984891373
 21
128.8928506087347
 31
0.0
  0
LINE
  5
1B7FC
  8
SU
 10
1035.938984891372
 20
132.93412414221569
 30
0.0
 11
1035.938984891372
 21
128.77285060873481
 31
0.0
  0
LINE
  5
1B7FD
  8
SU
 10
1035.7389848913731
 20
133.05412414221561
 30
0.0
 11
1035.7389848913731
 21
128.6528506087347
 31
0.0
  0
LINE
  5
1B7FE
  8
SU
 10
1035.5389848913719
 20
133.1741241422157
 30
0.0
 11
1035.5389848913719
 21
128.5328506087348
 31
0.0
  0
LINE
  5
1B7FF
  8
SU
 10
1035.338984891373
 20
133.29412414221559
 30
0.0
 11
1035.338984891373
 21
128.41285060873469
 31
0.0
  0
LINE
  5
1B800
  8
SU
 10
1035.138984891373
 20
133.41412414221551
 30
0.0
 11
1035.138984891373
 21
128.2928506087348
 31
0.0
  0
LINE
  5
1B801
  8
SU
 10
1034.9389848913729
 20
133.5341241422156
 30
0.0
 11
1034.9389848913729
 21
128.17285060873471
 31
0.0
  0
LINE
  5
1B802
  8
SU
 10
1034.7389848913731
 20
133.65412414221581
 30
0.0
 11
1034.7389848913731
 21
128.05285060873479
 31
0.0
  0
LINE
  5
1B803
  8
SU
 10
1034.5389848913719
 20
133.7741241422157
 30
0.0
 11
1034.5389848913719
 21
127.9328506087347
 31
0.0
  0
LINE
  5
1B804
  8
SU
 10
1034.338984891373
 20
133.89412414221579
 30
0.0
 11
1034.338984891373
 21
127.81285060873481
 31
0.0
  0
LINE
  5
1B805
  8
SU
 10
1034.138984891373
 20
134.01412414221559
 30
0.0
 11
1034.138984891373
 21
127.6928506087349
 31
0.0
  0
LINE
  5
1B806
  8
SU
 10
1033.938984891372
 20
134.1341241422158
 30
0.0
 11
1033.938984891372
 21
127.5728506087348
 31
0.0
  0
LINE
  5
1B807
  8
SU
 10
1033.7389848913731
 20
134.25412414221569
 30
0.0
 11
1033.7389848913731
 21
127.45285060873471
 31
0.0
  0
LINE
  5
1B808
  8
SU
 10
1033.5389848913719
 20
134.37412414221561
 30
0.0
 11
1033.5389848913719
 21
127.3328506087348
 31
0.0
  0
LINE
  5
1B809
  8
SU
 10
1033.3389848913721
 20
134.4941241422157
 30
0.0
 11
1033.3389848913721
 21
127.2128506087349
 31
0.0
  0
LINE
  5
1B80A
  8
SU
 10
1033.138984891373
 20
134.61412414221579
 30
0.0
 11
1033.138984891373
 21
127.09285060873481
 31
0.0
  0
LINE
  5
1B80B
  8
SU
 10
1032.9389848913729
 20
134.73412414221571
 30
0.0
 11
1032.9389848913729
 21
126.9728506087347
 31
0.0
  0
LINE
  5
1B80C
  8
SU
 10
1032.7389848913731
 20
134.8541241422156
 30
0.0
 11
1032.7389848913731
 21
126.8528506087348
 31
0.0
  0
LINE
  5
1B80D
  8
SU
 10
1032.5389848913719
 20
134.97412414221549
 30
0.0
 11
1032.5389848913719
 21
126.73285060873491
 31
0.0
  0
LINE
  5
1B80E
  8
SU
 10
1032.338984891373
 20
135.0941241422158
 30
0.0
 11
1032.338984891373
 21
126.6128506087348
 31
0.0
  0
LINE
  5
1B80F
  8
SU
 10
1032.138984891373
 20
135.2141241422157
 30
0.0
 11
1032.138984891373
 21
126.4928506087346
 31
0.0
  0
LINE
  5
1B810
  8
SU
 10
1031.9389848913729
 20
135.33412414221559
 30
0.0
 11
1031.9389848913729
 21
126.37285060873469
 31
0.0
  0
LINE
  5
1B811
  8
SU
 10
1031.7389848913731
 20
135.4541241422157
 30
0.0
 11
1031.7389848913731
 21
126.2528506087349
 31
0.0
  0
LINE
  5
1B812
  8
SU
 10
1031.5389848913719
 20
135.5741241422156
 30
0.0
 11
1031.5389848913719
 21
126.1328506087348
 31
0.0
  0
LINE
  5
1B813
  8
SU
 10
1031.3389848913721
 20
135.69412414221571
 30
0.0
 11
1031.3389848913721
 21
126.01285060873489
 31
0.0
  0
LINE
  5
1B814
  8
SU
 10
1031.138984891373
 20
135.8141241422156
 30
0.0
 11
1031.138984891373
 21
125.8928506087347
 31
0.0
  0
LINE
  5
1B815
  8
SU
 10
1030.938984891372
 20
135.93412414221569
 30
0.0
 11
1030.938984891372
 21
125.7728506087348
 31
0.0
  0
LINE
  5
1B816
  8
SU
 10
1030.7389848913731
 20
136.05412414221561
 30
0.0
 11
1030.7389848913731
 21
125.6528506087347
 31
0.0
  0
LINE
  5
1B817
  8
SU
 10
1030.5389848913719
 20
136.1741241422157
 30
0.0
 11
1030.5389848913719
 21
125.5328506087348
 31
0.0
  0
LINE
  5
1B818
  8
SU
 10
1030.338984891373
 20
136.29412414221559
 30
0.0
 11
1030.338984891373
 21
125.4128506087347
 31
0.0
  0
LINE
  5
1B819
  8
SU
 10
1030.138984891373
 20
136.41412414221551
 30
0.0
 11
1030.138984891373
 21
125.2928506087348
 31
0.0
  0
LINE
  5
1B81A
  8
SU
 10
1029.938984891372
 20
136.5341241422156
 30
0.0
 11
1029.938984891372
 21
125.17285060873471
 31
0.0
  0
LINE
  5
1B81B
  8
SU
 10
1029.7389848913731
 20
136.65412414221581
 30
0.0
 11
1029.7389848913731
 21
125.0528506087348
 31
0.0
  0
LINE
  5
1B81C
  8
SU
 10
1029.5389848913719
 20
136.7741241422157
 30
0.0
 11
1029.5389848913719
 21
124.9328506087347
 31
0.0
  0
LINE
  5
1B81D
  8
SU
 10
514.40672634502755
 20
124.8534893095384
 30
0.0
 11
504.40672634502749
 21
130.85348930953839
 31
0.0
  0
LINE
  5
1B81E
  8
SU
 10
514.40672634502755
 20
136.85348930953839
 30
0.0
 11
504.40672634502749
 21
130.85348930953839
 31
0.0
  0
LINE
  5
1B81F
  8
SU
 10
514.40672634502755
 20
124.8534893095384
 30
0.0
 11
514.40672634502755
 21
136.85348930953839
 31
0.0
  0
LINE
  5
1B820
  8
SU
 10
504.47445428959469
 20
130.8128525427978
 30
0.0
 11
504.47445428959469
 21
130.89412607627881
 31
0.0
  0
LINE
  5
1B821
  8
SU
 10
504.67445428959451
 20
130.69285254279791
 30
0.0
 11
504.67445428959451
 21
131.01412607627859
 31
0.0
  0
LINE
  5
1B822
  8
SU
 10
504.87445428959478
 20
130.57285254279779
 30
0.0
 11
504.87445428959478
 21
131.13412607627879
 31
0.0
  0
LINE
  5
1B823
  8
SU
 10
505.0744542895946
 20
130.4528525427979
 30
0.0
 11
505.0744542895946
 21
131.25412607627891
 31
0.0
  0
LINE
  5
1B824
  8
SU
 10
505.27445428959493
 20
130.33285254279801
 30
0.0
 11
505.27445428959493
 21
131.3741260762788
 31
0.0
  0
LINE
  5
1B825
  8
SU
 10
505.47445428959469
 20
130.21285254279789
 30
0.0
 11
505.47445428959469
 21
131.49412607627869
 31
0.0
  0
LINE
  5
1B826
  8
SU
 10
505.67445428959462
 20
130.0928525427978
 30
0.0
 11
505.67445428959462
 21
131.61412607627881
 31
0.0
  0
LINE
  5
1B827
  8
SU
 10
505.87445428959478
 20
129.97285254279791
 30
0.0
 11
505.87445428959478
 21
131.7341260762789
 31
0.0
  0
LINE
  5
1B828
  8
SU
 10
506.0744542895946
 20
129.85285254279799
 30
0.0
 11
506.0744542895946
 21
131.85412607627879
 31
0.0
  0
LINE
  5
1B829
  8
SU
 10
506.27445428959481
 20
129.7328525427981
 30
0.0
 11
506.27445428959481
 21
131.97412607627871
 31
0.0
  0
LINE
  5
1B82A
  8
SU
 10
506.47445428959469
 20
129.6128525427977
 30
0.0
 11
506.47445428959469
 21
132.0941260762788
 31
0.0
  0
LINE
  5
1B82B
  8
SU
 10
506.67445428959451
 20
129.49285254279789
 30
0.0
 11
506.67445428959451
 21
132.21412607627889
 31
0.0
  0
LINE
  5
1B82C
  8
SU
 10
506.87445428959478
 20
129.372852542798
 30
0.0
 11
506.87445428959478
 21
132.33412607627881
 31
0.0
  0
LINE
  5
1B82D
  8
SU
 10
507.0744542895946
 20
129.25285254279791
 30
0.0
 11
507.0744542895946
 21
132.4541260762787
 31
0.0
  0
LINE
  5
1B82E
  8
SU
 10
507.27445428959493
 20
129.13285254279799
 30
0.0
 11
507.27445428959493
 21
132.57412607627879
 31
0.0
  0
LINE
  5
1B82F
  8
SU
 10
507.47445428959469
 20
129.0128525427979
 30
0.0
 11
507.47445428959469
 21
132.69412607627871
 31
0.0
  0
LINE
  5
1B830
  8
SU
 10
507.67445428959451
 20
128.89285254279801
 30
0.0
 11
507.67445428959451
 21
132.8141260762788
 31
0.0
  0
LINE
  5
1B831
  8
SU
 10
507.87445428959478
 20
128.77285254279781
 30
0.0
 11
507.87445428959478
 21
132.93412607627869
 31
0.0
  0
LINE
  5
1B832
  8
SU
 10
508.07445428959471
 20
128.65285254279789
 30
0.0
 11
508.07445428959471
 21
133.05412607627881
 31
0.0
  0
LINE
  5
1B833
  8
SU
 10
508.27445428959493
 20
128.5328525427978
 30
0.0
 11
508.27445428959493
 21
133.1741260762787
 31
0.0
  0
LINE
  5
1B834
  8
SU
 10
508.47445428959469
 20
128.41285254279791
 30
0.0
 11
508.47445428959469
 21
133.2941260762789
 31
0.0
  0
LINE
  5
1B835
  8
SU
 10
508.67445428959451
 20
128.29285254279799
 30
0.0
 11
508.67445428959451
 21
133.41412607627871
 31
0.0
  0
LINE
  5
1B836
  8
SU
 10
508.87445428959478
 20
128.1728525427979
 30
0.0
 11
508.87445428959478
 21
133.53412607627891
 31
0.0
  0
LINE
  5
1B837
  8
SU
 10
509.0744542895946
 20
128.05285254279781
 30
0.0
 11
509.0744542895946
 21
133.6541260762788
 31
0.0
  0
LINE
  5
1B838
  8
SU
 10
509.27445428959493
 20
127.9328525427979
 30
0.0
 11
509.27445428959493
 21
133.77412607627889
 31
0.0
  0
LINE
  5
1B839
  8
SU
 10
509.47445428959469
 20
127.8128525427978
 30
0.0
 11
509.47445428959469
 21
133.8941260762787
 31
0.0
  0
LINE
  5
1B83A
  8
SU
 10
509.67445428959462
 20
127.69285254279789
 30
0.0
 11
509.67445428959462
 21
134.01412607627859
 31
0.0
  0
LINE
  5
1B83B
  8
SU
 10
509.87445428959478
 20
127.5728525427978
 30
0.0
 11
509.87445428959478
 21
134.13412607627879
 31
0.0
  0
LINE
  5
1B83C
  8
SU
 10
510.0744542895946
 20
127.4528525427979
 30
0.0
 11
510.0744542895946
 21
134.25412607627891
 31
0.0
  0
LINE
  5
1B83D
  8
SU
 10
510.27445428959493
 20
127.33285254279799
 30
0.0
 11
510.27445428959493
 21
134.3741260762788
 31
0.0
  0
LINE
  5
1B83E
  8
SU
 10
510.47445428959469
 20
127.2128525427979
 30
0.0
 11
510.47445428959469
 21
134.49412607627869
 31
0.0
  0
LINE
  5
1B83F
  8
SU
 10
510.67445428959451
 20
127.0928525427978
 30
0.0
 11
510.67445428959451
 21
134.61412607627881
 31
0.0
  0
LINE
  5
1B840
  8
SU
 10
510.87445428959478
 20
126.9728525427979
 30
0.0
 11
510.87445428959478
 21
134.7341260762789
 31
0.0
  0
LINE
  5
1B841
  8
SU
 10
511.0744542895946
 20
126.852852542798
 30
0.0
 11
511.0744542895946
 21
134.85412607627879
 31
0.0
  0
LINE
  5
1B842
  8
SU
 10
511.27445428959493
 20
126.7328525427981
 30
0.0
 11
511.27445428959493
 21
134.97412607627871
 31
0.0
  0
LINE
  5
1B843
  8
SU
 10
511.47445428959469
 20
126.6128525427978
 30
0.0
 11
511.47445428959469
 21
135.0941260762788
 31
0.0
  0
LINE
  5
1B844
  8
SU
 10
511.67445428959451
 20
126.49285254279791
 30
0.0
 11
511.67445428959451
 21
135.21412607627889
 31
0.0
  0
LINE
  5
1B845
  8
SU
 10
511.87445428959478
 20
126.372852542798
 30
0.0
 11
511.87445428959478
 21
135.33412607627881
 31
0.0
  0
LINE
  5
1B846
  8
SU
 10
512.07445428959466
 20
126.2528525427978
 30
0.0
 11
512.07445428959466
 21
135.4541260762787
 31
0.0
  0
LINE
  5
1B847
  8
SU
 10
512.27445428959493
 20
126.13285254279801
 30
0.0
 11
512.27445428959493
 21
135.57412607627879
 31
0.0
  0
LINE
  5
1B848
  8
SU
 10
512.47445428959475
 20
126.0128525427979
 30
0.0
 11
512.47445428959475
 21
135.69412607627871
 31
0.0
  0
LINE
  5
1B849
  8
SU
 10
512.67445428959445
 20
125.892852542798
 30
0.0
 11
512.67445428959445
 21
135.8141260762788
 31
0.0
  0
LINE
  5
1B84A
  8
SU
 10
512.87445428959484
 20
125.77285254279781
 30
0.0
 11
512.87445428959484
 21
135.93412607627869
 31
0.0
  0
LINE
  5
1B84B
  8
SU
 10
513.07445428959466
 20
125.6528525427979
 30
0.0
 11
513.07445428959466
 21
136.05412607627881
 31
0.0
  0
LINE
  5
1B84C
  8
SU
 10
513.27445428959493
 20
125.5328525427978
 30
0.0
 11
513.27445428959493
 21
136.1741260762787
 31
0.0
  0
LINE
  5
1B84D
  8
SU
 10
513.47445428959475
 20
125.41285254279791
 30
0.0
 11
513.47445428959475
 21
136.29412607627879
 31
0.0
  0
LINE
  5
1B84E
  8
SU
 10
513.67445428959456
 20
125.292852542798
 30
0.0
 11
513.67445428959456
 21
136.41412607627871
 31
0.0
  0
LINE
  5
1B84F
  8
SU
 10
513.87445428959484
 20
125.1728525427979
 30
0.0
 11
513.87445428959484
 21
136.53412607627891
 31
0.0
  0
LINE
  5
1B850
  8
SU
 10
514.07445428959466
 20
125.05285254279779
 30
0.0
 11
514.07445428959466
 21
136.6541260762788
 31
0.0
  0
LINE
  5
1B851
  8
SU
 10
514.27445428959493
 20
124.9328525427979
 30
0.0
 11
514.27445428959493
 21
136.77412607627889
 31
0.0
  0
LINE
  5
1B854
  8
SU
 10
519.40672634501573
 20
457.1162811552262
 30
0.0
 11
519.40672634501573
 21
477.13635651789173
 31
0.0
  0
LINE
  5
1B855
  8
SU
 10
504.40672634501823
 20
457.11628115522598
 30
0.0
 11
504.40672634501823
 21
477.13635651789173
 31
0.0
  0
LINE
  5
1B856
  8
SU
 10
519.40672634501573
 20
474.13635651789161
 30
0.0
 11
504.40672634501823
 21
474.13635651789161
 31
0.0
  0
LINE
  5
1B85C
  8
SU
 10
809.64649149273009
 20
665.90779626366543
 30
0.0
 11
809.64649149273009
 21
643.82837717091093
 31
0.0
  0
LINE
  5
1B85D
  8
SU
 10
1068.1464914927301
 20
669.74999999999989
 30
0.0
 11
1068.1464914927301
 21
643.82837717091093
 31
0.0
  0
LINE
  5
1B85E
  8
SU
 10
809.64649149273009
 20
646.82837717091093
 30
0.0
 11
1068.1464914927301
 21
646.82837717091093
 31
0.0
  0
LINE
  5
1B860
  8
SU
 10
1082.1464914927301
 20
670.75
 30
0.0
 11
1114.5
 21
670.75
 31
0.0
  0
LINE
  5
1B861
  8
SU
 10
1092.5
 20
761.74999999999966
 30
0.0
 11
1114.5
 21
761.74999999999966
 31
0.0
  0
LINE
  5
1B862
  8
SU
 10
1111.5
 20
670.75
 30
0.0
 11
1111.5
 21
761.74999999999966
 31
0.0
  0
LINE
  5
1B868
  8
SU
 10
764.90671283594043
 20
317.2947012543961
 30
0.0
 11
807.74004617594096
 21
317.2947012543961
 31
0.0
  0
LINE
  5
1B869
  8
SU
 10
804.74004617594096
 20
313.29469436430878
 30
0.0
 11
804.74004617594096
 21
317.2947012543961
 31
0.0
  0
LINE
  5
1B86A
  8
SU
 10
804.74004617594096
 20
317.2947012543961
 30
0.0
 11
804.74004617594096
 21
340.56136792106281
 31
0.0
  0
LINE
  5
1B86D
  8
SU
 10
703.40669433471476
 20
313.29469436430878
 30
0.0
 11
807.74004617594085
 21
313.29469436430878
 31
0.0
  0
LINE
  5
1B86E
  8
SU
 10
804.74004617594085
 20
313.29469436430878
 30
0.0
 11
804.74004617594085
 21
280.29469436430912
 31
0.0
  0
LINE
  5
1B871
  8
SU
 10
703.40669433471658
 20
280.29469436430912
 30
0.0
 11
807.74004617594085
 21
280.29469436430912
 31
0.0
  0
LINE
  5
1B872
  8
SU
 10
804.74004617594085
 20
277.29469400129392
 30
0.0
 11
804.74004617594085
 21
280.29469436430912
 31
0.0
  0
LINE
  5
1B875
  8
SU
 10
840.40670497883241
 20
241.29465556225909
 30
0.0
 11
801.74004617594073
 21
241.29465556225909
 31
0.0
  0
LINE
  5
1B876
  8
SU
 10
840.40671295681295
 20
208.2947028661134
 30
0.0
 11
801.74004617594073
 21
208.29470286611351
 31
0.0
  0
LINE
  5
1B877
  8
SU
 10
804.74004617594085
 20
241.29465556225909
 30
0.0
 11
804.74004617594085
 21
208.29470286611351
 31
0.0
  0
LINE
  5
1B87B
  8
SU
 10
703.40669627555496
 20
277.29469400129392
 30
0.0
 11
807.74004617594096
 21
277.29469400129392
 31
0.0
  0
LINE
  5
1B87C
  8
SU
 10
804.74004617594085
 20
277.29469400129392
 30
0.0
 11
804.74004617594085
 21
244.2946940012958
 31
0.0
  0
LINE
  5
1B87F
  8
SU
 10
840.40670425354915
 20
244.29470243972949
 30
0.0
 11
801.74004617594073
 21
244.29470243972949
 31
0.0
  0
LINE
  5
1B880
  8
SU
 10
804.74004617594085
 20
241.29465556225909
 30
0.0
 11
804.74004617594085
 21
244.29470243972949
 31
0.0
  0
LINE
  5
1B883
  8
SU
 10
808.71481961591985
 20
429.13635926209878
 30
0.0
 11
822.74004617594085
 21
429.13635926209878
 31
0.0
  0
LINE
  5
1B884
  8
SU
 10
808.71481961591985
 20
317.29470494688258
 30
0.0
 11
822.74004617594085
 21
317.29470494688258
 31
0.0
  0
LINE
  5
1B885
  8
SU
 10
819.74004617594085
 20
429.13635926209878
 30
0.0
 11
819.74004617594085
 21
317.29470494688258
 31
0.0
  0
LINE
  5
1B889
  8
SU
 10
1100.5
 20
536.51901323567006
 30
0.0
 11
1100.5
 21
313.29470125439587
 31
0.0
  0
LINE
  5
1B88C
  8
SU
 10
763.90671283594327
 20
318.29470125439587
 30
0.0
 11
763.90671283594327
 21
341.05689989834502
 31
0.0
  0
LINE
  5
1B88D
  8
SU
 10
711.4066978764705
 20
302.49469607541818
 30
0.0
 11
711.4066978764705
 21
341.05689989834502
 31
0.0
  0
LINE
  5
1B88E
  8
SU
 10
763.90671283594327
 20
338.05689989834502
 30
0.0
 11
711.4066978764705
 21
338.05689989834502
 31
0.0
  0
LINE
  5
1B892
  8
SU
 10
1052.906712835925
 20
429.1363555696102
 30
0.0
 11
1088.5
 21
429.1363555696102
 31
0.0
  0
LINE
  5
1B893
  8
SU
 10
1085.5
 20
313.29470125439587
 30
0.0
 11
1085.5
 21
429.1363555696102
 31
0.0
  0
LINE
  5
1B896
  8
SU
 10
1066.588571063566
 20
536.51901323567006
 30
0.0
 11
1118.5
 21
536.51901323567006
 31
0.0
  0
LINE
  5
1B897
  8
SU
 10
1066.588571063566
 20
201.2947012543957
 30
0.0
 11
1118.5
 21
201.2947012543957
 31
0.0
  0
LINE
  5
1B898
  8
SU
 10
1115.5
 20
536.51901323567006
 30
0.0
 11
1115.5
 21
201.2947012543957
 31
0.0
  0
LINE
  5
1B89C
  8
SU
 10
1052.9067128359279
 20
313.29470125439587
 30
0.0
 11
1103.5
 21
313.29470125439587
 31
0.0
  0
LINE
  5
1B89D
  8
SU
 10
1100.5
 20
201.2947012543957
 30
0.0
 11
1100.5
 21
313.29470125439587
 31
0.0
  0
LINE
  5
1B8A1
  8
SU
 10
1085.5
 20
536.51901323567006
 30
0.0
 11
1085.5
 21
429.1363555696102
 31
0.0
  0
LINE
  5
1B8A4
  8
SU
 10
745.90671283594065
 20
430.13635556961179
 30
0.0
 11
745.90671283594065
 21
447.13635556961128
 31
0.0
  0
LINE
  5
1B8A5
  8
SU
 10
763.90671283594043
 20
430.13635458383197
 30
0.0
 11
763.90671283594043
 21
447.13635556961128
 31
0.0
  0
LINE
  5
1B8A6
  8
SU
 10
745.90671283594065
 20
444.13635556961128
 30
0.0
 11
763.90671283594043
 21
444.13635556961128
 31
0.0
  0
LINE
  5
1B8AA
  8
SU
 10
891.40671283594043
 20
457.11627922116338
 30
0.0
 11
891.40671283594043
 21
477.13635458383141
 31
0.0
  0
LINE
  5
1B8AB
  8
SU
 10
871.40671283594043
 20
474.13635458383129
 30
0.0
 11
891.40671283594043
 21
474.13635458383129
 31
0.0
  0
LINE
  5
1B8AE
  8
SU
 10
871.40671283594065
 20
430.13635556961378
 30
0.0
 11
871.40671283594065
 21
447.13635556961128
 31
0.0
  0
LINE
  5
1B8AF
  8
SU
 10
853.40671283594054
 20
430.13635556961401
 30
0.0
 11
853.40671283594054
 21
447.13635556961128
 31
0.0
  0
LINE
  5
1B8B0
  8
SU
 10
871.40671283594065
 20
444.13635556961128
 30
0.0
 11
853.40671283594054
 21
444.13635556961128
 31
0.0
  0
LINE
  5
1B8B4
  8
SU
 10
745.90671283594043
 20
457.11627922116128
 30
0.0
 11
745.90671283594043
 21
477.1363545838289
 31
0.0
  0
LINE
  5
1B8B5
  8
SU
 10
725.90671283594043
 20
474.1363545838289
 30
0.0
 11
745.90671283594043
 21
474.1363545838289
 31
0.0
  0
LINE
  5
1B8B8
  8
SU
 10
1031.9067128359441
 20
430.13635556960912
 30
0.0
 11
1031.9067128359441
 21
477.13635458383249
 31
0.0
  0
LINE
  5
1B8B9
  8
SU
 10
1016.9067128359439
 20
474.13635458383249
 30
0.0
 11
1031.9067128359441
 21
474.13635458383249
 31
0.0
  0
LINE
  5
1B8BC
  8
SU
 10
871.40671283594043
 20
457.11627922116338
 30
0.0
 11
871.40671283594043
 21
477.1363545838289
 31
0.0
  0
LINE
  5
1B8BD
  8
SU
 10
745.90671283594043
 20
474.1363545838289
 30
0.0
 11
871.40671283594043
 21
474.1363545838289
 31
0.0
  0
LINE
  5
1B8C0
  8
SU
 10
725.90671283594043
 20
457.11627922115912
 30
0.0
 11
725.90671283594043
 21
477.13635651789173
 31
0.0
  0
LINE
  5
1B8C1
  8
SU
 10
519.40672634501573
 20
474.13635651789161
 30
0.0
 11
725.90671283594043
 21
474.13635651789161
 31
0.0
  0
LINE
  5
1B8C4
  8
SU
 10
1016.9067128359439
 20
457.11627922116338
 30
0.0
 11
1016.9067128359439
 21
477.13635458383141
 31
0.0
  0
LINE
  5
1B8C5
  8
SU
 10
891.40671283594043
 20
474.13635458383129
 30
0.0
 11
1016.9067128359439
 21
474.13635458383129
 31
0.0
  0
LINE
  5
1B8C8
  8
SU
 10
866.40671637806872
 20
207.2947028661134
 30
0.0
 11
866.40671637806872
 21
157.85348898719141
 31
0.0
  0
LINE
  5
1B8C9
  8
SU
 10
841.40671649894909
 20
160.85348898719141
 30
0.0
 11
866.40671637806872
 21
160.85348898719141
 31
0.0
  0
LINE
  5
1B8CD
  8
SU
 10
841.40671674070654
 20
207.29470189870489
 30
0.0
 11
841.40673231985193
 21
142.85344931773261
 31
0.0
  0
LINE
  5
1B8CE
  8
SU
 10
1030.4067130776971
 20
207.7947012543961
 30
0.0
 11
1030.40672877771
 21
142.8534950098678
 31
0.0
  0
LINE
  5
1B8CF
  8
SU
 10
841.40673159457981
 20
145.8534493177325
 30
0.0
 11
1030.406728052438
 21
145.8534950098678
 31
0.0
  0
LINE
  5
1B8D3
  8
SU
 10
513.40672634502016
 20
279.79470270456562
 30
0.0
 11
513.40672634502016
 21
142.85348930953771
 31
0.0
  0
LINE
  5
1B8D4
  8
SU
 10
504.40672634502749
 20
145.85348930953771
 30
0.0
 11
513.40672634502016
 21
145.85348930953771
 31
0.0
  0
LINE
  5
1B8D8
  8
SU
 10
1030.4067205458571
 20
145.8534933981519
 30
0.0
 11
1039.406726239258
 21
145.85349557396921
 31
0.0
  0
LINE
  5
1B8DB
  8
SU
 10
310.50000067551127
 20
497.2476499518495
 30
0.0
 11
310.50000067551127
 21
483.2476499518495
 31
0.0
  0
LINE
  5
1B8DC
  8
SU
 10
277.50000279950171
 20
486.2476499518495
 30
0.0
 11
310.50000067551127
 21
486.2476499518495
 31
0.0
  0
LINE
  5
1B8DF
  8
SU
 10
1039.40671283594
 20
200.29470125439661
 30
0.0
 11
1039.40671283594
 21
127.85348930953781
 31
0.0
  0
LINE
  5
1B8E0
  8
SU
 10
504.40672634502749
 20
183.47378151304221
 30
0.0
 11
504.40672634502749
 21
127.85348930953781
 31
0.0
  0
LINE
  5
1B8E1
  8
SU
 10
1039.40671283594
 20
130.85348930953779
 30
0.0
 11
504.40672634502749
 21
130.85348930953779
 31
0.0
  0
LINE
  5
1B8E3
  8
SU
 10
313.50000067551127
 20
497.2476499518495
 30
0.0
 11
313.50000067551127
 21
483.2476499518495
 31
0.0
  0
LINE
  5
1B8E4
  8
SU
 10
310.50000067551127
 20
486.2476499518495
 30
0.0
 11
313.50000067551127
 21
486.2476499518495
 31
0.0
  0
LINE
  5
1B8E7
  8
SU
 10
241.5000006755113
 20
497.2476499518495
 30
0.0
 11
241.5000006755113
 21
483.2476499518495
 31
0.0
  0
LINE
  5
1B8E8
  8
SU
 10
274.50000067551127
 20
497.2476499518495
 30
0.0
 11
274.50000067551127
 21
483.2476499518495
 31
0.0
  0
LINE
  5
1B8E9
  8
SU
 10
241.5000006755113
 20
486.2476499518495
 30
0.0
 11
274.50000067551127
 21
486.2476499518495
 31
0.0
  0
LINE
  5
1B8ED
  8
SU
 10
277.50000279950171
 20
497.2476499518495
 30
0.0
 11
277.50000279950171
 21
483.2476499518495
 31
0.0
  0
LINE
  5
1B8EE
  8
SU
 10
274.50000067551127
 20
486.2476499518495
 30
0.0
 11
277.50000279950171
 21
486.2476499518495
 31
0.0
  0
LINE
  5
1B8F1
  8
SU
 10
353.50000299064249
 20
497.2476499949837
 30
0.0
 11
353.50000299064249
 21
483.2476499518495
 31
0.0
  0
LINE
  5
1B8F2
  8
SU
 10
346.50000067551127
 20
486.2476499518495
 30
0.0
 11
353.50000299064249
 21
486.2476499518495
 31
0.0
  0
LINE
  5
1B8F3
  8
SU
 10
353.50000299064249
 20
486.2476499518495
 30
0.0
 11
369.57333632397581
 21
486.2476499518495
 31
0.0
  0
LINE
  5
1B8F6
  8
SU
 10
346.50000067551127
 20
497.2476499518495
 30
0.0
 11
346.50000067551127
 21
483.2476499518495
 31
0.0
  0
LINE
  5
1B8F7
  8
SU
 10
313.50000067551127
 20
486.2476499518495
 30
0.0
 11
346.50000067551127
 21
486.2476499518495
 31
0.0
  0
LINE
  5
1B8FA
  8
SU
 10
340.00001820580798
 20
173.79470125439661
 30
0.0
 11
353.50000967510141
 21
173.79470125439661
 31
0.0
  0
LINE
  5
1B8FB
  8
SU
 10
353.50000967510141
 20
173.79470125439661
 30
0.0
 11
382.57667634176812
 21
173.79470125439661
 31
0.0
  0
LINE
  5
1B8FE
  8
SU
 10
73.5
 20
192.79470125439661
 30
0.0
 11
73.5
 21
155.79470125439661
 31
0.0
  0
LINE
  5
1B8FF
  8
SU
 10
353.50000967510141
 20
204.79470282333199
 30
0.0
 11
353.50000967510141
 21
155.79470125439661
 31
0.0
  0
LINE
  5
1B900
  8
SU
 10
73.5
 20
158.79470125439661
 30
0.0
 11
353.50000967510141
 21
158.79470125439661
 31
0.0
  0
LINE
  5
1B904
  8
SU
 10
248.0000183312963
 20
204.79470125438419
 30
0.0
 11
248.0000183312963
 21
170.79470125439661
 31
0.0
  0
LINE
  5
1B905
  8
SU
 10
340.00000951993798
 20
204.79470282333199
 30
0.0
 11
340.00000951993798
 21
170.79470125439661
 31
0.0
  0
LINE
  5
1B906
  8
SU
 10
248.0000183312963
 20
173.79470125439661
 30
0.0
 11
340.00000951993798
 21
173.79470125439661
 31
0.0
  0
LINE
  5
1B90A
  8
SU
 10
379.14204454884572
 20
602.24764995184967
 30
0.0
 11
431.14203900721992
 21
602.24764995184967
 31
0.0
  0
LINE
  5
1B90B
  8
SU
 10
379.14203913270831
 20
205.79470282333199
 30
0.0
 11
431.14203900721981
 21
205.79470282333199
 31
0.0
  0
LINE
  5
1B90C
  8
SU
 10
428.14203900721992
 20
602.24764995184967
 30
0.0
 11
428.14203900721981
 21
205.79470282333199
 31
0.0
  0
LINE
  5
1B90E
  8
SU
 10
248.50000000000051
 20
645.74765303809079
 30
0.0
 11
248.50000000000051
 21
682.74764995184967
 31
0.0
  0
LINE
  5
1B90F
  8
SU
 10
248.50000000000051
 20
679.74764995184978
 30
0.0
 11
353.50000000000051
 21
679.74764995184978
 31
0.0
  0
LINE
  5
1B913
  8
SU
 10
73.5
 20
615.74764838291514
 30
0.0
 11
73.5
 21
697.74764995184967
 31
0.0
  0
LINE
  5
1B914
  8
SU
 10
73.5
 20
694.74764995184967
 30
0.0
 11
353.50000000000051
 21
694.74764995184967
 31
0.0
  0
LINE
  5
1B918
  8
SU
 10
345.24999737425912
 20
664.74764995184967
 30
0.0
 11
353.50000000000051
 21
664.74764995184967
 31
0.0
  0
LINE
  5
1B919
  8
SU
 10
353.50000000000051
 20
664.74764995184967
 30
0.0
 11
385.06666666666712
 21
664.74764995184967
 31
0.0
  0
LINE
  5
1B91C
  8
SU
 10
345.24999737425912
 20
602.74764838291401
 30
0.0
 11
345.24999737425912
 21
667.74764995184978
 31
0.0
  0
LINE
  5
1B91D
  8
SU
 10
242.7499973742591
 20
602.74764838291389
 30
0.0
 11
242.7499973742591
 21
667.74764995184978
 31
0.0
  0
LINE
  5
1B91E
  8
SU
 10
345.24999737425912
 20
664.74764995184967
 30
0.0
 11
242.7499973742591
 21
664.74764995184967
 31
0.0
  0
TEXT
  5
1B923
  8
SU
 10
411.8420390072198
 20
550.0809824687758
 30
0.0
 40
7.0
  1
9.5
 50
90.0
 41
0.8299999999999999
  0
TEXT
  5
1B924
  8
SU
 10
974.01814249764107
 20
185.6913679210634
 30
0.0
 40
7.0
  1
7
 50
90.0
 41
0.8299999999999999
  0
TEXT
  5
1B927
  8
SU
 10
212.9699375047758
 20
487.54764912493238
 30
0.0
 40
7.0
  1
4.4
 41
0.8299999999999999
  0
TEXT
  5
1B92A
  8
SU
 10
363.57000217257308
 20
502.547663658445
 30
0.0
 40
7.0
  1
2.7
 41
0.8299999999999999
  0
TEXT
  5
1B92D
  8
SU
 10
281.13496743951748
 20
502.54764995184962
 30
0.0
 40
7.0
  1
113.7
 41
0.8299999999999999
  0
TEXT
  5
1B930
  8
SU
 10
213.24666404092579
 20
666.04764995184973
 30
0.0
 40
7.0
  1
5.6
 41
0.8299999999999999
  0
TEXT
  5
1B933
  8
SU
 10
396.84203900721991
 20
537.84431580551689
 30
0.0
 40
7.0
  1
3.5
 50
90.0
 41
0.8299999999999999
  0
TEXT
  5
1B937
  8
SU
 10
411.87309387813389
 20
578.81431544872692
 30
0.0
 40
7.0
  1
27.5
 50
90.0
 41
0.8299999999999999
  0
TEXT
  5
1B938
  8
SU
 10
411.84203900721968
 20
368.164509636567
 30
0.0
 40
7.0
  1
DH=H-46
 50
90.0
 41
0.8299999999999999
  0
TEXT
  5
1B93A
  8
SU
 10
396.8420390072198
 20
190.19136792106261
 30
0.0
 40
7.0
  1
5
 50
90.0
 41
0.8299999999999999
  0
TEXT
  5
1B93F
  8
SU
 10
411.8420390072198
 20
207.666367921014
 30
0.0
 40
7.0
  1
9
 50
90.0
 41
0.8299999999999999
  0
LINE
  5
1B940
  8
SU
 10
1040.678598998559
 20
221.2594403542588
 30
0.0
 11
1064.42116836489
 21
183.26670692664689
 31
0.0
210
0.0
220
0.0
230
-1.0
1001
ACAD
1000
DSTYLE
1002
{
1070
   176
1070
   256
1070
    41
1040
1.1999999999999991
1070
    77
1070
     0
1070
   371
1070
    -1
1002
}
  0
LINE
  5
1B941
  8
SU
 10
1064.42116836489
 20
183.26670692664689
 30
0.0
 11
1151.089900355804
 21
183.26670692664689
 31
0.0
210
0.0
220
0.0
230
-1.0
1001
ACAD
1000
DSTYLE
1002
{
1070
   176
1070
   256
1070
    41
1040
1.1999999999999991
1070
    77
1070
     0
1070
   371
1070
    -1
1002
}
  0
LINE
  5
1B942
  8
SU
 10
1041.0178099125169
 20
221.47142138136249
 30
0.0
 11
1039.4067128359379
 21
223.29470583800571
 31
0.0
210
0.0
220
0.0
230
-1.0
  0
LINE
  5
1B943
  8
SU
 10
1040.339388084602
 20
221.0474593271552
 30
0.0
 11
1039.4067128359379
 21
223.29470583800571
 31
0.0
210
0.0
220
0.0
230
-1.0
  0
LINE
  5
1B944
  8
SU
 10
1039.4067128359379
 20
223.29470583800571
 30
0.0
 11
1040.678598998559
 21
221.2594403542588
 31
0.0
210
0.0
220
0.0
230
-1.0
  0
LINE
  5
1B945
  8
SU
 10
226.94955381842809
 20
233.91054345993501
 30
0.0
 11
203.512613303184
 21
173.79470125439661
 31
0.0
1001
ACAD
1000
DSTYLE
1002
{
1070
    41
1040
1.1999999999999991
1070
    77
1070
     0
1002
}
  0
LINE
  5
1B946
  8
SU
 10
203.512613303184
 20
173.79470125439661
 30
0.0
 11
186.20357826774301
 21
173.79470125439661
 31
0.0
1001
ACAD
1000
DSTYLE
1002
{
1070
    41
1040
1.1999999999999991
1070
    77
1070
     0
1002
}
  0
LINE
  5
1B947
  8
SU
 10
226.5768747112339
 20
234.05583724184231
 30
0.0
 11
227.82131650987191
 21
236.14661810310031
 31
0.0
  0
LINE
  5
1B948
  8
SU
 10
227.3222329256223
 20
233.7652496780278
 30
0.0
 11
227.82131650987191
 21
236.14661810310031
 31
0.0
  0
LINE
  5
1B949
  8
SU
 10
227.82131650987191
 20
236.14661810310031
 30
0.0
 11
226.94955381842809
 21
233.91054345993501
 31
0.0
  0
TEXT
  5
1B94B
  8
SU
 10
964.00528492447529
 20
490.43635458383147
 30
0.0
 40
7.0
  1
7.5（クリアランス）
 41
0.8299999999999999
  0
TEXT
  5
1B94C
  8
SU
 10
288.78500201836891
 20
472.54764995184951
 30
0.0
 40
7.0
  1
112
 41
0.8299999999999999
  0
LINE
  5
1B94F
  8
SU
 10
1045.018550857
 20
191.76201532012431
 30
0.0
 11
1064.42116836489
 21
160.85348580653971
 31
0.0
210
0.0
220
0.0
230
-1.0
1001
ACAD
1000
DSTYLE
1002
{
1070
    41
1040
1.1999999999999991
1070
    77
1070
     0
1002
}
  0
LINE
  5
1B950
  8
SU
 10
1064.42116836489
 20
160.85348580653971
 30
0.0
 11
1081.4109642176711
 21
160.85348580653971
 31
0.0
210
0.0
220
0.0
230
-1.0
1001
ACAD
1000
DSTYLE
1002
{
1070
    41
1040
1.1999999999999991
1070
    77
1070
     0
1002
}
  0
LINE
  5
1B951
  8
SU
 10
1045.357331846046
 20
191.9746827634753
 30
0.0
 11
1043.742546196894
 21
193.7947012543965
 31
0.0
210
0.0
220
0.0
230
-1.0
  0
LINE
  5
1B952
  8
SU
 10
1044.679769867955
 20
191.54934787677331
 30
0.0
 11
1043.742546196894
 21
193.7947012543965
 31
0.0
210
0.0
220
0.0
230
-1.0
  0
LINE
  5
1B953
  8
SU
 10
1043.742546196894
 20
193.7947012543965
 30
0.0
 11
1045.018550857
 21
191.76201532012431
 31
0.0
210
0.0
220
0.0
230
-1.0
  0
TEXT
  5
1B956
  8
SU
 10
518.95839301168371
 20
475.43635651789162
 30
0.0
 40
7.0
  1
15
 41
0.8299999999999999
  0
LINE
  5
1B957
  8
SU
 10
869.15751837010419
 20
742.88851033383958
 30
0.0
 11
883.02471338870498
 21
784.29068273086409
 31
0.0
210
0.0
220
0.0
230
-1.0
1001
ACAD
1000
DSTYLE
1002
{
1070
    41
1040
1.1999999999999991
1070
    77
1070
     0
1002
}
  0
LINE
  5
1B958
  8
SU
 10
883.02471338870498
 20
784.29068273086409
 30
0.0
 11
914.73850297570164
 21
784.29068273086409
 31
0.0
210
0.0
220
0.0
230
-1.0
1001
ACAD
1000
DSTYLE
1002
{
1070
    41
1040
1.1999999999999991
1070
    77
1070
     0
1002
}
  0
LINE
  5
1B959
  8
SU
 10
868.778228130961
 20
743.0155493612707
 30
0.0
 11
868.39528420551767
 21
740.61276889897999
 31
0.0
210
0.0
220
0.0
230
-1.0
  0
LINE
  5
1B95A
  8
SU
 10
869.53680860924749
 20
742.76147130640857
 30
0.0
 11
868.39528420551767
 21
740.61276889897999
 31
0.0
210
0.0
220
0.0
230
-1.0
  0
LINE
  5
1B95B
  8
SU
 10
868.39528420551767
 20
740.61276889897999
 30
0.0
 11
869.15751837010419
 21
742.88851033383958
 31
0.0
210
0.0
220
0.0
230
-1.0
  0
TEXT
  5
1B95C
  8
SU
 10
921.05149149273007
 20
648.12837717091077
 30
0.0
 40
7.0
  1
W=2585
 41
0.8299999999999999
  0
TEXT
  5
1B95D
  8
SU
 10
1110.2
 20
694.69766666666669
 30
0.0
 40
7.0
  1
D=910以上
 50
90.0
 41
0.8299999999999999
  0
LINE
  5
1B960
  8
SU
 10
349.97831686156633
 20
624.19930315015949
 30
0.0
 11
371.5392381202696
 21
633.83408879097033
 31
0.0
210
0.0
220
0.0
230
-1.0
1001
ACAD
1000
DSTYLE
1002
{
1070
    41
1040
1.1999999999999991
1070
    77
1070
     0
1002
}
  0
LINE
  5
1B961
  8
SU
 10
371.5392381202696
 20
633.83408879097033
 30
0.0
 11
397.50725510180109
 21
633.83408879097033
 31
0.0
210
0.0
220
0.0
230
-1.0
1001
ACAD
1000
DSTYLE
1002
{
1070
    41
1040
1.1999999999999991
1070
    77
1070
     0
1002
}
  0
LINE
  5
1B962
  8
SU
 10
349.81512414060921
 20
624.56449917399686
 30
0.0
 11
347.7871407185421
 21
623.22014682441704
 31
0.0
210
0.0
220
0.0
230
-1.0
  0
LINE
  5
1B963
  8
SU
 10
350.14150958252338
 20
623.83410712632224
 30
0.0
 11
347.7871407185421
 21
623.22014682441704
 31
0.0
210
0.0
220
0.0
230
-1.0
  0
LINE
  5
1B964
  8
SU
 10
347.7871407185421
 20
623.22014682441704
 30
0.0
 11
349.97831686156633
 21
624.19930315015949
 31
0.0
210
0.0
220
0.0
230
-1.0
  0
TEXT
  5
1B965
  8
SU
 10
801.10671284260752
 20
327.08803458772951
 30
0.0
 40
7.0
  1
(4)
 50
90.0
 41
0.8299999999999999
  0
TEXT
  5
1B967
  8
SU
 10
803.44004617594067
 20
290.78604431331843
 30
0.0
 40
7.0
  1
33
 50
90.0
 41
0.8299999999999999
  0
TEXT
  5
1B96A
  8
SU
 10
815.84892766605321
 20
278.02803828021558
 30
0.0
 40
7.0
  1
3
 50
90.0
 41
0.8299999999999999
  0
TEXT
  5
1B96B
  8
SU
 10
803.44004617594089
 20
219.82899523081079
 30
0.0
 40
7.0
  1
33
 50
90.0
 41
0.8299999999999999
  0
TEXT
  5
1B96E
  8
SU
 10
803.44004617594089
 20
254.123335185565
 30
0.0
 40
7.0
  1
33
 50
90.0
 41
0.8299999999999999
  0
TEXT
  5
1B971
  8
SU
 10
800.63116468582837
 20
238.02803779632259
 30
0.0
 40
7.0
  1
3
 50
90.0
 41
0.8299999999999999
  0
TEXT
  5
1B972
  8
SU
 10
816.10671284260741
 20
330.2308445330018
 30
0.0
 40
7.0
  1
(テーブル出寸法=344)
 50
90.0
 41
0.9
  0
TEXT
  5
1B975
  8
SU
 10
1099.2
 20
392.50919057836649
 30
0.0
 40
7.0
  1
最大有効開口=798
 50
90.0
 41
0.8299999999999999
  0
TEXT
  5
1B977
  8
SU
 10
732.12337202287335
 20
339.35689989834498
 30
0.0
 40
7.0
  1
70
 41
0.8299999999999999
  0
TEXT
  5
1B97A
  8
SU
 10
1081.8666666666661
 20
359.04219507866969
 30
0.0
 40
7.0
  1
(348)
 50
90.0
 41
0.8299999999999999
  0
TEXT
  5
1B97C
  8
SU
 10
1114.2
 20
343.86852391169981
 30
0.0
 40
7.0
  1
D=910の場合
 50
90.0
 41
0.8299999999999999
  0
TEXT
  5
1B97F
  8
SU
 10
1099.2
 20
236.7383679210626
 30
0.0
 40
7.0
  1
112（建具）
 50
90.0
 41
0.8299999999999999
  0
TEXT
  5
1B982
  8
SU
 10
1084.2
 20
460.88801773597368
 30
0.0
 40
7.0
  1
収納棚=450
 50
90.0
 41
0.8299999999999999
  0
TEXT
  5
1B984
  8
SU
 10
748.95837950260704
 20
445.43635556961118
 30
0.0
 40
7.0
  1
18
 41
0.8299999999999999
  0
TEXT
  5
1B987
  8
SU
 10
875.87337950260712
 20
475.43635458383142
 30
0.0
 40
7.0
  1
20
 41
0.8299999999999999
  0
TEXT
  5
1B989
  8
SU
 10
856.45837950260716
 20
445.43635556961118
 30
0.0
 40
7.0
  1
18
 41
0.8299999999999999
  0
TEXT
  5
1B98C
  8
SU
 10
730.37337950260701
 20
475.4363545838288
 30
0.0
 40
7.0
  1
20
 41
0.8299999999999999
  0
TEXT
  5
1B98E
  8
SU
 10
1018.458379502611
 20
475.4363545838325
 30
0.0
 40
7.0
  1
15
 41
0.8299999999999999
  0
TEXT
  5
1B990
  8
SU
 10
800.35671283594024
 20
475.4363545838288
 30
0.0
 40
7.0
  1
800
 41
0.8299999999999999
  0
TEXT
  5
1B992
  8
SU
 10
610.20671959047809
 20
475.43635651789162
 30
0.0
 40
7.0
  1
907.5
 41
0.8299999999999999
  0
TEXT
  5
1B994
  8
SU
 10
945.54786146265258
 20
475.43635458383142
 30
0.0
 40
7.0
  1
800
 41
0.8299999999999999
  0
TEXT
  5
1B996
  8
SU
 10
848.37338310517555
 20
162.15348898719139
 30
0.0
 40
7.0
  1
25
 41
0.8299999999999999
  0
TEXT
  5
1B999
  8
SU
 10
913.49672950922525
 20
147.15346674601821
 30
0.0
 40
7.0
  1
DW=872.5
 50
0.0000138516749132
 41
0.8299999999999999
  0
TEXT
  5
1B99C
  8
SU
 10
506.27839301169053
 20
147.15348930953769
 30
0.0
 40
7.0
  1
9
 41
0.8299999999999999
  0
TEXT
  5
1B99F
  8
SU
 10
1032.2783901089981
 20
147.15349385064181
 30
0.0
 40
7.0
  1
9
 50
0.0000138516749132
 41
0.8299999999999999
  0
TEXT
  5
1B9A1
  8
SU
 10
294.49195556732161
 20
487.54764995184951
 30
0.0
 40
7.0
  1
33
 41
0.8299999999999999
  0
TEXT
  5
1B9A3
  8
SU
 10
754.0617195904839
 20
132.1534893095378
 30
0.0
 40
7.0
  1
W=2585
 41
0.8299999999999999
  0
TEXT
  5
1B9A5
  8
SU
 10
314.23333400884462
 20
487.54764995184951
 30
0.0
 40
7.0
  1
3
 41
0.8299999999999999
  0
TEXT
  5
1B9A6
  8
SU
 10
252.46666734217791
 20
487.54764995184951
 30
0.0
 40
7.0
  1
33
 41
0.8299999999999999
  0
TEXT
  5
1B9AA
  8
SU
 10
278.23333400884462
 20
487.54764995184951
 30
0.0
 40
7.0
  1
3
 41
0.8299999999999999
  0
TEXT
  5
1B9AB
  8
SU
 10
363.57000299064248
 20
487.54764995184951
 30
0.0
 40
7.0
  1
7
 41
0.8299999999999999
  0
TEXT
  5
1B9AD
  8
SU
 10
330.49195319003911
 20
487.54764995184951
 30
0.0
 40
7.0
  1
33
 41
0.8299999999999999
  0
TEXT
  5
1B9AF
  8
SU
 10
362.74000967510142
 20
175.0947012543966
 30
0.0
 40
7.0
  1
13.5
 41
0.8299999999999999
  0
TEXT
  5
1B9B1
  8
SU
 10
188.46167150421741
 20
160.0947012543966
 30
0.0
 40
7.0
  1
D=910の場合
 41
0.8299999999999999
  0
TEXT
  5
1B9B4
  8
SU
 10
288.46668059228392
 20
175.0947012543966
 30
0.0
 40
7.0
  1
92
 41
0.8299999999999999
  0
TEXT
  5
1B9B7
  8
SU
 10
426.8420390072198
 20
371.28704756776858
 30
0.0
 40
7.0
  1
H=2200～2500
 50
90.0
 41
0.8299999999999999
  0
TEXT
  5
1B9B8
  8
SU
 10
285.67266666666711
 20
681.04764995184973
 30
0.0
 40
7.0
  1
105以上
 41
0.8299999999999999
  0
TEXT
  5
1B9BB
  8
SU
 10
188.4616666666669
 20
696.04764995184973
 30
0.0
 40
7.0
  1
D=910の場合
 41
0.8299999999999999
  0
TEXT
  5
1B9BE
  8
SU
 10
363.29333333333369
 20
668.38098328518311
 30
0.0
 40
7.0
  1
(8.3)
 41
0.8299999999999999
  0
TEXT
  5
1B9C0
  8
SU
 10
281.13499737425911
 20
666.04764995184973
 30
0.0
 40
7.0
  1
102.5
 41
0.8299999999999999
  0
ARC
  5
1B9C3
  8
SU
 10
413.14203900721981
 20
574.74764910350279
 30
0.0
 40
0.6000000000000229
 50
270.0
 51
90.0
  0
ARC
  5
1B9C4
  8
SU
 10
413.14203900721981
 20
574.74764910350279
 30
0.0
 40
0.6000000000000229
 50
90.0
 51
270.0
  0
ARC
  5
1B9C5
  8
SU
 10
975.31814249764113
 20
201.29470125439661
 30
0.0
 40
0.5999999999999944
 50
90.0
 51
270.0
  0
ARC
  5
1B9C6
  8
SU
 10
975.31814249764113
 20
201.29470125439661
 30
0.0
 40
0.5999999999999944
 50
270.0
 51
90.0
  0
ARC
  5
1B9C7
  8
SU
 10
975.31814249764113
 20
208.29470125439701
 30
0.0
 40
0.5999999999999944
 50
270.0
 51
90.0
  0
ARC
  5
1B9C8
  8
SU
 10
975.31814249764113
 20
208.29470125439701
 30
0.0
 40
0.5999999999999944
 50
90.0
 51
270.0
  0
ARC
  5
1B9C9
  8
SU
 10
237.14993750477581
 20
486.24764912493242
 30
0.0
 40
0.5999999999999944
 50
0.0
 51
180.0
  0
ARC
  5
1B9CA
  8
SU
 10
237.14993750477581
 20
486.24764912493242
 30
0.0
 40
0.5999999999999944
 50
180.0
 51
0.0
  0
ARC
  5
1B9CD
  8
SU
 10
353.50000217257298
 20
501.24766365844499
 30
0.0
 40
0.6000000000000229
 50
180.0
 51
0.0
  0
ARC
  5
1B9CE
  8
SU
 10
353.50000217257298
 20
501.24766365844499
 30
0.0
 40
0.6000000000000229
 50
0.0
 51
180.0
  0
ARC
  5
1B9CF
  8
SU
 10
350.84993847406469
 20
501.24766365844499
 30
0.0
 40
0.6000000000000229
 50
0.0
 51
180.0
  0
ARC
  5
1B9D0
  8
SU
 10
350.84993847406469
 20
501.24766365844499
 30
0.0
 40
0.6000000000000229
 50
180.0
 51
0.0
  0
ARC
  5
1B9D3
  8
SU
 10
237.14993750477581
 20
501.2476499518495
 30
0.0
 40
0.5999999999999944
 50
0.0
 51
180.0
  0
ARC
  5
1B9D4
  8
SU
 10
237.14993750477581
 20
501.2476499518495
 30
0.0
 40
0.5999999999999944
 50
180.0
 51
0.0
  0
ARC
  5
1B9D5
  8
SU
 10
237.1499973742591
 20
664.74764995184967
 30
0.0
 40
0.5999999999999944
 50
0.0
 51
180.0
  0
ARC
  5
1B9D6
  8
SU
 10
237.1499973742591
 20
664.74764995184967
 30
0.0
 40
0.5999999999999944
 50
180.0
 51
0.0
  0
ARC
  5
1B9D7
  8
SU
 10
242.7499973742591
 20
664.74764995184967
 30
0.0
 40
0.5999999999999944
 50
180.0
 51
0.0
  0
ARC
  5
1B9D9
  8
SU
 10
398.14203900721998
 20
561.74764913885031
 30
0.0
 40
0.6000000000000229
 50
90.0
 51
270.0
  0
ARC
  5
1B9DA
  8
SU
 10
398.14203900721998
 20
561.74764913885031
 30
0.0
 40
0.6000000000000229
 50
270.0
 51
90.0
  0
ARC
  5
1B9DB
  8
SU
 10
398.14203900721998
 20
565.24764964716621
 30
0.0
 40
0.6000000000000229
 50
270.0
 51
90.0
  0
ARC
  5
1B9DC
  8
SU
 10
398.14203900721998
 20
565.24764964716621
 30
0.0
 40
0.6000000000000229
 50
90.0
 51
270.0
  0
ARC
  5
1B9DD
  8
SU
 10
413.14203900721981
 20
602.24764846061782
 30
0.0
 40
0.6000000000000229
 50
270.0
 51
90.0
  0
ARC
  5
1B9DE
  8
SU
 10
413.14203900721981
 20
602.24764846061782
 30
0.0
 40
0.6000000000000229
 50
90.0
 51
270.0
  0
ARC
  5
1B9DF
  8
SU
 10
413.14203900721981
 20
565.24764974563334
 30
0.0
 40
0.6000000000000229
 50
270.0
 51
90.0
  0
ARC
  5
1B9E0
  8
SU
 10
413.14203900721981
 20
565.24764974563334
 30
0.0
 40
0.6000000000000229
 50
90.0
 51
270.0
  0
ARC
  5
1B9E1
  8
SU
 10
398.14203900721992
 20
205.7947012543959
 30
0.0
 40
0.5999999999999944
 50
90.0
 51
270.0
  0
ARC
  5
1B9E2
  8
SU
 10
398.14203900721992
 20
205.7947012543959
 30
0.0
 40
0.5999999999999944
 50
270.0
 51
90.0
  0
ARC
  5
1B9E3
  8
SU
 10
398.14203900721992
 20
210.79469633505781
 30
0.0
 40
0.5999999999999944
 50
270.0
 51
90.0
  0
ARC
  5
1B9E4
  8
SU
 10
398.14203900721992
 20
210.79469633505781
 30
0.0
 40
0.5999999999999944
 50
90.0
 51
270.0
  0
ARC
  5
1B9E5
  8
SU
 10
413.14203900721981
 20
205.7947012543959
 30
0.0
 40
0.5999999999999944
 50
90.0
 51
270.0
  0
ARC
  5
1B9E6
  8
SU
 10
413.14203900721981
 20
205.7947012543959
 30
0.0
 40
0.5999999999999944
 50
270.0
 51
90.0
  0
ARC
  5
1B9E7
  8
SU
 10
413.14203900721981
 20
214.7947012542987
 30
0.0
 40
0.5999999999999944
 50
270.0
 51
90.0
  0
ARC
  5
1B9E8
  8
SU
 10
413.14203900721981
 20
214.7947012542987
 30
0.0
 40
0.5999999999999944
 50
90.0
 51
270.0
  0
ARC
  5
1B9E9
  8
SU
 10
1039.406712835942
 20
474.13635458383141
 30
0.0
 40
0.5999999999999091
 50
180.0
 51
0.0
  0
ARC
  5
1B9EA
  8
SU
 10
1039.406712835942
 20
474.13635458383141
 30
0.0
 40
0.5999999999999091
 50
0.0
 51
180.0
  0
ARC
  5
1B9EB
  8
SU
 10
353.50000299064249
 20
471.2476499518495
 30
0.0
 40
0.6000000000000229
 50
180.0
 51
0.0
  0
ARC
  5
1B9EC
  8
SU
 10
353.50000299064249
 20
471.2476499518495
 30
0.0
 40
0.6000000000000229
 50
0.0
 51
180.0
  0
ARC
  5
1B9ED
  8
SU
 10
241.50000104609541
 20
471.2476499518495
 30
0.0
 40
0.5999999999999944
 50
0.0
 51
180.0
  0
ARC
  5
1B9EE
  8
SU
 10
241.50000104609541
 20
471.2476499518495
 30
0.0
 40
0.5999999999999944
 50
180.0
 51
0.0
  0
ARC
  5
1B9EF
  8
SU
 10
504.40672634501823
 20
474.13635651789161
 30
0.0
 40
0.6000000000000229
 50
0.0
 51
180.0
  0
ARC
  5
1B9F0
  8
SU
 10
504.40672634501823
 20
474.13635651789161
 30
0.0
 40
0.6000000000000229
 50
180.0
 51
0.0
  0
ARC
  5
1B9F1
  8
SU
 10
519.40672634501573
 20
474.13635651789161
 30
0.0
 40
0.6000000000000229
 50
180.0
 51
0.0
  0
ARC
  5
1B9F2
  8
SU
 10
519.40672634501573
 20
474.13635651789161
 30
0.0
 40
0.6000000000000229
 50
0.0
 51
180.0
  0
ARC
  5
1B9F3
  8
SU
 10
1111.5
 20
761.74999999999966
 30
0.0
 40
0.6000000000000229
 50
270.0
 51
90.0
  0
ARC
  5
1B9F4
  8
SU
 10
1111.5
 20
761.74999999999966
 30
0.0
 40
0.6000000000000229
 50
90.0
 51
270.0
  0
ARC
  5
1B9F5
  8
SU
 10
1111.5
 20
670.75
 30
0.0
 40
0.6000000000000229
 50
90.0
 51
270.0
  0
ARC
  5
1B9F6
  8
SU
 10
1111.5
 20
670.75
 30
0.0
 40
0.6000000000000229
 50
270.0
 51
90.0
  0
ARC
  5
1B9F7
  8
SU
 10
804.74004617594096
 20
317.2947012543961
 30
0.0
 40
0.6000000000000229
 50
270.0
 51
90.0
  0
ARC
  5
1B9F8
  8
SU
 10
804.74004617594096
 20
317.2947012543961
 30
0.0
 40
0.6000000000000229
 50
90.0
 51
270.0
  0
ARC
  5
1B9F9
  8
SU
 10
804.74004617594085
 20
313.29469436430878
 30
0.0
 40
0.6000000000000229
 50
270.0
 51
90.0
  0
ARC
  5
1B9FA
  8
SU
 10
804.74004617594085
 20
313.29469436430878
 30
0.0
 40
0.6000000000000229
 50
90.0
 51
270.0
  0
ARC
  5
1B9FB
  8
SU
 10
804.74004617594085
 20
280.29469436430912
 30
0.0
 40
0.6000000000000229
 50
270.0
 51
90.0
  0
ARC
  5
1B9FC
  8
SU
 10
804.74004617594085
 20
280.29469436430912
 30
0.0
 40
0.6000000000000229
 50
90.0
 51
270.0
  0
ARC
  5
1B9FD
  8
SU
 10
804.74004617594085
 20
208.29470286611351
 30
0.0
 40
0.5999999999999944
 50
90.0
 51
270.0
  0
ARC
  5
1B9FE
  8
SU
 10
804.74004617594085
 20
208.29470286611351
 30
0.0
 40
0.5999999999999944
 50
270.0
 51
90.0
  0
ARC
  5
1B9FF
  8
SU
 10
804.74004617594085
 20
241.29465556225909
 30
0.0
 40
0.5999999999999944
 50
270.0
 51
90.0
  0
ARC
  5
1BA00
  8
SU
 10
804.74004617594085
 20
241.29465556225909
 30
0.0
 40
0.5999999999999944
 50
90.0
 51
270.0
  0
ARC
  5
1BA01
  8
SU
 10
804.74004617594085
 20
277.29469400129392
 30
0.0
 40
0.6000000000000229
 50
270.0
 51
90.0
  0
ARC
  5
1BA02
  8
SU
 10
804.74004617594085
 20
277.29469400129392
 30
0.0
 40
0.6000000000000229
 50
90.0
 51
270.0
  0
ARC
  5
1BA03
  8
SU
 10
804.74004617594085
 20
244.29470243972949
 30
0.0
 40
0.5999999999999944
 50
270.0
 51
90.0
  0
ARC
  5
1BA04
  8
SU
 10
804.74004617594085
 20
244.29470243972949
 30
0.0
 40
0.5999999999999944
 50
90.0
 51
270.0
  0
ARC
  5
1BA05
  8
SU
 10
819.74004617594085
 20
317.29470494688258
 30
0.0
 40
0.6000000000000229
 50
90.0
 51
270.0
  0
ARC
  5
1BA06
  8
SU
 10
819.74004617594085
 20
317.29470494688258
 30
0.0
 40
0.6000000000000229
 50
270.0
 51
90.0
  0
ARC
  5
1BA07
  8
SU
 10
819.74004617594085
 20
429.13635926209878
 30
0.0
 40
0.6000000000000229
 50
270.0
 51
90.0
  0
ARC
  5
1BA08
  8
SU
 10
819.74004617594085
 20
429.13635926209878
 30
0.0
 40
0.6000000000000229
 50
90.0
 51
270.0
  0
ARC
  5
1BA09
  8
SU
 10
1100.5
 20
536.51901323567006
 30
0.0
 40
0.6000000000000229
 50
270.0
 51
90.0
  0
ARC
  5
1BA0A
  8
SU
 10
1100.5
 20
536.51901323567006
 30
0.0
 40
0.6000000000000229
 50
90.0
 51
270.0
  0
ARC
  5
1BA0B
  8
SU
 10
711.4066978764705
 20
338.05689989834502
 30
0.0
 40
0.6000000000000229
 50
0.0
 51
180.0
  0
ARC
  5
1BA0C
  8
SU
 10
711.4066978764705
 20
338.05689989834502
 30
0.0
 40
0.6000000000000229
 50
180.0
 51
0.0
  0
ARC
  5
1BA0D
  8
SU
 10
763.90671283594327
 20
338.05689989834502
 30
0.0
 40
0.6000000000000229
 50
180.0
 51
0.0
  0
ARC
  5
1BA0E
  8
SU
 10
763.90671283594327
 20
338.05689989834502
 30
0.0
 40
0.6000000000000229
 50
0.0
 51
180.0
  0
ARC
  5
1BA0F
  8
SU
 10
1085.5
 20
429.1363555696102
 30
0.0
 40
0.6000000000000229
 50
270.0
 51
90.0
  0
ARC
  5
1BA10
  8
SU
 10
1085.5
 20
429.1363555696102
 30
0.0
 40
0.6000000000000229
 50
90.0
 51
270.0
  0
ARC
  5
1BA11
  8
SU
 10
1115.5
 20
201.2947012543957
 30
0.0
 40
0.5999999999999944
 50
90.0
 51
270.0
  0
ARC
  5
1BA12
  8
SU
 10
1115.5
 20
201.2947012543957
 30
0.0
 40
0.5999999999999944
 50
270.0
 51
90.0
  0
ARC
  5
1BA13
  8
SU
 10
1115.5
 20
536.51901323567006
 30
0.0
 40
0.6000000000000229
 50
270.0
 51
90.0
  0
ARC
  5
1BA14
  8
SU
 10
1115.5
 20
536.51901323567006
 30
0.0
 40
0.6000000000000229
 50
90.0
 51
270.0
  0
ARC
  5
1BA15
  8
SU
 10
1100.5
 20
313.29470125439587
 30
0.0
 40
0.6000000000000229
 50
270.0
 51
90.0
  0
ARC
  5
1BA16
  8
SU
 10
1100.5
 20
313.29470125439587
 30
0.0
 40
0.6000000000000229
 50
90.0
 51
270.0
  0
ARC
  5
1BA17
  8
SU
 10
1100.5
 20
201.2947012543957
 30
0.0
 40
0.5999999999999944
 50
90.0
 51
270.0
  0
ARC
  5
1BA18
  8
SU
 10
1100.5
 20
201.2947012543957
 30
0.0
 40
0.5999999999999944
 50
270.0
 51
90.0
  0
ARC
  5
1BA19
  8
SU
 10
1085.5
 20
536.51901323567006
 30
0.0
 40
0.6000000000000229
 50
270.0
 51
90.0
  0
ARC
  5
1BA1A
  8
SU
 10
1085.5
 20
536.51901323567006
 30
0.0
 40
0.6000000000000229
 50
90.0
 51
270.0
  0
ARC
  5
1BA1B
  8
SU
 10
763.90671283594043
 20
444.13635556961128
 30
0.0
 40
0.6000000000000229
 50
180.0
 51
0.0
  0
ARC
  5
1BA1C
  8
SU
 10
763.90671283594043
 20
444.13635556961128
 30
0.0
 40
0.6000000000000229
 50
0.0
 51
180.0
  0
ARC
  5
1BA1D
  8
SU
 10
745.90671283594065
 20
444.13635556961128
 30
0.0
 40
0.6000000000000229
 50
0.0
 51
180.0
  0
ARC
  5
1BA1E
  8
SU
 10
745.90671283594065
 20
444.13635556961128
 30
0.0
 40
0.6000000000000229
 50
180.0
 51
0.0
  0
ARC
  5
1BA1F
  8
SU
 10
891.40671283594043
 20
474.13635458383129
 30
0.0
 40
0.6000000000000229
 50
180.0
 51
0.0
  0
ARC
  5
1BA20
  8
SU
 10
891.40671283594043
 20
474.13635458383129
 30
0.0
 40
0.6000000000000229
 50
0.0
 51
180.0
  0
ARC
  5
1BA21
  8
SU
 10
853.40671283594054
 20
444.13635556961128
 30
0.0
 40
0.6000000000000229
 50
0.0
 51
180.0
  0
ARC
  5
1BA22
  8
SU
 10
853.40671283594054
 20
444.13635556961128
 30
0.0
 40
0.6000000000000229
 50
180.0
 51
0.0
  0
ARC
  5
1BA23
  8
SU
 10
871.40671283594065
 20
444.13635556961128
 30
0.0
 40
0.6000000000000229
 50
180.0
 51
0.0
  0
ARC
  5
1BA24
  8
SU
 10
871.40671283594065
 20
444.13635556961128
 30
0.0
 40
0.6000000000000229
 50
0.0
 51
180.0
  0
ARC
  5
1BA25
  8
SU
 10
745.90671283594043
 20
474.1363545838289
 30
0.0
 40
0.6000000000000229
 50
180.0
 51
0.0
  0
ARC
  5
1BA26
  8
SU
 10
745.90671283594043
 20
474.1363545838289
 30
0.0
 40
0.6000000000000229
 50
0.0
 51
180.0
  0
ARC
  5
1BA27
  8
SU
 10
1031.9067128359441
 20
474.13635458383249
 30
0.0
 40
0.5999999999999091
 50
180.0
 51
0.0
  0
ARC
  5
1BA28
  8
SU
 10
1031.9067128359441
 20
474.13635458383249
 30
0.0
 40
0.5999999999999091
 50
0.0
 51
180.0
  0
ARC
  5
1BA29
  8
SU
 10
871.40671283594043
 20
474.1363545838289
 30
0.0
 40
0.6000000000000229
 50
180.0
 51
0.0
  0
ARC
  5
1BA2A
  8
SU
 10
871.40671283594043
 20
474.1363545838289
 30
0.0
 40
0.6000000000000229
 50
0.0
 51
180.0
  0
ARC
  5
1BA2B
  8
SU
 10
725.90671283594043
 20
474.13635651789161
 30
0.0
 40
0.6000000000000229
 50
180.0
 51
0.0
  0
ARC
  5
1BA2C
  8
SU
 10
725.90671283594043
 20
474.13635651789161
 30
0.0
 40
0.6000000000000229
 50
0.0
 51
180.0
  0
ARC
  5
1BA2D
  8
SU
 10
1016.9067128359439
 20
474.13635458383129
 30
0.0
 40
0.6000000000000229
 50
180.0
 51
0.0
  0
ARC
  5
1BA2E
  8
SU
 10
1016.9067128359439
 20
474.13635458383129
 30
0.0
 40
0.6000000000000229
 50
0.0
 51
180.0
  0
ARC
  5
1BA2F
  8
SU
 10
866.40671637806872
 20
160.85348898719141
 30
0.0
 40
0.6000000000000229
 50
180.0
 51
0.0
  0
ARC
  5
1BA30
  8
SU
 10
866.40671637806872
 20
160.85348898719141
 30
0.0
 40
0.6000000000000229
 50
0.0
 51
180.0
  0
ARC
  5
1BA31
  8
SU
 10
841.40671649894909
 20
160.85348898719141
 30
0.0
 40
0.6000000000000229
 50
0.0
 51
180.0
  0
ARC
  5
1BA32
  8
SU
 10
841.40671649894909
 20
160.85348898719141
 30
0.0
 40
0.6000000000000229
 50
180.0
 51
0.0
  0
ARC
  5
1BA33
  8
SU
 10
1030.406728052438
 20
145.8534950098678
 30
0.0
 40
0.5999999999999267
 50
180.00001385167491
 51
0.0000138516749132
  0
ARC
  5
1BA34
  8
SU
 10
1030.406728052438
 20
145.8534950098678
 30
0.0
 40
0.5999999999999267
 50
0.0000138516749132
 51
180.00001385167491
  0
ARC
  5
1BA35
  8
SU
 10
841.40673159457981
 20
145.8534493177325
 30
0.0
 40
0.6000000000000404
 50
0.0000138516749132
 51
180.00001385167491
  0
ARC
  5
1BA36
  8
SU
 10
841.40673159457981
 20
145.8534493177325
 30
0.0
 40
0.6000000000000404
 50
180.00001385167491
 51
0.0000138516749132
  0
ARC
  5
1BA37
  8
SU
 10
513.40672634502016
 20
145.85348930953771
 30
0.0
 40
0.6000000000000229
 50
180.0
 51
0.0
  0
ARC
  5
1BA38
  8
SU
 10
513.40672634502016
 20
145.85348930953771
 30
0.0
 40
0.6000000000000229
 50
0.0
 51
180.0
  0
ARC
  5
1BA39
  8
SU
 10
504.40672634502749
 20
145.85348930953771
 30
0.0
 40
0.6000000000000229
 50
0.0
 51
180.0
  0
ARC
  5
1BA3A
  8
SU
 10
504.40672634502749
 20
145.85348930953771
 30
0.0
 40
0.6000000000000229
 50
180.0
 51
0.0
  0
ARC
  5
1BA3B
  8
SU
 10
1039.406726239258
 20
145.85349557396921
 30
0.0
 40
0.5999999999999267
 50
180.00001385167491
 51
0.0000138516749132
  0
ARC
  5
1BA3C
  8
SU
 10
1039.406726239258
 20
145.85349557396921
 30
0.0
 40
0.5999999999999267
 50
0.0000138516749132
 51
180.00001385167491
  0
ARC
  5
1BA3D
  8
SU
 10
310.50000067551127
 20
486.2476499518495
 30
0.0
 40
0.6000000000000229
 50
180.0
 51
0.0
  0
ARC
  5
1BA3E
  8
SU
 10
310.50000067551127
 20
486.2476499518495
 30
0.0
 40
0.6000000000000229
 50
0.0
 51
180.0
  0
ARC
  5
1BA3F
  8
SU
 10
313.50000067551127
 20
486.2476499518495
 30
0.0
 40
0.6000000000000229
 50
180.0
 51
0.0
  0
ARC
  5
1BA40
  8
SU
 10
313.50000067551127
 20
486.2476499518495
 30
0.0
 40
0.6000000000000229
 50
0.0
 51
180.0
  0
ARC
  5
1BA41
  8
SU
 10
274.50000067551127
 20
486.2476499518495
 30
0.0
 40
0.6000000000000229
 50
180.0
 51
0.0
  0
ARC
  5
1BA42
  8
SU
 10
274.50000067551127
 20
486.2476499518495
 30
0.0
 40
0.6000000000000229
 50
0.0
 51
180.0
  0
ARC
  5
1BA43
  8
SU
 10
241.5000006755113
 20
486.2476499518495
 30
0.0
 40
0.5999999999999944
 50
0.0
 51
180.0
  0
ARC
  5
1BA44
  8
SU
 10
241.5000006755113
 20
486.2476499518495
 30
0.0
 40
0.5999999999999944
 50
180.0
 51
0.0
  0
ARC
  5
1BA45
  8
SU
 10
277.50000279950171
 20
486.2476499518495
 30
0.0
 40
0.6000000000000229
 50
180.0
 51
0.0
  0
ARC
  5
1BA46
  8
SU
 10
277.50000279950171
 20
486.2476499518495
 30
0.0
 40
0.6000000000000229
 50
0.0
 51
180.0
  0
ARC
  5
1BA47
  8
SU
 10
353.50000299064249
 20
486.2476499518495
 30
0.0
 40
0.6000000000000229
 50
180.0
 51
0.0
  0
ARC
  5
1BA48
  8
SU
 10
353.50000299064249
 20
486.2476499518495
 30
0.0
 40
0.6000000000000229
 50
0.0
 51
180.0
  0
ARC
  5
1BA49
  8
SU
 10
346.50000067551127
 20
486.2476499518495
 30
0.0
 40
0.6000000000000229
 50
180.0
 51
0.0
  0
ARC
  5
1BA4A
  8
SU
 10
346.50000067551127
 20
486.2476499518495
 30
0.0
 40
0.6000000000000229
 50
0.0
 51
180.0
  0
ARC
  5
1BA4B
  8
SU
 10
353.50000967510141
 20
173.79470125439661
 30
0.0
 40
0.6000000000000229
 50
180.0
 51
0.0
  0
ARC
  5
1BA4C
  8
SU
 10
353.50000967510141
 20
173.79470125439661
 30
0.0
 40
0.6000000000000229
 50
0.0
 51
180.0
  0
ARC
  5
1BA4D
  8
SU
 10
353.50000967510141
 20
158.79470125439661
 30
0.0
 40
0.6000000000000229
 50
180.0
 51
0.0
  0
ARC
  5
1BA4E
  8
SU
 10
353.50000967510141
 20
158.79470125439661
 30
0.0
 40
0.6000000000000229
 50
0.0
 51
180.0
  0
ARC
  5
1BA4F
  8
SU
 10
73.5
 20
158.79470125439661
 30
0.0
 40
0.5999999999999944
 50
0.0
 51
180.0
  0
ARC
  5
1BA50
  8
SU
 10
73.5
 20
158.79470125439661
 30
0.0
 40
0.5999999999999944
 50
180.0
 51
0.0
  0
ARC
  5
1BA51
  8
SU
 10
340.00000951993798
 20
173.79470125439661
 30
0.0
 40
0.6000000000000229
 50
180.0
 51
0.0
  0
ARC
  5
1BA52
  8
SU
 10
340.00000951993798
 20
173.79470125439661
 30
0.0
 40
0.6000000000000229
 50
0.0
 51
180.0
  0
ARC
  5
1BA53
  8
SU
 10
248.0000183312963
 20
173.79470125439661
 30
0.0
 40
0.5999999999999944
 50
0.0
 51
180.0
  0
ARC
  5
1BA54
  8
SU
 10
248.0000183312963
 20
173.79470125439661
 30
0.0
 40
0.5999999999999944
 50
180.0
 51
0.0
  0
ARC
  5
1BA55
  8
SU
 10
353.50000000000051
 20
679.74764995184978
 30
0.0
 40
0.6000000000000229
 50
180.0
 51
0.0
  0
ARC
  5
1BA56
  8
SU
 10
353.50000000000051
 20
679.74764995184978
 30
0.0
 40
0.6000000000000229
 50
0.0
 51
180.0
  0
ARC
  5
1BA57
  8
SU
 10
248.50000000000051
 20
679.74764995184978
 30
0.0
 40
0.5999999999999944
 50
0.0
 51
180.0
  0
ARC
  5
1BA58
  8
SU
 10
248.50000000000051
 20
679.74764995184978
 30
0.0
 40
0.5999999999999944
 50
180.0
 51
0.0
  0
ARC
  5
1BA59
  8
SU
 10
353.50000000000051
 20
694.74764995184967
 30
0.0
 40
0.6000000000000229
 50
180.0
 51
0.0
  0
ARC
  5
1BA5A
  8
SU
 10
353.50000000000051
 20
694.74764995184967
 30
0.0
 40
0.6000000000000229
 50
0.0
 51
180.0
  0
ARC
  5
1BA5B
  8
SU
 10
73.5
 20
694.74764995184967
 30
0.0
 40
0.5999999999999944
 50
0.0
 51
180.0
  0
ARC
  5
1BA5C
  8
SU
 10
73.5
 20
694.74764995184967
 30
0.0
 40
0.5999999999999944
 50
180.0
 51
0.0
  0
ARC
  5
1BA5D
  8
SU
 10
353.50000000000051
 20
664.74764995184967
 30
0.0
 40
0.6000000000000229
 50
180.0
 51
0.0
  0
ARC
  5
1BA5E
  8
SU
 10
353.50000000000051
 20
664.74764995184967
 30
0.0
 40
0.6000000000000229
 50
0.0
 51
180.0
  0
ARC
  5
1BA5F
  8
SU
 10
242.7499973742591
 20
664.74764995184967
 30
0.0
 40
0.5999999999999944
 50
0.0
 51
180.0
  0
ARC
  5
1BA61
  8
SU
 10
345.24999737425912
 20
664.74764995184967
 30
0.0
 40
0.6000000000000229
 50
180.0
 51
0.0
  0
ARC
  5
1BA62
  8
SU
 10
345.24999737425912
 20
664.74764995184967
 30
0.0
 40
0.6000000000000229
 50
0.0
 51
180.0
  0
ENDSEC
  0
EOF
