  0
SECTION
  2
HEADER
  9
$ACADVER
  1
AC1009
  9
$INSBASE
 10
0.0
 20
0.0
 30
0.0
  9
$EXTMIN
 10
19.300000000000001
 20
16.25
 30
0.0
  9
$EXTMAX
 10
1165.5
 20
830.74999999999989
 30
0.0
  9
$LIMMIN
 10
0.0
 20
0.0
  9
$LIMMAX
 10
1189.0
 20
841.0
  9
$ORTHOMODE
 70
     0
  9
$REGENMODE
 70
     1
  9
$FILLMODE
 70
     1
  9
$QTEXTMODE
 70
     0
  9
$MIRRTEXT
 70
     0
  9
$DRAGMODE
 70
     2
  9
$LTSCALE
 40
1.0
  9
$OSMODE
 70
  3071
  9
$ATTMODE
 70
     1
  9
$TEXTSIZE
 40
12.5
  9
$TRACEWID
 40
1.0
  9
$TEXTSTYLE
  7
STANDARD
  9
$CLAYER
  8
0
  9
$CELTYPE
  6
BYLAYER
  9
$CECOLOR
 62
   256
  9
$DIMSCALE
 40
1.0
  9
$DIMASZ
 40
7.0
  9
$DIMEXO
 40
1.0
  9
$DIMDLI
 40
7.0
  9
$DIMRND
 40
0.0
  9
$DIMDLE
 40
0.0
  9
$DIMEXE
 40
3.0
  9
$DIMTP
 40
0.1
  9
$DIMTM
 40
0.1
  9
$DIMTXT
 40
7.0
  9
$DIMCEN
 40
0.0
  9
$DIMTSZ
 40
0.0
  9
$DIMTOL
 70
     0
  9
$DIMLIM
 70
     0
  9
$DIMTIH
 70
     0
  9
$DIMTOH
 70
     0
  9
$DIMSE1
 70
     0
  9
$DIMSE2
 70
     0
  9
$DIMTAD
 70
     1
  9
$DIMZIN
 70
     8
  9
$DIMBLK
  1
DOTSMALL
  9
$DIMASO
 70
     1
  9
$DIMSHO
 70
     1
  9
$DIMPOST
  1

  9
$DIMAPOST
  1
"
  9
$DIMALT
 70
     0
  9
$DIMALTD
 70
     2
  9
$DIMALTF
 40
0.0393701
  9
$DIMLFAC
 40
1.0
  9
$DIMTOFL
 70
     1
  9
$DIMTVP
 40
0.0
  9
$DIMTIX
 70
     0
  9
$DIMSOXD
 70
     0
  9
$DIMSAH
 70
     0
  9
$DIMBLK1
  1

  9
$DIMBLK2
  1

  9
$DIMSTYLE
  2
SANKYO
  9
$DIMCLRD
 70
   256
  9
$DIMCLRE
 70
   256
  9
$DIMCLRT
 70
   256
  9
$DIMTFAC
 40
0.71
  9
$DIMGAP
 40
1.3
  9
$LUNITS
 70
     2
  9
$LUPREC
 70
     4
  9
$SKETCHINC
 40
1.0
  9
$FILLETRAD
 40
0.4
  9
$AUNITS
 70
     0
  9
$AUPREC
 70
     0
  9
$MENU
  1
.
  9
$ELEVATION
 40
0.0
  9
$PELEVATION
 40
0.0
  9
$THICKNESS
 40
0.0
  9
$LIMCHECK
 70
     0
  9
$BLIPMODE
 70
     0
  9
$CHAMFERA
 40
10.0
  9
$CHAMFERB
 40
10.0
  9
$SKPOLY
 70
     0
  9
$TDCREATE
 40
2455110.561913426
  9
$TDUPDATE
 40
2459033.4564165389
  9
$TDINDWG
 40
2.6176525925999998
  9
$TDUSRTIMER
 40
2.6174569444000002
  9
$USRTIMER
 70
     1
  9
$ANGBASE
 50
0.0
  9
$ANGDIR
 70
     0
  9
$PDMODE
 70
     0
  9
$PDSIZE
 40
0.0
  9
$PLINEWID
 40
0.0
  9
$COORDS
 70
     2
  9
$SPLFRAME
 70
     0
  9
$SPLINETYPE
 70
     6
  9
$SPLINESEGS
 70
     8
  9
$ATTDIA
 70
     1
  9
$ATTREQ
 70
     1
  9
$HANDLING
 70
     1
  9
$HANDSEED
  5
1BBB9
  9
$SURFTAB1
 70
     6
  9
$SURFTAB2
 70
     6
  9
$SURFTYPE
 70
     6
  9
$SURFU
 70
     6
  9
$SURFV
 70
     6
  9
$UCSNAME
  2

  9
$UCSORG
 10
0.0
 20
0.0
 30
0.0
  9
$UCSXDIR
 10
1.0
 20
0.0
 30
0.0
  9
$UCSYDIR
 10
0.0
 20
1.0
 30
0.0
  9
$PUCSNAME
  2

  9
$PUCSORG
 10
0.0
 20
0.0
 30
0.0
  9
$PUCSXDIR
 10
1.0
 20
0.0
 30
0.0
  9
$PUCSYDIR
 10
0.0
 20
1.0
 30
0.0
  9
$USERI1
 70
     0
  9
$USERI2
 70
     0
  9
$USERI3
 70
     0
  9
$USERI4
 70
     0
  9
$USERI5
 70
     0
  9
$USERR1
 40
0.0
  9
$USERR2
 40
0.0
  9
$USERR3
 40
0.0
  9
$USERR4
 40
0.0
  9
$USERR5
 40
0.0
  9
$WORLDVIEW
 70
     1
  9
$SHADEDGE
 70
     3
  9
$SHADEDIF
 70
    70
  9
$TILEMODE
 70
     1
  9
$MAXACTVP
 70
    48
  9
$PLIMCHECK
 70
     0
  9
$PEXTMIN
 10
1.0000000000000000E+020
 20
1.0000000000000000E+020
 30
1.0000000000000000E+020
  9
$PEXTMAX
 10
-1.0000000000000000E+020
 20
-1.0000000000000000E+020
 30
-1.0000000000000000E+020
  9
$PLIMMIN
 10
0.0
 20
0.0
  9
$PLIMMAX
 10
420.0
 20
297.0
  9
$UNITMODE
 70
     0
  9
$VISRETAIN
 70
     1
  9
$PLINEGEN
 70
     0
  9
$PSLTSCALE
 70
     1
  0
ENDSEC
  0
SECTION
  2
TABLES
  0
TABLE
  2
VPORT
 70
     1
  0
VPORT
  2
*ACTIVE
 70
     0
 10
0.0
 20
0.0
 11
1.0
 21
1.0
 12
592.41359224346638
 22
423.48359113394218
 13
0.0
 23
0.0
 14
2.5
 24
2.5
 15
10.0
 25
10.0
 16
0.0
 26
0.0
 36
1.0
 17
0.0
 27
0.0
 37
0.0
 40
820.92390940123255
 41
2.050913838120104
 42
50.0
 43
0.0
 44
0.0
 50
0.0
 51
0.0
 71
     0
 72
   100
 73
     1
 74
     1
 75
     0
 76
     0
 77
     0
 78
     0
  0
ENDTAB
  0
TABLE
  2
LTYPE
 70
     9
  0
LTYPE
  2
CONTINUOUS
 70
     0
  3
Solid line
 72
    65
 73
     0
 40
0.0
  0
LTYPE
  2
CENTER2
 70
     0
  3
Center (.5x) ___ _ ___ _ ___ _ ___ _ ___ _ ___
 72
    65
 73
     4
 40
28.574999999999999
 49
19.050000000000001
 49
-3.1749999999999989
 49
3.1749999999999989
 49
-3.1749999999999989
  0
LTYPE
  2
PHANTOM2
 70
     0
  3
Phantom (.5x) ___ _ _ ___ _ _ ___ _ _ ___ _ _
 72
    65
 73
     6
 40
31.75
 49
15.875
 49
-3.1749999999999989
 49
3.1749999999999989
 49
-3.1749999999999989
 49
3.1749999999999989
 49
-3.1749999999999989
  0
LTYPE
  2
DASHED2
 70
     0
  3
Dashed (.5x) _ _ _ _ _ _ _ _ _ _ _ _ _ _ _ _ _
 72
    65
 73
     2
 40
9.5249999999999986
 49
6.3499999999999988
 49
-3.1749999999999989
  0
LTYPE
  2
HIDDEN
 70
     0
  3
Hidden __ __ __ __ __ __ __ __ __ __ __ __ __ _
 72
    65
 73
     2
 40
9.5249999999999986
 49
6.3499999999999988
 49
-3.1749999999999989
  0
LTYPE
  2
CENTER
 70
     0
  3
Center ____ _ ____ _ ____ _ ____ _ ____ _ ____
 72
    65
 73
     4
 40
50.799999999999997
 49
31.75
 49
-6.3499999999999988
 49
6.3499999999999988
 49
-6.3499999999999988
  0
LTYPE
  2
ACISOWELD
 70
     0
  3
_ _ _ _ _
 72
    65
 73
     2
 40
2.0
 49
2.0
 49
-1.0
  0
LTYPE
  2
ACISOTGL
 70
     0
  3
_ _ _ _ _
 72
    65
 73
     2
 40
3.0
 49
2.0
 49
-1.0
  0
LTYPE
  2
ACISOTGB
 70
     0
  3
__ . . __ . .
 72
    65
 73
     6
 40
9.0
 49
4.0
 49
-1.0
 49
1.0
 49
-1.0
 49
1.0
 49
-1.0
  0
ENDTAB
  0
TABLE
  2
LAYER
 70
    11
  0
LAYER
  2
0
 70
     0
 62
     7
  6
CONTINUOUS
  0
LAYER
  2
KI1
 70
     0
 62
     7
  6
CONTINUOUS
  0
LAYER
  2
SU
 70
     0
 62
     3
  6
CONTINUOUS
  0
LAYER
  2
MJ
 70
     0
 62
     2
  6
CONTINUOUS
  0
LAYER
  2
CL
 70
     0
 62
     4
  6
CENTER2
  0
LAYER
  2
OS
 70
     0
 62
     2
  6
CONTINUOUS
  0
LAYER
  2
KI2
 70
     0
 62
     4
  6
CONTINUOUS
  0
LAYER
  2
PH
 70
     0
 62
     6
  6
PHANTOM2
  0
LAYER
  2
WK
 70
     4
 62
     7
  6
CONTINUOUS
  0
LAYER
  2
DEFPOINTS
 70
     1
 62
    -7
  6
CONTINUOUS
  0
LAYER
  2
TS
 70
     0
 62
     6
  6
DASHED2
  0
ENDTAB
  0
TABLE
  2
STYLE
 70
     4
  0
STYLE
  2
STANDARD
 70
     0
 40
0.0
 41
0.8299999999999999
 50
0.0
 71
     0
 42
12.5
  3
romans.shx
  4
extfont.shx
  0
STYLE
  2
SIMPLEX
 70
     0
 40
0.0
 41
1.0
 50
0.0
 71
     0
 42
3.5
  3
simplex.shx
  4
extfont2.shx
  0
STYLE
  2
ACISOTS
 70
     0
 40
1.0
 41
1.0
 50
0.0
 71
     0
 42
12.5
  3
isocp.shx
  4
extfont.shx
  0
STYLE
  2
ACISOGDT
 70
     0
 40
0.0
 41
1.0
 50
0.0
 71
     0
 42
12.5
  3
amgdt.shx
  4

  0
ENDTAB
  0
TABLE
  2
VIEW
 70
     6
  0
VIEW
  2
AM_VIEW1
 70
     0
 40
297.5
 10
-194.33547008547001
 20
148.25
 41
457.32905982905982
 11
0.0
 21
0.0
 31
1.0
 12
0.0
 22
0.0
 32
0.0
 42
50.0
 43
0.0
 44
0.0
 50
0.0
 71
     0
  0
VIEW
  2
AM_VIEW2
 70
     0
 40
297.5
 10
189.33547008547001
 20
148.25
 41
457.32905982905982
 11
0.0
 21
0.0
 31
1.0
 12
0.0
 22
0.0
 32
0.0
 42
50.0
 43
0.0
 44
0.0
 50
0.0
 71
     0
  0
VIEW
  2
AM_VIEW3
 70
     0
 40
297.5
 10
-194.33547008547001
 20
-149.25
 41
457.32905982905982
 11
0.0
 21
0.0
 31
1.0
 12
0.0
 22
0.0
 32
0.0
 42
50.0
 43
0.0
 44
0.0
 50
0.0
 71
     0
  0
VIEW
  2
AM_VIEW4
 70
     0
 40
297.5
 10
189.33547008547001
 20
-149.25
 41
457.32905982905982
 11
0.0
 21
0.0
 31
1.0
 12
0.0
 22
0.0
 32
0.0
 42
50.0
 43
0.0
 44
0.0
 50
0.0
 71
     0
  0
VIEW
  2
AM_VIEW5
 70
     0
 40
297.5
 10
-2.5
 20
-0.5
 41
457.32905982905982
 11
0.0
 21
0.0
 31
1.0
 12
0.0
 22
0.0
 32
0.0
 42
50.0
 43
0.0
 44
0.0
 50
0.0
 71
     0
  0
VIEW
  2
AM_VIEW6
 70
     0
 40
594.99405000000002
 10
-2.5
 20
-0.5
 41
914.6489730769232
 11
0.0
 21
0.0
 31
1.0
 12
0.0
 22
0.0
 32
0.0
 42
50.0
 43
0.0
 44
0.0
 50
0.0
 71
     0
  0
ENDTAB
  0
TABLE
  2
UCS
 70
     0
  0
ENDTAB
  0
TABLE
  2
APPID
 70
    47
  0
APPID
  2
ACAD
 70
     0
  0
APPID
  2
MCAD_NO_VIS
 70
     0
  0
APPID
  2
ACAD_TEMP_GRAPHIC
 70
     0
  0
APPID
  2
ACATTRIBSERVICES
 70
     0
  0
APPID
  2
GENIUS_GENDIMSH_14
 70
     0
  0
APPID
  2
GENIUS_GENODEF_13
 70
     0
  0
APPID
  2
GENIUS_GENOENT_13
 70
     0
  0
APPID
  2
GENIUS_GENOBJ-N-TIT_13
 70
     0
  0
APPID
  2
GENIUS_GENOLIS_13
 70
     0
  0
APPID
  2
GENIUS_GENTITLE_13
 70
     0
  0
APPID
  2
GENIUS_GENOREF_13
 70
     0
  0
APPID
  2
GENIUS_GENSCREG_15
 70
     0
  0
APPID
  2
GENIUS_GENOBJ-N-SDF_13
 70
     0
  0
APPID
  2
GENIUS_GENOBJ-N-REV_13
 70
     0
  0
APPID
  2
GENIUS_GENOBJ-N-RSSYM_13
 70
     0
  0
APPID
  2
GENIUS_GENSYMENT_13
 70
     0
  0
APPID
  2
GENIUS_GENSCSYM_13
 70
     0
  0
APPID
  2
GENIUS_GENOBJ-N-CEN_13
 70
     0
  0
APPID
  2
GENIUS_GENOBJ-N-FIL_13
 70
     0
  0
APPID
  2
GENIUS_GENBH_13
 70
     0
  0
APPID
  2
GENIUS_GENOBJ-NBEHI-BHF_13
 70
     0
  0
APPID
  2
GENIUS_GENFIL_13
 70
     0
  0
APPID
  2
GENIUS_GENOBJ-N-CHA_13
 70
     0
  0
APPID
  2
GENIUS_GENOBJ-NBEHI-BHB_13
 70
     0
  0
APPID
  2
GENIUS_GENOBJ-N-CRS_13
 70
     0
  0
APPID
  2
GENIUS_GENDTOL_13
 70
     0
  0
APPID
  2
AD_DRAW
 70
     0
  0
APPID
  2
DESIGNERASSEMBLIES
 70
     0
  0
APPID
  2
ACADM_DIM_EDIT
 70
     0
  0
APPID
  2
AMDT_DM_ADJ
 70
     0
  0
APPID
  2
ACAD_PSEXT
 70
     0
  0
APPID
  2
ACAECLAYERSTANDARD
 70
     0
  0
APPID
  2
DCO15
 70
     0
  0
APPID
  2
GENIUS_GENOBJ-N-HTC_13
 70
     0
  0
APPID
  2
GENIUS_GENHATCH_13
 70
     0
  0
APPID
  2
ACAD_NAV_VCDISPLAY
 70
     0
  0
APPID
  2
ACAD_DSTYLE_DIMARC_LENGTH_
 70
     0
  0
APPID
  2
GENIUS_GENREC_14
 70
     0
  0
APPID
  2
GENIUS_GENOBJ-N-REC_13
 70
     0
  0
APPID
  2
GENIUS_GENCEN_19
 70
     0
  0
APPID
  2
ACAD_DSTYLE_DIMBREAK
 70
     0
  0
APPID
  2
ACAD_DSTYLE_DIMJAG
 70
     0
  0
APPID
  2
ACAD_DSTYLE_DIMINSPECT
 70
     0
  0
APPID
  2
ACAD_EXEMPT_FROM_CAD_STANDARDS
 70
     0
  0
APPID
  2
ACAD_MLEADERVER
 70
     0
  0
APPID
  2
ACADANNOMONITORALERTICONDI
 70
     0
  0
APPID
  2
CONTENTBLOCKICON
 70
     0
  0
ENDTAB
  0
TABLE
  2
DIMSTYLE
 70
    10
  0
DIMSTYLE
  2
SANKYO
 70
     0
  3

  4
"
  5
DOTSMALL
  6

  7

 40
1.0
 41
7.0
 42
1.0
 43
7.0
 44
3.0
 45
0.0
 46
0.0
 47
0.1
 48
0.1
140
7.0
141
0.0
142
0.0
143
0.0393701
144
1.0
145
0.0
146
0.71
147
1.3
 71
     0
 72
     0
 73
     0
 74
     0
 75
     0
 76
     0
 77
     1
 78
     8
170
     0
171
     2
172
     1
173
     0
174
     0
175
     0
176
   256
177
   256
178
   256
  0
DIMSTYLE
  2
SANKYO$0
 70
     0
  3

  4
"
  5
DOTSMALL
  6

  7

 40
1.0
 41
7.0
 42
1.0
 43
7.0
 44
3.0
 45
0.0
 46
0.0
 47
0.1
 48
0.1
140
7.0
141
0.0
142
0.0
143
0.0393701
144
1.0
145
0.0
146
0.71
147
1.3
 71
     0
 72
     0
 73
     0
 74
     0
 75
     0
 76
     0
 77
     1
 78
     8
170
     0
171
     2
172
     1
173
     0
174
     0
175
     0
176
   256
177
   256
178
   256
  0
DIMSTYLE
  2
DTOS-3
 70
     0
  3

  4
"
  5
DOT
  6

  7

 40
2.0
 41
0.7
 42
1.0
 43
7.0
 44
1.0
 45
0.0
 46
0.0
 47
0.1
 48
0.1
140
2.5
141
0.0
142
0.0
143
0.0393701
144
1.0
145
0.0
146
0.71
147
1.0
 71
     0
 72
     0
 73
     0
 74
     0
 75
     0
 76
     0
 77
     1
 78
     8
170
     0
171
     2
172
     1
173
     0
174
     1
175
     0
176
   256
177
   256
178
   256
  0
DIMSTYLE
  2
AM_ISO
 70
     0
  3

  4
"
  5

  6

  7

 40
1.0
 41
3.5
 42
1.0
 43
10.0
 44
1.0
 45
0.0
 46
0.0
 47
0.1
 48
0.1
140
3.5
141
0.0
142
0.0
143
0.0393701
144
1.0
145
0.0
146
0.71
147
1.5
 71
     0
 72
     0
 73
     0
 74
     0
 75
     0
 76
     0
 77
     1
 78
     8
170
     0
171
     2
172
     1
173
     0
174
     0
175
     0
176
   256
177
   256
178
     2
  0
DIMSTYLE
  2
AM_ISO$3
 70
     0
  3

  4
"
  5

  6

  7

 40
1.0
 41
3.5
 42
1.0
 43
10.0
 44
1.0
 45
0.0
 46
0.0
 47
0.1
 48
0.1
140
3.5
141
0.0
142
0.0
143
0.0393701
144
1.0
145
0.0
146
0.71
147
1.5
 71
     0
 72
     0
 73
     0
 74
     1
 75
     0
 76
     0
 77
     1
 78
     8
170
     0
171
     2
172
     0
173
     0
174
     0
175
     0
176
   256
177
   256
178
     2
  0
DIMSTYLE
  2
AM_ISO$4
 70
     0
  3

  4
"
  5

  6

  7

 40
1.0
 41
3.5
 42
1.0
 43
10.0
 44
1.0
 45
0.0
 46
0.0
 47
0.1
 48
0.1
140
3.5
141
0.0
142
0.0
143
0.0393701
144
1.0
145
0.0
146
0.71
147
1.5
 71
     0
 72
     0
 73
     0
 74
     1
 75
     0
 76
     0
 77
     1
 78
     8
170
     0
171
     2
172
     0
173
     0
174
     0
175
     0
176
   256
177
   256
178
     2
  0
DIMSTYLE
  2
AM_ISO$6
 70
     0
  3

  4
"
  5

  6

  7

 40
1.0
 41
3.5
 42
1.0
 43
10.0
 44
1.0
 45
0.0
 46
0.0
 47
0.1
 48
0.1
140
3.5
141
0.0
142
0.0
143
0.0393701
144
1.0
145
0.0
146
0.71
147
1.5
 71
     0
 72
     0
 73
     0
 74
     0
 75
     0
 76
     0
 77
     0
 78
     8
170
     0
171
     2
172
     1
173
     0
174
     0
175
     0
176
   256
177
   256
178
     2
  0
DIMSTYLE
  2
AM_ISO$7
 70
     0
  3

  4
"
  5

  6

  7

 40
1.0
 41
3.5
 42
1.0
 43
10.0
 44
1.0
 45
0.0
 46
0.0
 47
0.1
 48
0.1
140
3.5
141
0.0
142
0.0
143
0.0393701
144
1.0
145
0.0
146
0.71
147
1.5
 71
     0
 72
     0
 73
     0
 74
     0
 75
     0
 76
     0
 77
     1
 78
     8
170
     0
171
     2
172
     1
173
     0
174
     0
175
     0
176
   256
177
   256
178
     2
  0
DIMSTYLE
  2
AM_ISO$SF
 70
     0
  3

  4
"
  5

  6

  7

 40
1.0
 41
3.5
 42
1.0
 43
10.0
 44
1.0
 45
0.0
 46
0.0
 47
0.1
 48
0.1
140
3.5
141
0.0
142
0.0
143
0.0393701
144
1.0
145
0.0
146
0.71
147
1.5
 71
     0
 72
     0
 73
     0
 74
     0
 75
     1
 76
     1
 77
     1
 78
     8
170
     0
171
     2
172
     1
173
     0
174
     0
175
     0
176
   256
177
   256
178
     2
  0
DIMSTYLE
  2
AM_ISO$SH
 70
     0
  3

  4
"
  5

  6
GENAXEH
  7

 40
1.0
 41
3.5
 42
1.0
 43
10.0
 44
1.0
 45
0.0
 46
0.0
 47
0.1
 48
0.1
140
3.5
141
0.0
142
0.0
143
0.0393701
144
2.0
145
0.0
146
0.71
147
1.5
 71
     0
 72
     0
 73
     0
 74
     0
 75
     1
 76
     1
 77
     1
 78
     8
170
     0
171
     2
172
     1
173
     1
174
     0
175
     0
176
   256
177
   256
178
     2
  0
ENDTAB
  0
ENDSEC
  0
SECTION
  2
BLOCKS
  0
BLOCK
  8
0
  2
$MODEL_SPACE
 70
     0
 10
0.0
 20
0.0
 30
0.0
  3
$MODEL_SPACE
  1

  0
ENDBLK
  5
1A
  8
0
  0
BLOCK
 67
     1
  8
0
  2
$PAPER_SPACE
 70
     0
 10
0.0
 20
0.0
 30
0.0
  3
$PAPER_SPACE
  1

  0
ENDBLK
  5
17
 67
     1
  8
0
  0
BLOCK
  8
0
  2
_OPEN
 70
     0
 10
0.0
 20
0.0
 30
0.0
  3
_OPEN
  1

  0
LINE
  5
30B
  8
0
  6
BYBLOCK
 62
     0
 10
-1.0
 20
0.1666666666666666
 30
0.0
 11
0.0
 21
0.0
 31
0.0
  0
LINE
  5
30C
  8
0
  6
BYBLOCK
 62
     0
 10
-1.0
 20
-0.1666666666666666
 30
0.0
 11
0.0
 21
0.0
 31
0.0
  0
LINE
  5
30D
  8
0
  6
BYBLOCK
 62
     0
 10
0.0
 20
0.0
 30
0.0
 11
-1.0
 21
0.0
 31
0.0
  0
ENDBLK
  5
30F
  8
0
  0
BLOCK
  8
0
  2
_DOTSMALL
 70
     0
 10
0.0
 20
0.0
 30
0.0
  3
_DOTSMALL
  1

  0
POLYLINE
  5
A331
  8
0
  6
BYBLOCK
 62
     0
 66
     1
 10
0.0
 20
0.0
 30
0.0
 70
     1
 40
0.5
 41
0.5
  0
VERTEX
  5
1BB9C
  8
0
  6
BYBLOCK
 62
     0
 10
-0.0625
 20
0.0
 30
0.0
 42
1.0
  0
VERTEX
  5
1BB9D
  8
0
  6
BYBLOCK
 62
     0
 10
0.0625
 20
0.0
 30
0.0
 42
1.0
  0
SEQEND
  5
1BB9E
  8
0
  6
BYBLOCK
 62
     0
  0
ENDBLK
  5
A333
  8
0
  0
BLOCK
  8
0
  2
_DOT
 70
     0
 10
0.0
 20
0.0
 30
0.0
  3
_DOT
  1

  0
POLYLINE
  5
1287A
  8
0
  6
BYBLOCK
 62
     0
 66
     1
 10
0.0
 20
0.0
 30
0.0
 70
     1
 40
0.5
 41
0.5
  0
VERTEX
  5
1BBA0
  8
0
  6
BYBLOCK
 62
     0
 10
-0.25
 20
0.0
 30
0.0
 42
1.0
  0
VERTEX
  5
1BBA1
  8
0
  6
BYBLOCK
 62
     0
 10
0.25
 20
0.0
 30
0.0
 42
1.0
  0
SEQEND
  5
1BBA2
  8
0
  6
BYBLOCK
 62
     0
  0
LINE
  5
1287B
  8
0
  6
BYBLOCK
 62
     0
 10
-0.5
 20
0.0
 30
0.0
 11
-1.0
 21
0.0
 31
0.0
  0
ENDBLK
  5
1287C
  8
0
  0
BLOCK
  8
0
  2
GENAXEH
 70
     0
 10
0.0
 20
0.0
 30
0.0
  3
GENAXEH
  1

  0
LINE
  5
1B181
  8
0
 10
-1.0
 20
0.0
 30
0.0
 11
1.0
 21
0.0
 31
0.0
  0
ENDBLK
  5
1B183
  8
0
  0
ENDSEC
  0
SECTION
  2
ENTITIES
  0
LINE
  5
9B1A
  8
WK
 10
23.5
 20
16.25
 30
0.0
 11
1165.5
 21
16.25
 31
0.0
  0
LINE
  5
9B1C
  8
WK
 10
23.5
 20
824.75
 30
0.0
 11
23.5
 21
16.25
 31
0.0
  0
TEXT
  5
9BE2
  8
WK
 10
22.5
 20
16.25
 30
0.0
 40
3.2000000000000002
  1
A0
 50
90.0
 41
0.8299999999999999
  0
LINE
  5
9C31
  8
WK
 10
1085.5
 20
34.25
 30
0.0
 11
1085.5
 21
16.25
 31
0.0
  0
LINE
  5
9C32
  8
WK
 10
890.49999999999989
 20
34.25
 30
0.0
 11
890.49999999999989
 21
16.25
 31
0.0
  0
LINE
  5
9C34
  8
WK
 10
1045.5
 20
34.25
 30
0.0
 11
1045.5
 21
16.25
 31
0.0
  0
LINE
  5
9C35
  8
WK
 10
1065.5
 20
34.25
 30
0.0
 11
1065.5
 21
16.25
 31
0.0
  0
LINE
  5
9C37
  8
WK
 10
1005.5
 20
34.25
 30
0.0
 11
1005.5
 21
16.25
 31
0.0
  0
LINE
  5
9C38
  8
WK
 10
985.5
 20
34.25
 30
0.0
 11
985.5
 21
16.25
 31
0.0
  0
LINE
  5
9C3A
  8
WK
 10
890.49999999999989
 20
34.25
 30
0.0
 11
1165.5
 21
34.25
 31
0.0
  0
LINE
  5
9C3B
  8
WK
 10
899.5
 20
26.25
 30
0.0
 11
972.49999999999989
 21
26.25
 31
0.0
  0
LINE
  5
9C3E
  8
WK
 10
1005.5
 20
22.25
 30
0.0
 11
1045.5
 21
22.25
 31
0.0
  0
LINE
  5
9C3F
  8
WK
 10
1005.5
 20
28.25
 30
0.0
 11
1045.5
 21
28.25
 31
0.0
  0
LINE
  5
9C46
  8
WK
 10
1151.8094750193111
 20
25.25
 30
0.0
 11
1163.8094750193111
 21
25.25
 31
0.0
  0
CIRCLE
  5
9C47
  8
WK
 10
1157.8094750193111
 20
25.25
 30
0.0
 40
6.0
  0
TEXT
  5
9C56
  8
WK
 10
992.52780952380954
 20
20.649999643948512
 30
0.0
 40
3.2000000000000002
  1
1:1
 41
0.8299999999999999
 72
     4
 11
995.5
 21
22.249999643948509
 31
0.0
  0
TEXT
  5
9C57
  8
WK
 10
1087.8031333333331
 20
30.150000000000009
 30
0.0
 40
3.2000000000000002
  1
図番
 41
0.8299999999999999
  0
TEXT
  5
9C58
  8
WK
 10
1067.9290000000001
 20
30.150000000000009
 30
0.0
 40
3.2000000000000002
  1
検図
 41
0.8299999999999999
  0
TEXT
  5
9C59
  8
WK
 10
1047.9290000000001
 20
30.150000000000009
 30
0.0
 40
3.2000000000000002
  1
作図
 41
0.8299999999999999
  0
TEXT
  5
9C5A
  8
WK
 10
1006.5535725057121
 20
29.149999999999999
 30
0.0
 40
3.2000000000000002
  1
作成
 41
0.8299999999999999
  0
TEXT
  5
9C5B
  8
WK
 10
1006.5535725057121
 20
23.149999999999999
 30
0.0
 40
3.2000000000000002
  1
制定
 41
0.8299999999999999
  0
TEXT
  5
9C5C
  8
WK
 10
1006.5535725057121
 20
17.149999999999999
 30
0.0
 40
3.2000000000000002
  1
廃止
 41
0.8299999999999999
  0
TEXT
  5
9C5D
  8
WK
 10
986.42899999999997
 20
30.149999999999999
 30
0.0
 40
3.2000000000000002
  1
尺度
 41
0.8299999999999999
  0
TEXT
  5
9C5E
  8
WK
 10
973.49999999999989
 20
18.25
 30
0.0
 40
4.0
  1
基準図
 41
0.8
  0
TEXT
  5
9C77
  8
WK
 10
892.30313333333345
 20
30.150000000000009
 30
0.0
 40
3.2000000000000002
  1
図名
 41
0.8299999999999999
  0
LINE
  5
9E0D
  8
WK
 10
23.5
 20
824.75
 30
0.0
 11
1165.5
 21
824.75
 31
0.0
  0
LINE
  5
9E18
  8
WK
 10
1165.5
 20
824.75
 30
0.0
 11
1165.5
 21
16.25
 31
0.0
  0
TEXT
  5
12887
  8
WK
 10
1130.0726417273511
 20
826.75
 30
0.0
 40
4.0
  1
大栄建材株式会社
 41
0.9
 72
     2
 11
1163.672641727351
 21
826.75
 31
0.0
  0
TEXT
  5
15358
  8
MJ
 10
1005.5
 20
42.25
 30
0.0
 40
7.0
  1
re11a001
 41
0.8299999999999999
  0
TEXT
  5
1535B
  8
MJ
 10
1005.5
 20
78.25
 30
0.0
 40
7.0
  1
リアリゼ（キッチンスペース収納）
 41
0.8299999999999999
  0
TEXT
  5
1535C
  8
MJ
 10
1005.5
 20
51.25
 30
0.0
 40
7.0
  1
たて横断面
 41
0.8299999999999999
  0
TEXT
  5
15F31
  8
MJ
 10
1005.5
 20
69.25
 30
0.0
 40
7.0
  1
扉２枚　収納２列タイプ
 41
0.8299999999999999
  0
TEXT
  5
15F32
  8
MJ
 10
1005.5
 20
60.25
 30
0.0
 40
7.0
  1
クレーヴァ25　Yレール引戸
 41
0.8299999999999999
  0
LINE
  5
16A89
  8
OS
 10
73.5
 20
193.7947028233323
 30
0.0
 11
338.14203913270831
 21
193.7947028233323
 31
0.0
  0
LINE
  5
16A8A
  8
OS
 10
237.5000082001238
 20
265.79470265552851
 30
0.0
 11
73.499999978209246
 21
265.79470269258672
 31
0.0
  0
LINE
  5
16A8B
  8
OS
 10
306.50000820012298
 20
265.79470269258672
 30
0.0
 11
319.50000834586518
 21
265.79470269258672
 31
0.0
  0
LINE
  5
16A8C
  8
OS
 10
73.5
 20
205.79470282333199
 30
0.0
 11
338.14203913270831
 21
205.79470282333199
 31
0.0
  0
LINE
  5
16A8F
  8
OS
 10
73.5
 20
602.24764995185114
 30
0.0
 11
338.14204454884572
 21
602.24764995184933
 31
0.0
  0
LINE
  5
16B85
  8
KI2
 10
1030.3181479855441
 20
232.99470453444121
 30
0.0
 11
1030.3181479855441
 21
232.29470453444119
 31
0.0
  0
LINE
  5
16B86
  8
KI2
 10
1036.318144020709
 20
232.99470453444121
 30
0.0
 11
1030.3181479855441
 21
232.99470453444121
 31
0.0
  0
LINE
  5
16B87
  8
KI2
 10
1036.318144020709
 20
232.29470453444119
 30
0.0
 11
1030.3181479855441
 21
232.29470453444119
 31
0.0
  0
LINE
  5
16B88
  8
KI2
 10
1030.3181426668709
 20
217.29470453444091
 30
0.0
 11
1030.318142497641
 21
216.59470453444109
 31
0.0
  0
LINE
  5
16B89
  8
KI2
 10
1030.318142497641
 20
216.59470453444109
 30
0.0
 11
1036.3181432954341
 21
216.5947030838914
 31
0.0
  0
LINE
  5
16B8A
  8
KI2
 10
1030.3181426668709
 20
217.29470453444091
 30
0.0
 11
1036.3181434646649
 21
217.29470308389151
 31
0.0
  0
LINE
  5
16B8B
  8
KI2
 10
1039.318144020709
 20
219.5947030838914
 30
0.0
 11
1039.318144020709
 21
229.99470453444121
 31
0.0
  0
LINE
  5
16B8C
  8
KI2
 10
1038.618144020709
 20
219.5947030838914
 30
0.0
 11
1038.618144020709
 21
229.99470453444121
 31
0.0
  0
ARC
  5
16B8D
  8
KI2
 10
1036.318144020709
 20
229.99470453444121
 30
0.0
 40
3.0
 50
0.0
 51
90.0
1001
GENIUS_GENODEF_13
1002
{
1000
HIER
1070
     0
1002
}
1002
{
1000
MANEDIT
1070
     0
1002
}
1002
{
1000
NOSEL
1070
     0
1002
}
1002
{
1000
BEHIND
1070
     0
1002
}
1002
{
1000
OTHER
1070
     0
1002
}
1002
{
1000
REACTOR
1002
}
1001
GENIUS_GENOBJ-N-FIL_13
1002
{
1000
OWNER
1000
GEN
1002
}
  0
ARC
  5
16B8E
  8
KI2
 10
1036.318144020709
 20
229.99470453444121
 30
0.0
 40
2.2999999999999989
 50
0.0
 51
90.0
1001
GENIUS_GENODEF_13
1002
{
1000
HIER
1070
     0
1002
}
1002
{
1000
MANEDIT
1070
     0
1002
}
1002
{
1000
NOSEL
1070
     0
1002
}
1002
{
1000
BEHIND
1070
     0
1002
}
1002
{
1000
OTHER
1070
     0
1002
}
1002
{
1000
REACTOR
1002
}
1001
GENIUS_GENOBJ-N-FIL_13
1002
{
1000
OWNER
1000
GEN
1002
}
  0
ARC
  5
16B8F
  8
KI2
 10
1036.318144020709
 20
219.5947030838914
 30
0.0
 40
3.0
 50
269.99998614827302
 51
0.0
1001
GENIUS_GENODEF_13
1002
{
1000
HIER
1070
     0
1002
}
1002
{
1000
MANEDIT
1070
     0
1002
}
1002
{
1000
NOSEL
1070
     0
1002
}
1002
{
1000
BEHIND
1070
     0
1002
}
1002
{
1000
OTHER
1070
     0
1002
}
1002
{
1000
REACTOR
1002
}
1001
GENIUS_GENOBJ-N-FIL_13
1002
{
1000
OWNER
1000
GEN
1002
}
  0
ARC
  5
16B90
  8
KI2
 10
1036.318144020709
 20
219.5947030838914
 30
0.0
 40
2.2999999999999989
 50
269.99998614827302
 51
0.0
1001
GENIUS_GENODEF_13
1002
{
1000
HIER
1070
     0
1002
}
1002
{
1000
MANEDIT
1070
     0
1002
}
1002
{
1000
NOSEL
1070
     0
1002
}
1002
{
1000
BEHIND
1070
     0
1002
}
1002
{
1000
OTHER
1070
     0
1002
}
1002
{
1000
REACTOR
1002
}
1001
GENIUS_GENOBJ-N-FIL_13
1002
{
1000
OWNER
1000
GEN
1002
}
  0
LINE
  5
16BCF
  8
KI2
 10
546.8181424976201
 20
214.7947021387138
 30
0.0
 11
716.31814177235174
 21
214.7947021387138
 31
0.0
  0
LINE
  5
16BD0
  8
KI2
 10
801.81814253204084
 20
270.79470300678042
 30
0.0
 11
844.72009259436584
 21
270.79470398246821
 31
0.0
  0
LINE
  5
16BD1
  8
KI2
 10
546.81814249763102
 20
229.59470213871489
 30
0.0
 11
716.31814177235174
 21
229.59470213871529
 31
0.0
  0
LINE
  5
16C44
  8
KI2
 10
776.8181435474271
 20
226.8947023394378
 30
0.0
 11
734.31814177235162
 21
226.89470233943831
 31
0.0
  0
LINE
  5
16C45
  8
KI2
 10
776.81814253204186
 20
222.69470233943889
 30
0.0
 11
734.31814177235162
 21
222.69470233943889
 31
0.0
  0
LINE
  5
16C46
  8
KI2
 10
801.81814102105182
 20
258.69470320750372
 30
0.0
 11
820.29287360378839
 21
258.6947037171833
 31
0.0
  0
LINE
  5
16C47
  8
KI2
 10
801.81814000566737
 20
262.89470320750257
 30
0.0
 11
820.29287360378839
 21
262.89470371718278
 31
0.0
  0
LINE
  5
16C48
  8
KI2
 10
801.81814167379991
 20
255.99469967706651
 30
0.0
 11
820.29287360378839
 21
255.99470018674609
 31
0.0
  0
LINE
  5
16C49
  8
PH
 10
200.00000287614151
 20
493.49026525417003
 30
0.0
 11
200.00000287614151
 21
205.79470282333199
 31
0.0
  0
LINE
  5
16C4A
  8
PH
 10
159.8698186753754
 20
493.49026525417003
 30
0.0
 11
200.00000287614151
 21
493.49026525417003
 31
0.0
  0
LINE
  5
16C4B
  8
PH
 10
159.8698186753754
 20
473.49026525417003
 30
0.0
 11
200.00000287614151
 21
473.49026525417003
 31
0.0
  0
LINE
  5
16C4C
  8
PH
 10
159.8698186753754
 20
356.31679105804511
 30
0.0
 11
200.00000287614151
 21
356.31679105804511
 31
0.0
  0
LINE
  5
16C4D
  8
PH
 10
159.8698186753754
 20
336.31679105804511
 30
0.0
 11
200.00000287614151
 21
336.31679105804511
 31
0.0
  0
TEXT
  5
16C4E
  8
MJ
 10
113.5428596216843
 20
410.7531832265916
 30
0.0
 40
10.0
  1
[収納棚]
 41
0.95
 72
     1
 11
136.75000247882721
 21
415.7531832265916
 31
0.0
 73
     2
  0
LINE
  5
16C4F
  8
OS
 10
1039.3181417723711
 20
201.2947028233323
 30
0.0
 11
1039.3181417723811
 21
428.7078907142083
 31
0.0
  0
LINE
  5
16C50
  8
PH
 10
1016.818141772375
 20
318.2673323298643
 30
0.0
 11
1016.818141772378
 21
345.2673323298643
 31
0.0
  0
LINE
  5
16C51
  8
OS
 10
1031.8181417723711
 20
193.7947028233323
 30
0.0
 11
1031.8181417723761
 21
428.70789071421558
 31
0.0
  0
LINE
  5
16C52
  8
OS
 10
539.31814249761726
 20
184.4737811479136
 30
0.0
 11
539.31814249760737
 21
428.70789071421558
 31
0.0
  0
LINE
  5
16C53
  8
OS
 10
546.81814249761726
 20
184.4737811479136
 30
0.0
 11
546.81814249761089
 21
428.70789071421558
 31
0.0
  0
LINE
  5
16C55
  8
PH
 10
1031.8181417723749
 20
318.2673323298643
 30
0.0
 11
546.81814249761192
 21
318.26733232987158
 31
0.0
  0
LINE
  5
16C56
  8
PH
 10
779.31814249763556
 20
318.26733232986612
 30
0.0
 11
779.31814249763556
 21
345.26733232986612
 31
0.0
  0
LINE
  5
16C57
  8
PH
 10
799.31814249763556
 20
318.26733232986612
 30
0.0
 11
799.31814249763556
 21
345.26733232986612
 31
0.0
  0
LINE
  5
16C58
  8
PH
 10
561.81814249761192
 20
318.2673323298643
 30
0.0
 11
561.81814249760919
 21
345.2673323298643
 31
0.0
  0
TEXT
  5
16C5E
  8
MJ
 10
766.11099964048867
 20
398.06241070917463
 30
0.0
 40
10.0
  1
[収納棚]
 41
0.95
 72
     1
 11
789.31814249763136
 21
403.06241070917463
 31
0.0
 73
     2
  0
TEXT
  5
16C60
  8
SU
 10
1066.5975933317141
 20
174.62138720005709
 30
0.0
 40
7.0
  1
巾木と緩衝する部分カット
 41
0.85
  0
TEXT
  5
16C61
  8
SU
 10
1066.8851636412171
 20
185.30621638872569
 30
0.0
 40
7.0
  1
樹脂目板
 41
0.9
  0
LINE
  5
16C64
  8
KI1
 10
273.50000067551258
 20
565.24765056014644
 30
0.0
 11
273.50000233701559
 21
513.24764995184933
 31
0.0
  0
LINE
  5
16C65
  8
KI1
 10
306.50000067551258
 20
565.2476511383976
 30
0.0
 11
306.50000945719421
 21
214.79470282323479
 31
0.0
  0
LINE
  5
16D76
  8
KI1
 10
273.50000067551258
 20
565.24765065861379
 30
0.0
 11
306.50000067551258
 21
565.24765065861379
 31
0.0
  0
LINE
  5
16D79
  8
KI1
 10
237.50000067551261
 20
565.24765056014644
 30
0.0
 11
237.50000945719509
 21
214.79470282323479
 31
0.0
  0
LINE
  5
16D7A
  8
KI1
 10
270.50000067551258
 20
565.2476511383976
 30
0.0
 11
270.50000233701559
 21
513.24764995184933
 31
0.0
  0
LINE
  5
16E8B
  8
KI1
 10
237.50000067551261
 20
565.24765065861379
 30
0.0
 11
270.50000067551258
 21
565.24765065861379
 31
0.0
  0
LINE
  5
16E8C
  8
OS
 10
526.81814249763829
 20
428.70789071421558
 30
0.0
 11
526.81814249761726
 21
184.4737811479136
 31
0.0
  0
LINE
  5
16E8D
  8
OS
 10
1051.8181417723499
 20
428.7078907142083
 30
0.0
 11
1051.8181417723681
 21
213.7947028233323
 31
0.0
  0
LINE
  5
16E8E
  8
OS
 10
73.5
 20
614.74764995185114
 30
0.0
 11
338.14204454884572
 21
614.74764995184933
 31
0.0
  0
LINE
  5
16E8F
  8
OS
 10
1039.3181417723711
 20
201.2947028233323
 30
0.0
 11
1065.5
 21
201.29470282333091
 31
0.0
  0
LINE
  5
16E90
  8
OS
 10
1051.8181417723681
 20
213.7947028233323
 30
0.0
 11
1065.5
 21
213.79470282333091
 31
0.0
  0
LINE
  5
16E91
  8
OS
 10
1031.8181417723711
 20
193.7947028233323
 30
0.0
 11
1065.4999999999991
 21
193.79470282333091
 31
0.0
  0
LINE
  5
16E94
  8
OS
 10
313.50000967510101
 20
265.79470269258672
 30
0.0
 11
313.49999999999989
 21
596.24765065861379
 31
0.0
  0
LINE
  5
16E95
  8
OS
 10
319.50000965331111
 20
205.79470282333199
 30
0.0
 11
319.50000834586518
 21
265.79470269258672
 31
0.0
  0
LINE
  5
16E96
  8
TS
 10
313.50000965331111
 20
205.7947026925867
 30
0.0
 11
313.50000834586518
 21
265.79470269258672
 31
0.0
  0
LINE
  5
16E98
  8
OS
 10
498.4181761948584
 20
428.70789071421558
 30
0.0
 11
1065.5
 21
428.70789071421558
 31
0.0
  0
LINE
  5
16E9D
  8
OS
 10
73.5
 20
614.74764995185114
 30
0.0
 11
73.5
 21
193.7947028233323
 31
0.0
  0
LINE
  5
16EA6
  8
KI2
 10
835.31814123864353
 20
255.99469835524491
 30
0.0
 11
1031.8181424976401
 21
255.99469880900159
 31
0.0
  0
LINE
  5
16EA7
  8
KI2
 10
835.31814123864353
 20
258.69470188568209
 30
0.0
 11
1031.818142497639
 21
258.69470233943889
 31
0.0
  0
LINE
  5
16EA8
  8
KI2
 10
835.31814123864353
 20
262.894701885681
 30
0.0
 11
1031.818142497639
 21
262.8947023394378
 31
0.0
  0
LINE
  5
16EA9
  8
KI2
 10
834.16051958529522
 20
270.79470166285267
 30
0.0
 11
1031.818142497636
 21
270.79470213871559
 31
0.0
  0
LINE
  5
16EAE
  8
CL
 10
313.49999999999989
 20
596.24765065861379
 30
0.0
 11
313.5
 21
723.83318513122049
 31
0.0
  0
TEXT
  5
16EAF
  8
MJ
 10
322.62041790100977
 20
727.77262559113888
 30
0.0
 40
10.0
  1
壁前面
 41
0.95
  0
LINE
  5
16EB0
  8
MJ
 10
318.37500000000028
 20
736.01200290675536
 30
0.0
 11
313.5
 21
727.56825521985684
 31
0.0
  0
LINE
  5
16EB1
  8
MJ
 10
308.62500000000051
 20
736.01200290675536
 30
0.0
 11
318.37500000000028
 21
736.01200290675536
 31
0.0
  0
LINE
  5
16EB2
  8
MJ
 10
313.5
 20
727.56825521985684
 30
0.0
 11
308.62500000000051
 21
736.01200290675536
 31
0.0
  0
TEXT
  5
16EB3
  8
SU
 10
1066.8851636412171
 20
162.89299526861859
 30
0.0
 40
7.0
  1
巾木
 41
0.9
  0
LINE
  5
16EB5
  8
OS
 10
313.5
 20
614.74764995184967
 30
0.0
 11
313.5
 21
644.74764995184967
 31
0.0
  0
LINE
  5
16EB7
  8
OS
 10
313.5
 20
644.74764995184967
 30
0.0
 11
208.5
 21
644.74764995184967
 31
0.0
  0
LINE
  5
16EB8
  8
OS
 10
208.5
 20
614.74764995184967
 30
0.0
 11
208.5
 21
644.74764995184967
 31
0.0
  0
LINE
  5
16EB9
  8
OS
 10
208.5
 20
614.74764995184967
 30
0.0
 11
313.5
 21
644.74764995184967
 31
0.0
  0
LINE
  5
16EBA
  8
PH
 10
579.81814249761192
 20
182.35348737547091
 30
0.0
 11
759.81814021487605
 21
182.35348737547449
 31
0.0
  0
TEXT
  5
16EBB
  8
MJ
 10
636.12814213498177
 20
329.09573609638602
 30
0.0
 40
7.0
  1
(スライドテーブル)
 41
0.9
 72
     1
 11
670.56814213498183
 21
332.59573609638591
 31
0.0
 73
     2
  0
LINE
  5
16EBC
  8
PH
 10
761.31814177235185
 20
343.2673323298697
 30
0.0
 11
761.31814177235185
 21
182.35348737547449
 31
0.0
  0
LINE
  5
16EC5
  8
PH
 10
579.81814249761192
 20
343.2673323298643
 30
0.0
 11
579.81814249761192
 21
182.35348737547091
 31
0.0
  0
LINE
  5
16ECA
  8
KI2
 10
716.31814177235174
 20
226.89470233943831
 30
0.0
 11
546.81814249762999
 21
226.8947023394378
 31
0.0
  0
LINE
  5
16ECB
  8
KI2
 10
734.31814177235162
 20
229.59470213871529
 30
0.0
 11
776.81814420017417
 21
229.59470213871489
 31
0.0
  0
LINE
  5
16ECC
  8
KI2
 10
716.31814177235174
 20
222.69470233943889
 30
0.0
 11
546.81814249762829
 21
222.69470233943889
 31
0.0
  0
LINE
  5
16ECD
  8
KI2
 10
734.31814177235162
 20
214.7947021387138
 30
0.0
 11
776.81814102105284
 21
214.7947021387138
 31
0.0
  0
TEXT
  5
16EDD
  8
SU
 10
334.09180446016239
 20
635.87359359787263
 30
0.0
 40
7.0
  1
下地材
 41
0.9
  0
TEXT
  5
16EDF
  8
SU
 10
183.88799090198609
 20
176.70828552782311
 30
0.0
 40
7.0
  1
巾木
 41
0.9
  0
LINE
  5
16EE0
  8
OS
 10
73.5
 20
196.19470282333211
 30
0.0
 11
338.14203913270831
 21
196.19470282333211
 31
0.0
  0
LINE
  5
16EE1
  8
OS
 10
73.5
 20
198.5947028233322
 30
0.0
 11
338.14203913270831
 21
198.5947028233322
 31
0.0
  0
LINE
  5
16EE2
  8
OS
 10
73.5
 20
200.99470282333229
 30
0.0
 11
338.14203913270831
 21
200.99470282333229
 31
0.0
  0
LINE
  5
16EE3
  8
OS
 10
73.5
 20
203.39470282333241
 30
0.0
 11
338.14203913270831
 21
203.39470282333241
 31
0.0
  0
LINE
  5
16EFD
  8
KI1
 10
270.5000037912888
 20
468.24764995184933
 30
0.0
 11
270.50000945719421
 21
214.79470282323479
 31
0.0
  0
LINE
  5
16EFE
  8
KI1
 10
273.50000379128869
 20
468.24764995184933
 30
0.0
 11
273.50000945719512
 21
214.79470282323479
 31
0.0
  0
LINE
  5
16F88
  8
KI2
 10
542.31814299324822
 20
268.99470303752207
 30
0.0
 11
548.31813902841247
 21
268.99470303752207
 31
0.0
  0
LINE
  5
16F89
  8
KI2
 10
542.31814299324822
 20
268.29470303752203
 30
0.0
 11
548.31813902841247
 21
268.29470303752203
 31
0.0
  0
LINE
  5
16F8B
  8
KI2
 10
548.31814451631647
 20
252.59470303752201
 30
0.0
 11
542.31814371852295
 21
252.59470158697229
 31
0.0
  0
LINE
  5
16F8C
  8
KI2
 10
548.31814434708599
 20
253.2947030375218
 30
0.0
 11
542.31814354929224
 21
253.29470158697231
 31
0.0
  0
LINE
  5
16F8D
  8
KI2
 10
539.31814299324833
 20
255.59470158697229
 30
0.0
 11
539.31814299324833
 21
265.99470303752207
 31
0.0
  0
LINE
  5
16F8E
  8
KI2
 10
540.01814299324838
 20
255.59470158697229
 30
0.0
 11
540.01814299324838
 21
265.99470303752207
 31
0.0
  0
ARC
  5
16F8F
  8
KI2
 10
542.31814299324822
 20
265.99470303752207
 30
0.0
 40
3.0
 50
90.0
 51
180.0
1001
GENIUS_GENODEF_13
1002
{
1000
HIER
1070
     0
1002
}
1002
{
1000
MANEDIT
1070
     0
1002
}
1002
{
1000
NOSEL
1070
     0
1002
}
1002
{
1000
BEHIND
1070
     0
1002
}
1002
{
1000
OTHER
1070
     0
1002
}
1002
{
1000
REACTOR
1002
}
1001
GENIUS_GENOBJ-N-FIL_13
1002
{
1000
OWNER
1000
GEN
1002
}
  0
ARC
  5
16F90
  8
KI2
 10
542.31814299324822
 20
265.99470303752207
 30
0.0
 40
2.2999999999999989
 50
90.0
 51
180.0
1001
GENIUS_GENODEF_13
1002
{
1000
HIER
1070
     0
1002
}
1002
{
1000
MANEDIT
1070
     0
1002
}
1002
{
1000
NOSEL
1070
     0
1002
}
1002
{
1000
BEHIND
1070
     0
1002
}
1002
{
1000
OTHER
1070
     0
1002
}
1002
{
1000
REACTOR
1002
}
1001
GENIUS_GENOBJ-N-FIL_13
1002
{
1000
OWNER
1000
GEN
1002
}
  0
ARC
  5
16F91
  8
KI2
 10
542.31814299324822
 20
255.59470158697229
 30
0.0
 40
3.0
 50
180.0
 51
270.00001385172698
1001
GENIUS_GENODEF_13
1002
{
1000
HIER
1070
     0
1002
}
1002
{
1000
MANEDIT
1070
     0
1002
}
1002
{
1000
NOSEL
1070
     0
1002
}
1002
{
1000
BEHIND
1070
     0
1002
}
1002
{
1000
OTHER
1070
     0
1002
}
1002
{
1000
REACTOR
1002
}
1001
GENIUS_GENOBJ-N-FIL_13
1002
{
1000
OWNER
1000
GEN
1002
}
  0
ARC
  5
16F92
  8
KI2
 10
542.31814299324822
 20
255.59470158697229
 30
0.0
 40
2.2999999999999989
 50
180.0
 51
270.00001385172698
1001
GENIUS_GENODEF_13
1002
{
1000
HIER
1070
     0
1002
}
1002
{
1000
MANEDIT
1070
     0
1002
}
1002
{
1000
NOSEL
1070
     0
1002
}
1002
{
1000
BEHIND
1070
     0
1002
}
1002
{
1000
OTHER
1070
     0
1002
}
1002
{
1000
REACTOR
1002
}
1001
GENIUS_GENOBJ-N-FIL_13
1002
{
1000
OWNER
1000
GEN
1002
}
  0
TEXT
  5
178AB
  8
MJ
 10
888.64649149272998
 20
792.03593215641729
 30
0.0
 40
12.0
  1
■開口寸法
 41
0.95
 11
888.64649149272998
 21
798.0359321564174
 31
0.0
 73
     2
  0
LINE
  5
178AC
  8
OS
 10
888.64649149272998
 20
774.75
 30
0.0
 11
888.64649149272998
 21
697.8283771709107
 31
0.0
  0
LINE
  5
178AD
  8
OS
 10
901.64649149272975
 20
761.74999999999989
 30
0.0
 11
901.64649149272987
 21
697.8283771709107
 31
0.0
  0
LINE
  5
178AE
  8
OS
 10
901.64649149272975
 20
761.74999999999989
 30
0.0
 11
1068.1464914927301
 21
761.74999999999966
 31
0.0
  0
LINE
  5
178AF
  8
OS
 10
888.64649149272998
 20
774.75
 30
0.0
 11
1091.5
 21
774.74999999999966
 31
0.0
  0
LINE
  5
178B0
  8
OS
 10
1081.1464914927301
 20
761.74999999999989
 30
0.0
 11
1081.1464914927301
 21
701.75
 31
0.0
  0
LINE
  5
178B1
  8
OS
 10
1068.1464914927301
 20
761.74999999999989
 30
0.0
 11
1068.146491492729
 21
701.75
 31
0.0
  0
LINE
  5
178B2
  8
KI1
 10
983.69649149273005
 20
705.59999999999991
 30
0.0
 11
1068.1464914927301
 21
705.59999999999968
 31
0.0
  0
LINE
  5
178B3
  8
KI1
 10
1068.1464914927301
 20
702.29999999999973
 30
0.0
 11
983.69649149273005
 21
702.29999999999995
 31
0.0
  0
LINE
  5
178B4
  8
KI1
 10
983.69649149273005
 20
702.29999999999995
 30
0.0
 11
983.69649149273005
 21
705.59999999999991
 31
0.0
  0
LINE
  5
178B5
  8
KI1
 10
901.64649149272987
 20
709.19999999999982
 30
0.0
 11
986.09649149273014
 21
709.19999999999982
 31
0.0
  0
LINE
  5
178B6
  8
KI1
 10
986.09649149273014
 20
709.19999999999982
 30
0.0
 11
986.09649149273014
 21
705.89999999999975
 31
0.0
  0
LINE
  5
178B7
  8
KI1
 10
986.09649149273014
 20
705.89999999999975
 30
0.0
 11
901.64649149272987
 21
705.89999999999975
 31
0.0
  0
LINE
  5
178BA
  8
OS
 10
1081.1464914927301
 20
701.75
 30
0.0
 11
1068.146491492729
 21
701.75
 31
0.0
  0
LINE
  5
178BB
  8
OS
 10
1081.1464914927301
 20
761.74999999999989
 30
0.0
 11
1091.5
 21
761.74999999999966
 31
0.0
  0
LINE
  5
178BC
  8
KI1
 10
901.64649149272975
 20
716.75
 30
0.0
 11
1068.146491492729
 21
716.74999999999966
 31
0.0
  0
LINE
  5
178BD
  8
TS
 10
902.39649149272975
 20
761.74999999999966
 30
0.0
 11
902.39649149272975
 21
716.74999999999966
 31
0.0
  0
LINE
  5
178BE
  8
TS
 10
903.89649149272975
 20
761.74999999999966
 30
0.0
 11
903.89649149272975
 21
716.74999999999966
 31
0.0
  0
LINE
  5
178BF
  8
TS
 10
1065.8964914927301
 20
761.74999999999955
 30
0.0
 11
1065.8964914927301
 21
716.74999999999955
 31
0.0
  0
LINE
  5
178C0
  8
TS
 10
983.89649149272998
 20
761.74999999999989
 30
0.0
 11
983.89649149272975
 21
716.75
 31
0.0
  0
LINE
  5
178C1
  8
TS
 10
1067.3964914927301
 20
761.74999999999955
 30
0.0
 11
1067.3964914927301
 21
716.74999999999955
 31
0.0
  0
LINE
  5
178C2
  8
TS
 10
985.89649149272998
 20
761.74999999999989
 30
0.0
 11
985.89649149272964
 21
716.75
 31
0.0
  0
LINE
  5
199A6
  8
KI2
 10
249.99999189399031
 20
582.9476506586127
 30
0.0
 11
257.99999189399028
 21
582.9476506586127
 31
0.0
  0
LINE
  5
199A7
  8
KI2
 10
248.09999189399031
 20
579.13765065861276
 30
0.0
 11
259.8999918939902
 21
579.13765065861276
 31
0.0
  0
LINE
  5
199A8
  8
KI2
 10
248.09999189399031
 20
581.13765065861276
 30
0.0
 11
259.8999918939902
 21
581.13765065861276
 31
0.0
  0
LINE
  5
199A9
  8
KI2
 10
249.99999189399031
 20
582.9476506586127
 30
0.0
 11
249.99999189399031
 21
581.13765065861276
 31
0.0
  0
LINE
  5
199AA
  8
KI2
 10
248.09999189399031
 20
581.13765065861276
 30
0.0
 11
248.09999189399031
 21
579.13765065861276
 31
0.0
  0
LINE
  5
199AB
  8
KI2
 10
256.99999189399028
 20
579.13765065861276
 30
0.0
 11
256.99999189399028
 21
565.24765065861277
 31
0.0
  0
LINE
  5
199AC
  8
KI2
 10
250.99999189399031
 20
579.13765065861276
 30
0.0
 11
250.99999189399031
 21
565.24765065861277
 31
0.0
  0
LINE
  5
199AD
  8
KI2
 10
250.99999189399031
 20
576.62765065861277
 30
0.0
 11
256.99999189399028
 21
576.62765065861277
 31
0.0
  0
LINE
  5
199AE
  8
KI2
 10
252.27999189399031
 20
591.34765065861268
 30
0.0
 11
255.71999189399031
 21
591.34765065861268
 31
0.0
  0
LINE
  5
199AF
  8
KI2
 10
256.21999189399031
 20
590.84765065861268
 30
0.0
 11
251.77999189399031
 21
590.84765065861268
 31
0.0
  0
LINE
  5
199B0
  8
KI2
 10
251.77999189399031
 20
590.84765065861268
 30
0.0
 11
251.77999189399031
 21
582.9476506586127
 31
0.0
  0
LINE
  5
199B1
  8
KI2
 10
252.27999189399031
 20
591.34765065861268
 30
0.0
 11
251.77999189399031
 21
590.84765065861268
 31
0.0
  0
LINE
  5
199B2
  8
KI2
 10
256.21999189399031
 20
590.84765065861268
 30
0.0
 11
256.21999189399031
 21
582.9476506586127
 31
0.0
  0
LINE
  5
199B3
  8
KI2
 10
256.21999189399031
 20
590.84765065861268
 30
0.0
 11
255.71999189399031
 21
591.34765065861268
 31
0.0
  0
LINE
  5
199B4
  8
KI2
 10
257.99999189399028
 20
582.9476506586127
 30
0.0
 11
257.99999189399028
 21
581.13765065861276
 31
0.0
  0
LINE
  5
199B5
  8
KI2
 10
259.8999918939902
 20
581.13765065861276
 30
0.0
 11
259.8999918939902
 21
579.13765065861276
 31
0.0
  0
LINE
  5
199B6
  8
KI2
 10
285.99999189399028
 20
582.9476506586127
 30
0.0
 11
293.99999189399028
 21
582.9476506586127
 31
0.0
  0
LINE
  5
199B7
  8
KI2
 10
284.09999189399031
 20
579.13765065861276
 30
0.0
 11
295.89999189399032
 21
579.13765065861276
 31
0.0
  0
LINE
  5
199B8
  8
KI2
 10
284.09999189399031
 20
581.13765065861276
 30
0.0
 11
295.89999189399032
 21
581.13765065861276
 31
0.0
  0
LINE
  5
199B9
  8
KI2
 10
285.99999189399028
 20
582.9476506586127
 30
0.0
 11
285.99999189399028
 21
581.13765065861276
 31
0.0
  0
LINE
  5
199BA
  8
KI2
 10
284.09999189399031
 20
581.13765065861276
 30
0.0
 11
284.09999189399031
 21
579.13765065861276
 31
0.0
  0
LINE
  5
199BB
  8
KI2
 10
292.99999189399028
 20
579.13765065861276
 30
0.0
 11
292.99999189399028
 21
565.24765065861277
 31
0.0
  0
LINE
  5
199BC
  8
KI2
 10
286.99999189399028
 20
579.13765065861276
 30
0.0
 11
286.99999189399028
 21
565.24765065861277
 31
0.0
  0
LINE
  5
199BD
  8
KI2
 10
286.99999189399028
 20
576.62765065861277
 30
0.0
 11
292.99999189399028
 21
576.62765065861277
 31
0.0
  0
LINE
  5
199BE
  8
KI2
 10
288.27999189399031
 20
591.34765065861268
 30
0.0
 11
291.71999189399031
 21
591.34765065861268
 31
0.0
  0
LINE
  5
199BF
  8
KI2
 10
292.21999189399031
 20
590.84765065861268
 30
0.0
 11
287.77999189399031
 21
590.84765065861268
 31
0.0
  0
LINE
  5
199C0
  8
KI2
 10
287.77999189399031
 20
590.84765065861268
 30
0.0
 11
287.77999189399031
 21
582.9476506586127
 31
0.0
  0
LINE
  5
199C1
  8
KI2
 10
288.27999189399031
 20
591.34765065861268
 30
0.0
 11
287.77999189399031
 21
590.84765065861268
 31
0.0
  0
LINE
  5
199C2
  8
KI2
 10
292.21999189399031
 20
590.84765065861268
 30
0.0
 11
292.21999189399031
 21
582.9476506586127
 31
0.0
  0
LINE
  5
199C3
  8
KI2
 10
292.21999189399031
 20
590.84765065861268
 30
0.0
 11
291.71999189399031
 21
591.34765065861268
 31
0.0
  0
LINE
  5
199C4
  8
KI2
 10
293.99999189399028
 20
582.9476506586127
 30
0.0
 11
293.99999189399028
 21
581.13765065861276
 31
0.0
  0
LINE
  5
199C5
  8
KI2
 10
295.89999189399032
 20
581.13765065861276
 30
0.0
 11
295.89999189399032
 21
579.13765065861276
 31
0.0
  0
LINE
  5
19DA1
  8
KI1
 10
1030.318142497636
 20
241.2947018635773
 30
0.0
 11
1030.318142497636
 21
208.29470281530169
 31
0.0
  0
LINE
  5
19DA2
  8
KI1
 10
1030.318142497636
 20
241.2947018635773
 30
0.0
 11
776.81814253204186
 21
241.29470186357739
 31
0.0
  0
LINE
  5
19DA3
  8
KI1
 10
1030.318142497636
 20
208.29470281530169
 30
0.0
 11
776.81814253204186
 21
208.29470281530169
 31
0.0
  0
LINE
  5
19DFF
  8
KI1
 10
776.81814253204186
 20
241.29470186357739
 30
0.0
 11
776.81814253204186
 21
208.29470281530169
 31
0.0
  0
LINE
  5
19E00
  8
KI1
 10
801.81814051335982
 20
277.29470273164208
 30
0.0
 11
801.81814051335982
 21
244.29470368336649
 31
0.0
  0
LINE
  5
19E01
  8
KI1
 10
801.81814051335982
 20
277.2947041990102
 30
0.0
 11
734.31814177235162
 21
277.2947018635773
 31
0.0
  0
LINE
  5
19E02
  8
KI1
 10
801.81814051335982
 20
244.2947041990102
 30
0.0
 11
734.31814177235162
 21
244.29470281530169
 31
0.0
  0
LINE
  5
19E03
  8
KI1
 10
548.31814249763511
 20
277.2947018635773
 30
0.0
 11
548.31814249763511
 21
244.29470281530169
 31
0.0
  0
LINE
  5
19ED9
  8
KI1
 10
716.31814177235174
 20
277.2947018635773
 30
0.0
 11
548.31814249763511
 21
277.2947018635773
 31
0.0
  0
LINE
  5
19EDA
  8
KI1
 10
716.31814177235174
 20
244.29470281530169
 30
0.0
 11
548.31814249763511
 21
244.29470281530169
 31
0.0
  0
LINE
  5
1A0FC
  8
KI1
 10
268.24993560468732
 20
600.5476487699143
 30
0.0
 11
259.49993560468732
 21
600.54764838329993
 31
0.0
  0
LINE
  5
1A0FD
  8
KI1
 10
260.79993674464748
 20
574.74764844073979
 30
0.0
 11
266.09993674464738
 21
574.74764867491763
 31
0.0
  0
LINE
  5
1A0FE
  8
KI1
 10
261.94993669383518
 20
575.89764849155188
 30
0.0
 11
265.44993669383518
 21
575.89764864619769
 31
0.0
  0
LINE
  5
1A0FF
  8
KI1
 10
267.59993565549939
 20
599.39764874119442
 30
0.0
 11
240.39993565549949
 21
599.39764753937584
 31
0.0
  0
ARC
  5
1A100
  8
KI1
 10
268.74993555166589
 20
601.74764879200654
 30
0.0
 40
0.5
 50
0.0000025315855514
 51
180.00000253158549
  0
ARC
  5
1A101
  8
KI1
 10
268.67493666820832
 20
576.47764878869282
 30
0.0
 40
0.575000000000003
 50
180.00000253158549
 51
0.0000025315855514
  0
LINE
  5
1A102
  8
KI1
 10
269.24993666820831
 20
576.47764881409876
 30
0.0
 11
269.24993555166589
 21
601.74764881409885
 31
0.0
  0
ARC
  5
1A103
  8
KI1
 10
265.94993656128167
 20
578.89764866829
 30
0.0
 40
0.5
 50
90.000002531585565
 51
180.00000253158549
  0
LINE
  5
1A104
  8
KI1
 10
268.24993555166589
 20
601.74764876991435
 30
0.0
 11
268.24993560468732
 21
600.5476487699143
 31
0.0
  0
LINE
  5
1A105
  8
KI1
 10
265.94993653918948
 20
579.39764866828989
 30
0.0
 11
268.0999365391894
 21
579.39764876328661
 31
0.0
  0
LINE
  5
1A106
  8
KI1
 10
268.09993659000162
 20
578.24764876328663
 30
0.0
 11
266.59993659000168
 21
578.24764869700994
 31
0.0
  0
LINE
  5
1A107
  8
KI1
 10
268.0999365391894
 20
579.39764876328661
 30
0.0
 11
268.0999356775917
 21
598.89764876328661
 31
0.0
  0
LINE
  5
1A108
  8
KI1
 10
268.09993666820822
 20
576.47764876328665
 30
0.0
 11
268.09993659000162
 21
578.24764876328663
 31
0.0
  0
ARC
  5
1A109
  8
KI1
 10
267.59993567759159
 20
598.89764874119442
 30
0.0
 40
0.4999999999999999
 50
0.0000025315855514
 51
90.000002531585565
  0
ARC
  5
1A10A
  8
KI1
 10
266.09993672255519
 20
575.24764867491763
 30
0.0
 40
0.5
 50
270.00000253158549
 51
0.0000025315855514
  0
LINE
  5
1A10B
  8
KI1
 10
266.59993672255519
 20
575.24764869700994
 30
0.0
 11
266.59993659000168
 21
578.24764869700994
 31
0.0
  0
LINE
  5
1A10C
  8
KI1
 10
265.44993656128167
 20
578.89764864619769
 30
0.0
 11
265.44993669383518
 21
575.89764864619769
 31
0.0
  0
LINE
  5
1A10D
  8
KI1
 10
233.649936700463
 20
575.74764724113049
 30
0.0
 11
238.749936700463
 21
575.74764746647156
 31
0.0
  0
LINE
  5
1A10E
  8
KI1
 10
234.4499367446474
 20
574.74764727647801
 30
0.0
 11
247.19993674464749
 21
574.74764783983039
 31
0.0
  0
LINE
  5
1A10F
  8
KI1
 10
249.44993670046301
 20
575.74764793924555
 30
0.0
 11
247.499936700463
 21
575.74764785308582
 31
0.0
  0
LINE
  5
1A110
  8
KI1
 10
249.4486722319395
 20
583.19764793918955
 30
0.0
 11
247.4999363712885
 21
583.19764785308575
 31
0.0
  0
ARC
  5
1A111
  8
KI1
 10
249.2486722606595
 20
582.54764793035281
 30
0.0
 40
0.5
 50
270.00000253158549
 51
0.0000025315855514
  0
LINE
  5
1A112
  8
KI1
 10
249.44993658116479
 20
578.44764793924548
 30
0.0
 11
249.2499365811648
 21
578.44764793040849
 31
0.0
  0
ARC
  5
1A113
  8
KI1
 10
248.99993555166591
 20
601.74764791936263
 30
0.0
 40
0.5
 50
0.0000025315855514
 51
180.00000253158549
  0
LINE
  5
1A114
  8
KI1
 10
258.49993560468732
 20
600.54764833911543
 30
0.0
 11
249.49993560468729
 21
600.54764794145478
 31
0.0
  0
LINE
  5
1A115
  8
KI1
 10
258.74867228275173
 20
582.04764835010553
 30
0.0
 11
260.29993642210059
 21
582.04764841864744
 31
0.0
  0
LINE
  5
1A116
  8
KI1
 10
258.54993670046298
 20
575.74764834132452
 30
0.0
 11
260.49993670046302
 21
575.74764842748425
 31
0.0
  0
LINE
  5
1A117
  8
KI1
 10
258.54867223193952
 20
583.19764834126863
 30
0.0
 11
260.49993637128841
 21
583.1976484274843
 31
0.0
  0
LINE
  5
1A118
  8
KI1
 10
259.39993662534931
 20
577.44764837888135
 30
0.0
 11
258.74993658116477
 21
578.44764835016144
 31
0.0
  0
ARC
  5
1A119
  8
KI1
 10
258.99993555166589
 20
601.74764836120755
 30
0.0
 40
0.5
 50
0.0000025315855514
 51
180.00000253158549
  0
LINE
  5
1A11A
  8
KI1
 10
259.49993555166589
 20
601.74764838329986
 30
0.0
 11
259.49993560468732
 21
600.54764838329993
 31
0.0
  0
ARC
  5
1A11B
  8
KI1
 10
261.07493633925458
 20
583.92264845289048
 30
0.0
 40
0.5749999999999959
 50
0.0000025315855514
 51
180.00000253158549
  0
ARC
  5
1A11C
  8
KI1
 10
260.79993673139211
 20
575.04764844073975
 30
0.0
 40
0.3
 50
180.00000253158549
 51
270.00000253158549
  0
LINE
  5
1A11D
  8
KI1
 10
261.64993668058003
 20
576.19764847829663
 30
0.0
 11
261.64993633925468
 21
583.92264847829665
 31
0.0
  0
ARC
  5
1A11E
  8
KI1
 10
261.94993668057992
 20
576.19764849155194
 30
0.0
 40
0.3
 50
180.00000253158549
 51
270.00000253158549
  0
LINE
  5
1A11F
  8
KI1
 10
260.29993642210059
 20
582.04764841864744
 30
0.0
 11
260.49993648837739
 21
580.54764842748421
 31
0.0
  0
LINE
  5
1A120
  8
KI1
 10
260.49993664302309
 20
577.04764842748432
 30
0.0
 11
260.49993648837739
 21
580.54764842748421
 31
0.0
  0
LINE
  5
1A121
  8
KI1
 10
259.39993664302312
 20
577.04764837888126
 30
0.0
 11
260.49993664302309
 21
577.04764842748432
 31
0.0
  0
LINE
  5
1A122
  8
KI1
 10
259.39993662534931
 20
577.44764837888135
 30
0.0
 11
259.39993664302312
 21
577.04764837888126
 31
0.0
  0
LINE
  5
1A123
  8
KI1
 10
260.4999363392547
 20
583.92264842748443
 30
0.0
 11
260.49993637128841
 21
583.1976484274843
 31
0.0
  0
LINE
  5
1A124
  8
KI1
 10
260.49993673139221
 20
575.04764842748443
 30
0.0
 11
260.49993670046302
 21
575.74764842748425
 31
0.0
  0
LINE
  5
1A125
  8
KI1
 10
258.49993555166589
 20
601.74764833911536
 30
0.0
 11
258.49993560468732
 21
600.54764833911543
 31
0.0
  0
ARC
  5
1A126
  8
KI1
 10
258.54993668720761
 20
576.04764834132448
 30
0.0
 40
0.3
 50
180.00000253158549
 51
270.00000253158549
  0
ARC
  5
1A127
  8
KI1
 10
258.54867224519478
 20
582.89764834126856
 30
0.0
 40
0.3
 50
90.000002531585565
 51
180.00000253158549
  0
LINE
  5
1A128
  8
KI1
 10
258.24867224519488
 20
582.89764832801336
 30
0.0
 11
258.24867226065948
 21
582.54764832801334
 31
0.0
  0
LINE
  5
1A129
  8
KI1
 10
258.24993659442021
 20
578.14764832806907
 30
0.0
 11
258.24993668720771
 21
576.04764832806904
 31
0.0
  0
ARC
  5
1A12A
  8
KI1
 10
258.54993659442022
 20
578.1476483413245
 30
0.0
 40
0.3
 50
90.000002531585565
 51
180.00000253158549
  0
LINE
  5
1A12B
  8
KI1
 10
258.54993658116479
 20
578.44764834132445
 30
0.0
 11
258.74993658116477
 21
578.44764835016144
 31
0.0
  0
ARC
  5
1A12C
  8
KI1
 10
258.74867226065948
 20
582.54764835010553
 30
0.0
 40
0.5
 50
180.00000253158549
 51
270.00000253158549
  0
LINE
  5
1A12D
  8
KI1
 10
249.499935551666
 20
601.74764794145494
 30
0.0
 11
249.49993560468729
 21
600.54764794145478
 31
0.0
  0
ARC
  5
1A12E
  8
KI1
 10
249.44993668720761
 20
576.04764793924551
 30
0.0
 40
0.3
 50
270.00000253158549
 51
0.0000025315855514
  0
ARC
  5
1A12F
  8
KI1
 10
249.4486722451949
 20
582.8976479391896
 30
0.0
 40
0.3
 50
0.0000025315855514
 51
90.000002531585565
  0
LINE
  5
1A130
  8
KI1
 10
249.74867224519491
 20
582.89764795244503
 30
0.0
 11
249.7486722606595
 21
582.547647952445
 31
0.0
  0
LINE
  5
1A131
  8
KI1
 10
249.74993659442021
 20
578.14764795250085
 30
0.0
 11
249.74993668720771
 21
576.04764795250094
 31
0.0
  0
ARC
  5
1A132
  8
KI1
 10
249.44993659442011
 20
578.14764793924553
 30
0.0
 40
0.3
 50
0.0000025315855514
 51
90.000002531585565
  0
LINE
  5
1A133
  8
KI1
 10
246.04993669383529
 20
575.89764778901827
 30
0.0
 11
239.89993669383529
 21
575.89764751728364
 31
0.0
  0
LINE
  5
1A134
  8
KI1
 10
239.74993560468741
 20
600.54764751065602
 30
0.0
 11
248.49993560468729
 21
600.54764789727028
 31
0.0
  0
ARC
  5
1A135
  8
KI1
 10
246.04993668057989
 20
576.19764778901845
 30
0.0
 40
0.3
 50
270.00000253158549
 51
0.0000025315855514
  0
LINE
  5
1A136
  8
KI1
 10
248.49993555166591
 20
601.74764789727044
 30
0.0
 11
248.49993560468729
 21
600.54764789727028
 31
0.0
  0
LINE
  5
1A137
  8
KI1
 10
249.2486722827517
 20
582.04764793035281
 30
0.0
 11
247.69993642210059
 21
582.04764786192266
 31
0.0
  0
LINE
  5
1A138
  8
KI1
 10
248.59993664302311
 20
577.04764790168861
 30
0.0
 11
247.4999366430232
 21
577.04764785308566
 31
0.0
  0
LINE
  5
1A139
  8
KI1
 10
248.5999366253493
 20
577.4476479016887
 30
0.0
 11
248.59993664302311
 21
577.04764790168861
 31
0.0
  0
LINE
  5
1A13A
  8
KI1
 10
248.5999366253493
 20
577.4476479016887
 30
0.0
 11
249.2499365811648
 21
578.44764793040849
 31
0.0
  0
LINE
  5
1A13B
  8
KI1
 10
247.69993642210059
 20
582.04764786192266
 30
0.0
 11
247.49993648837739
 21
580.54764785308578
 31
0.0
  0
LINE
  5
1A13C
  8
KI1
 10
247.4999366430232
 20
577.04764785308566
 30
0.0
 11
247.49993648837739
 21
580.54764785308578
 31
0.0
  0
LINE
  5
1A13D
  8
KI1
 10
246.3499366805799
 20
576.19764780227365
 30
0.0
 11
246.34993633925461
 21
583.92264780227367
 31
0.0
  0
LINE
  5
1A13E
  8
KI1
 10
247.4999363392547
 20
583.92264785308589
 30
0.0
 11
247.4999363712885
 21
583.19764785308575
 31
0.0
  0
ARC
  5
1A13F
  8
KI1
 10
246.92493633925471
 20
583.92264782767984
 30
0.0
 40
0.5749999999999959
 50
0.0000025315855514
 51
180.00000253158549
  0
LINE
  5
1A140
  8
KI1
 10
247.49993673139221
 20
575.04764785308589
 30
0.0
 11
247.499936700463
 21
575.74764785308582
 31
0.0
  0
ARC
  5
1A141
  8
KI1
 10
247.19993673139211
 20
575.04764783983046
 30
0.0
 40
0.3
 50
270.00000253158549
 51
0.0000025315855514
  0
ARC
  5
1A142
  8
KI1
 10
239.249935551666
 20
601.74764748856364
 30
0.0
 40
0.5
 50
0.0000025315855514
 51
180.00000253158549
  0
LINE
  5
1A143
  8
KI1
 10
239.74993555166591
 20
601.74764751065595
 30
0.0
 11
239.74993560468741
 21
600.54764751065602
 31
0.0
  0
LINE
  5
1A144
  8
KI1
 10
239.89993669383529
 20
575.89764751728364
 30
0.0
 11
239.8999356775918
 21
598.89764751728364
 31
0.0
  0
ARC
  5
1A145
  8
KI1
 10
240.39993567759171
 20
598.89764753937584
 30
0.0
 40
0.4999999999999999
 50
90.000002531585565
 51
180.00000253158549
  0
LINE
  5
1A146
  8
KI1
 10
238.749936700463
 20
575.74764746647156
 30
0.0
 11
238.74993555166591
 21
601.74764746647145
 31
0.0
  0
ARC
  5
1A147
  8
KI1
 10
233.6499367225552
 20
575.24764724113049
 30
0.0
 40
0.5
 50
90.000002531585565
 51
180.00000253158549
  0
LINE
  5
1A148
  8
KI1
 10
233.14993672255531
 20
575.2476472190383
 30
0.0
 11
233.14993729695379
 21
562.2476472190383
 31
0.0
  0
ARC
  5
1A149
  8
KI1
 10
234.4499367579028
 20
574.44764727647805
 30
0.0
 40
0.3
 50
90.000002531585565
 51
180.00000253158549
  0
LINE
  5
1A14A
  8
KI1
 10
234.14993675790291
 20
574.44764726322285
 30
0.0
 11
234.14993729695379
 21
562.2476472632228
 31
0.0
  0
ARC
  5
1A14B
  8
KI1
 10
233.64993729695379
 20
562.24764724113061
 30
0.0
 40
0.5
 50
180.00000253158549
 51
0.0000025315855514
  0
LINE
  5
1A298
  8
KI2
 10
250.50000958268259
 20
210.7995393751163
 30
0.0
 11
253.00000958268271
 21
209.2995393751163
 31
0.0
  0
LINE
  5
1A299
  8
KI2
 10
257.50000958268271
 20
210.7995393751163
 30
0.0
 11
255.00000958268271
 21
209.2995393751163
 31
0.0
  0
LINE
  5
1A29A
  8
KI2
 10
257.50000958268271
 20
213.2947028232349
 30
0.0
 11
257.50000958268271
 21
210.7995393751163
 31
0.0
  0
LINE
  5
1A29B
  8
KI2
 10
253.00000958268271
 20
207.7995393751163
 30
0.0
 11
254.00000958268259
 21
207.7995393751163
 31
0.0
  0
LINE
  5
1A29C
  8
KI2
 10
255.00000958268271
 20
207.7995393751163
 30
0.0
 11
254.00000958268259
 21
207.7995393751163
 31
0.0
  0
LINE
  5
1A29D
  8
KI2
 10
253.00000958268271
 20
213.2947028232349
 30
0.0
 11
253.00000958268271
 21
207.7995393751163
 31
0.0
  0
LINE
  5
1A29E
  8
KI2
 10
255.00000958268271
 20
213.2947028232349
 30
0.0
 11
255.00000958268271
 21
207.7995393751163
 31
0.0
  0
LINE
  5
1A29F
  8
KI2
 10
250.50000958268259
 20
213.2947028232349
 30
0.0
 11
250.50000958268259
 21
210.7995393751163
 31
0.0
  0
LINE
  5
1A2A0
  8
KI2
 10
269.00000958268259
 20
213.2947028232349
 30
0.0
 11
239.00000958268271
 21
213.2947028232349
 31
0.0
  0
LINE
  5
1A2A1
  8
KI2
 10
270.50000958268259
 20
214.79470282323479
 30
0.0
 11
237.50000958268259
 21
214.79470282323479
 31
0.0
  0
ARC
  5
1A2A2
  8
KI2
 10
269.00000958268259
 20
214.79470282323479
 30
0.0
 40
1.5
 50
270.0
 51
0.0
  0
ARC
  5
1A2A3
  8
KI2
 10
239.00000958268271
 20
214.79470282323479
 30
0.0
 40
1.5
 50
180.0
 51
270.0
  0
LINE
  5
1A2A4
  8
KI2
 10
293.50000945719421
 20
210.7995393751163
 30
0.0
 11
291.00000945719421
 21
209.2995393751163
 31
0.0
  0
LINE
  5
1A2A5
  8
KI2
 10
286.50000945719421
 20
210.7995393751163
 30
0.0
 11
289.00000945719421
 21
209.2995393751163
 31
0.0
  0
LINE
  5
1A2A6
  8
KI2
 10
286.50000945719421
 20
213.2947028232349
 30
0.0
 11
286.50000945719421
 21
210.7995393751163
 31
0.0
  0
LINE
  5
1A2A7
  8
KI2
 10
291.00000945719421
 20
207.7995393751163
 30
0.0
 11
290.00000945719421
 21
207.7995393751163
 31
0.0
  0
LINE
  5
1A2A8
  8
KI2
 10
289.00000945719421
 20
207.7995393751163
 30
0.0
 11
290.00000945719421
 21
207.7995393751163
 31
0.0
  0
LINE
  5
1A2A9
  8
KI2
 10
291.00000945719421
 20
213.2947028232349
 30
0.0
 11
291.00000945719421
 21
207.7995393751163
 31
0.0
  0
LINE
  5
1A2AA
  8
KI2
 10
289.00000945719421
 20
213.2947028232349
 30
0.0
 11
289.00000945719421
 21
207.7995393751163
 31
0.0
  0
LINE
  5
1A2AB
  8
KI2
 10
293.50000945719421
 20
213.2947028232349
 30
0.0
 11
293.50000945719421
 21
210.7995393751163
 31
0.0
  0
LINE
  5
1A2AC
  8
KI2
 10
275.00000945719421
 20
213.2947028232349
 30
0.0
 11
305.00000945719421
 21
213.2947028232349
 31
0.0
  0
LINE
  5
1A2AD
  8
KI2
 10
273.50000945719421
 20
214.79470282323479
 30
0.0
 11
306.50000945719421
 21
214.79470282323479
 31
0.0
  0
ARC
  5
1A2AE
  8
KI2
 10
275.00000945719421
 20
214.79470282323479
 30
0.0
 40
1.5
 50
180.0
 51
270.0
  0
ARC
  5
1A2AF
  8
KI2
 10
305.00000945719421
 20
214.79470282323479
 30
0.0
 40
1.5
 50
270.0
 51
0.0
  0
ARC
  5
1A2B1
  8
KI1
 10
249.3254652287666
 20
209.09469790399359
 30
0.0
 40
0.5
 50
90.0
 51
130.4000055160223
  0
LINE
  5
1A2B2
  8
KI1
 10
250.4000144628441
 20
210.79469790399389
 30
0.0
 11
248.69998692338109
 21
210.79469790399389
 31
0.0
  0
LINE
  5
1A2B3
  8
KI1
 10
245.20000951993879
 20
206.24022504964211
 30
0.0
 11
245.20000951993879
 21
205.79470282333199
 31
0.0
  0
LINE
  5
1A2B4
  8
KI1
 10
244.0000095199386
 20
206.79470282333301
 30
0.0
 11
244.0000095199386
 21
205.79470282333199
 31
0.0
  0
LINE
  5
1A2B5
  8
KI1
 10
245.20000951993879
 20
205.79470282333199
 30
0.0
 11
244.0000095199386
 21
205.79470282333199
 31
0.0
  0
LINE
  5
1A2B6
  8
KI1
 10
249.00140524157831
 20
209.47546702656379
 30
0.0
 11
245.20000951993879
 21
206.24022504964211
 31
0.0
  0
LINE
  5
1A2B7
  8
KI1
 10
248.69998692338109
 20
210.79469790399389
 30
0.0
 11
244.0000095199386
 21
206.79470282333301
 31
0.0
  0
LINE
  5
1A2B9
  8
KI1
 10
284.74616526074999
 20
205.79470282333199
 30
0.0
 11
272.00000951993849
 21
205.79470282333199
 31
0.0
  0
LINE
  5
1A2BA
  8
KI1
 10
277.20000951993882
 20
209.2947028822482
 30
0.0
 11
282.90001595779279
 21
209.2947028822482
 31
0.0
  0
LINE
  5
1A2BB
  8
KI1
 10
285.2000059895027
 20
210.49469539719209
 30
0.0
 11
258.80001305037518
 21
210.49469539719209
 31
0.0
  0
LINE
  5
1A2BC
  8
KI1
 10
272.2828482343071
 20
206.99469533827781
 30
0.0
 11
284.60000691887592
 21
206.99469533827781
 31
0.0
  0
LINE
  5
1A2BD
  8
KI1
 10
276.30000951993873
 20
209.2947028822482
 30
0.0
 11
276.30000951993873
 21
207.74469539719209
 31
0.0
  0
ARC
  5
1A2BE
  8
KI1
 10
276.75000951993849
 20
207.74469539719209
 30
0.0
 40
0.4499999999999992
 50
180.0
 51
0.0
  0
LINE
  5
1A2BF
  8
KI1
 10
277.20000951993882
 20
209.2947028822482
 30
0.0
 11
277.20000951993882
 21
207.74469539719209
 31
0.0
  0
ARC
  5
1A2C0
  8
KI1
 10
272.00001190606292
 20
206.99469533827781
 30
0.0
 40
0.3
 50
180.0
 51
0.0
  0
ARC
  5
1A2C1
  8
KI1
 10
267.2500095199386
 20
207.74469539719209
 30
0.0
 40
0.4499999999999992
 50
180.0
 51
0.0
  0
LINE
  5
1A2C2
  8
KI1
 10
266.80000951993873
 20
209.2947028822482
 30
0.0
 11
266.80000951993873
 21
207.74469539719209
 31
0.0
  0
LINE
  5
1A2C3
  8
KI1
 10
267.70000951993882
 20
209.2947028822482
 30
0.0
 11
267.70000951993882
 21
207.74469539719209
 31
0.0
  0
LINE
  5
1A2C4
  8
KI1
 10
267.70000951993882
 20
209.2947028822482
 30
0.0
 11
276.30000951993873
 21
209.2947028822482
 31
0.0
  0
ARC
  5
1A2C5
  8
KI1
 10
259.2538537791271
 20
206.79470282333199
 30
0.0
 40
1.0
 50
199.72084247195909
 51
270.0
  0
LINE
  5
1A2C6
  8
KI1
 10
258.31250592166532
 20
206.45726510870611
 30
0.0
 11
258.22068344866949
 21
206.7134216806451
 31
0.0
  0
LINE
  5
1A2C7
  8
KI1
 10
257.18751311821171
 20
206.45726510870611
 30
0.0
 11
257.27933559120748
 21
206.7134216806451
 31
0.0
  0
ARC
  5
1A2C8
  8
KI1
 10
257.75000951993849
 20
206.54470282333199
 30
0.0
 40
0.5
 50
19.720842471959092
 51
160.27915752804091
  0
ARC
  5
1A2C9
  8
KI1
 10
258.30001711103898
 20
210.49469790399331
 30
0.0
 40
0.3
 50
0.0
 51
90.0
  0
LINE
  5
1A2CA
  8
KI1
 10
258.30001711103898
 20
210.79469790399389
 30
0.0
 11
257.60000457703393
 21
210.79469790399389
 31
0.0
  0
LINE
  5
1A2CB
  8
KI1
 10
259.40001212100299
 20
208.29470036366271
 30
0.0
 11
259.40001212100299
 21
206.99469533827781
 31
0.0
  0
LINE
  5
1A2CC
  8
KI1
 10
259.80001213278598
 20
208.29470036366271
 30
0.0
 11
259.40001212100299
 21
208.29470036366271
 31
0.0
  0
ARC
  5
1A2CD
  8
KI1
 10
259.80001213278598
 20
208.59470036366289
 30
0.0
 40
0.3
 50
270.0
 51
0.0
  0
LINE
  5
1A2CE
  8
KI1
 10
260.10001213278571
 20
208.6947028822469
 30
0.0
 11
260.10001213278571
 21
208.59470036366289
 31
0.0
  0
ARC
  5
1A2CF
  8
KI1
 10
259.50001213278591
 20
208.6947028822469
 30
0.0
 40
0.6
 50
0.0
 51
90.0
  0
LINE
  5
1A2D0
  8
KI1
 10
260.2000130739408
 20
209.2947028822482
 30
0.0
 11
258.60001711103911
 21
209.2947028822482
 31
0.0
  0
LINE
  5
1A2D1
  8
KI1
 10
258.60001711103911
 20
210.49469790399331
 30
0.0
 11
258.60001711103911
 21
209.2947028822482
 31
0.0
  0
LINE
  5
1A2D2
  8
KI1
 10
261.26626446785087
 20
207.85640354851969
 30
0.0
 11
260.98380924444348
 21
208.26189990278911
 31
0.0
  0
LINE
  5
1A2D3
  8
KI1
 10
261.10963482446613
 20
207.38141855103279
 30
0.0
 11
261.19211756377177
 21
207.43915646854521
 31
0.0
  0
LINE
  5
1A2D4
  8
KI1
 10
261.10002059434339
 20
208.6686396274381
 30
0.0
 11
261.10002059434339
 21
209.2947028822482
 31
0.0
  0
LINE
  5
1A2D5
  8
KI1
 10
260.98380924444348
 20
208.26189990278911
 30
0.0
 11
261.10002059434339
 21
208.6686396274381
 31
0.0
  0
LINE
  5
1A2D7
  8
KI1
 10
260.2000130739408
 20
209.2947028822482
 30
0.0
 11
260.2000130739408
 21
208.7946928668257
 31
0.0
  0
LINE
  5
1A2D8
  8
KI1
 10
260.2000130739408
 20
208.7946928668257
 30
0.0
 11
260.06544887673959
 21
208.32368315210169
 31
0.0
  0
LINE
  5
1A2D9
  8
KI1
 10
258.80001305037518
 20
210.49469539719209
 30
0.0
 11
258.80001305037518
 21
209.2947028822482
 31
0.0
  0
LINE
  5
1A2DA
  8
KI1
 10
260.1365836722926
 20
207.89958877890791
 30
0.0
 11
260.41327736253032
 21
207.5043020715639
 31
0.0
  0
ARC
  5
1A2DB
  8
KI1
 10
261.02009464483501
 20
207.68494102186651
 30
0.0
 40
0.3000000099360252
 50
304.99198913573213
 51
34.858993530264307
  0
ARC
  5
1A2DC
  8
KI1
 10
260.82290660989349
 20
207.79104779839511
 30
0.0
 40
0.4999999937576218
 50
214.99197387695639
 51
304.99198913573213
  0
ARC
  5
1A2DD
  8
KI1
 10
260.54619540739731
 20
208.18631699348089
 30
0.0
 40
0.4999999937576218
 50
164.0549926757794
 51
214.99198913572951
  0
ARC
  5
1A2DE
  8
KI1
 10
251.70000951993879
 20
206.79470282333301
 30
0.0
 40
1.0
 50
180.0
 51
270.0
  0
LINE
  5
1A2DF
  8
KI1
 10
250.40000951993869
 20
210.79469790399389
 30
0.0
 11
251.90000951993861
 21
209.53604845722791
 31
0.0
  0
ARC
  5
1A2E0
  8
KI1
 10
250.40000951993869
 20
208.83658696999461
 30
0.0
 40
0.3
 50
0.0
 51
50.000000000012889
  0
LINE
  5
1A2E1
  8
KI1
 10
249.78126012168661
 20
209.59469790399319
 30
0.0
 11
249.3254652287666
 21
209.59469790399319
 31
0.0
  0
LINE
  5
1A2E2
  8
KI1
 10
250.10265392653
 20
209.4777201255533
 30
0.0
 11
250.59284580284529
 21
209.06640030293099
 31
0.0
  0
ARC
  5
1A2E3
  8
KI1
 10
249.78126012168661
 20
209.09469790399359
 30
0.0
 40
0.5
 50
50.000000000012889
 51
90.0
  0
LINE
  5
1A2E4
  8
KI1
 10
250.70000951993879
 20
206.79470282333301
 30
0.0
 11
250.70000951993879
 21
208.83658696999461
 31
0.0
  0
LINE
  5
1A2E5
  8
KI1
 10
251.90000951993861
 20
206.9947028233328
 30
0.0
 11
251.90000951993861
 21
209.53604845722791
 31
0.0
  0
LINE
  5
1A2E6
  8
KI1
 10
251.90000951993861
 20
206.9947028233328
 30
0.0
 11
254.00000951993849
 21
206.9947028233328
 31
0.0
  0
LINE
  5
1A2E7
  8
KI1
 10
256.24616526074999
 20
205.79470282333199
 30
0.0
 11
251.70000951993879
 21
205.7947028233329
 31
0.0
  0
LINE
  5
1A2E8
  8
KI1
 10
256.10000951993851
 20
206.9947028233328
 30
0.0
 11
256.10000951993851
 21
209.53604845722791
 31
0.0
  0
LINE
  5
1A2E9
  8
KI1
 10
256.10000951993851
 20
206.9947028233328
 30
0.0
 11
254.00000951993849
 21
206.9947028233328
 31
0.0
  0
ARC
  5
1A2EA
  8
KI1
 10
256.24616526074999
 20
206.79470282333199
 30
0.0
 40
1.0
 50
270.0
 51
340.27915752804091
  0
LINE
  5
1A2EC
  8
KI1
 10
257.6000095199384
 20
210.79469790399389
 30
0.0
 11
256.10000951993851
 21
209.53604845722791
 31
0.0
  0
LINE
  5
1A2ED
  8
KI1
 10
259.2538537791271
 20
205.79470282333199
 30
0.0
 11
272.00000951993849
 21
205.79470282333199
 31
0.0
  0
LINE
  5
1A2EE
  8
KI1
 10
271.71717080557079
 20
206.99469533827781
 30
0.0
 11
259.40001212100299
 21
206.99469533827781
 31
0.0
  0
LINE
  5
1A2EF
  8
KI1
 10
261.10002059434339
 20
209.2947028822482
 30
0.0
 11
266.80000951993873
 21
209.2947028822482
 31
0.0
  0
LINE
  5
1A2F0
  8
KI1
 10
300.0000095199386
 20
206.79470282333301
 30
0.0
 11
300.0000095199386
 21
205.79470282333199
 31
0.0
  0
LINE
  5
1A2F1
  8
KI1
 10
298.80000951993873
 20
206.24022504964211
 30
0.0
 11
298.80000951993873
 21
205.79470282333199
 31
0.0
  0
LINE
  5
1A2F3
  8
KI1
 10
300.0000095199386
 20
205.79470282333199
 30
0.0
 11
298.80000951993873
 21
205.79470282333199
 31
0.0
  0
ARC
  5
1A2F5
  8
KI1
 10
293.80000951993873
 20
208.74332543836411
 30
0.0
 40
0.5
 50
129.9999999999871
 51
180.0
  0
LINE
  5
1A2F6
  8
KI1
 10
293.89736511334797
 20
209.4777201255533
 30
0.0
 11
293.47861571509623
 21
209.12634765992291
 31
0.0
  0
ARC
  5
1A2F7
  8
KI1
 10
294.21875891819178
 20
209.09469790399359
 30
0.0
 40
0.5
 50
90.0
 51
129.9999999999871
  0
LINE
  5
1A2F8
  8
KI1
 10
294.67455381111102
 20
209.59469790399319
 30
0.0
 11
294.21875891819178
 21
209.59469790399319
 31
0.0
  0
ARC
  5
1A2F9
  8
KI1
 10
294.67455381111102
 20
209.09469790399359
 30
0.0
 40
0.5
 50
49.599994483977738
 51
90.0
  0
LINE
  5
1A2FB
  8
KI1
 10
293.30000951993873
 20
206.79470282333301
 30
0.0
 11
293.30000951993873
 21
208.74332543836411
 31
0.0
  0
ARC
  5
1A2FC
  8
KI1
 10
292.30000951993873
 20
206.79470282333301
 30
0.0
 40
1.0
 50
270.0
 51
0.0
  0
LINE
  5
1A2FD
  8
KI1
 10
293.60000457703393
 20
210.79469790399389
 30
0.0
 11
295.30003211649688
 21
210.79469790399389
 31
0.0
  0
LINE
  5
1A2FE
  8
KI1
 10
293.60000951993851
 20
210.79469790399389
 30
0.0
 11
292.10000951993851
 21
209.53604845722791
 31
0.0
  0
LINE
  5
1A2FF
  8
KI1
 10
292.10000951993851
 20
209.53604845722791
 30
0.0
 11
292.10000951993851
 21
206.9947028233328
 31
0.0
  0
LINE
  5
1A300
  8
KI1
 10
292.10000951993851
 20
206.9947028233328
 30
0.0
 11
290.00000951993991
 21
206.9947028233328
 31
0.0
  0
ARC
  5
1A301
  8
KI1
 10
284.74616526074999
 20
206.79470282333199
 30
0.0
 40
1.0
 50
270.0
 51
340.27915752804091
  0
ARC
  5
1A302
  8
KI1
 10
287.7538537791271
 20
206.79470282333199
 30
0.0
 40
1.0
 50
199.72084247195909
 51
270.0
  0
LINE
  5
1A303
  8
KI1
 10
286.81250592166532
 20
206.45726510870611
 30
0.0
 11
286.7206834486696
 21
206.7134216806449
 31
0.0
  0
LINE
  5
1A304
  8
KI1
 10
285.68751311821183
 20
206.45726510870611
 30
0.0
 11
285.77933559120748
 21
206.7134216806449
 31
0.0
  0
ARC
  5
1A305
  8
KI1
 10
286.25000951993849
 20
206.54470282333199
 30
0.0
 40
0.5
 50
19.720842471959092
 51
160.27915752804091
  0
LINE
  5
1A306
  8
KI1
 10
283.80002347819629
 20
209.2947028822482
 30
0.0
 11
285.40000192883878
 21
209.2947028822482
 31
0.0
  0
LINE
  5
1A308
  8
KI1
 10
284.60000691887592
 20
208.29470036366271
 30
0.0
 11
284.60000691887592
 21
206.99469533827781
 31
0.0
  0
LINE
  5
1A309
  8
KI1
 10
284.20000690709202
 20
208.29470036366271
 30
0.0
 11
284.60000691887592
 21
208.29470036366271
 31
0.0
  0
ARC
  5
1A30A
  8
KI1
 10
284.20000690709202
 20
208.59470036366289
 30
0.0
 40
0.3
 50
180.0
 51
270.0
  0
LINE
  5
1A30B
  8
KI1
 10
283.86345287984398
 20
207.89958877890791
 30
0.0
 11
283.58675918960728
 21
207.5043020715639
 31
0.0
  0
LINE
  5
1A30C
  8
KI1
 10
283.80002347819629
 20
208.7946928668257
 30
0.0
 11
283.93460518765698
 21
208.32368315210169
 31
0.0
  0
LINE
  5
1A30D
  8
KI1
 10
283.80002347819629
 20
209.2947028822482
 30
0.0
 11
283.80002347819629
 21
208.7946928668257
 31
0.0
  0
LINE
  5
1A30E
  8
KI1
 10
282.733789596544
 20
207.85640354851969
 30
0.0
 11
283.01622730769179
 21
208.26189990278911
 31
0.0
  0
LINE
  5
1A30F
  8
KI1
 10
282.89040172767102
 20
207.38141855103279
 30
0.0
 11
282.80790147610708
 21
207.43915646854521
 31
0.0
  0
LINE
  5
1A310
  8
KI1
 10
282.90001595779279
 20
208.6686396274381
 30
0.0
 11
282.90001595779279
 21
209.2947028822482
 31
0.0
  0
LINE
  5
1A311
  8
KI1
 10
283.01622730769179
 20
208.26189990278911
 30
0.0
 11
282.90001595779279
 21
208.6686396274381
 31
0.0
  0
ARC
  5
1A312
  8
KI1
 10
283.45382363248029
 20
208.18631699348089
 30
0.0
 40
0.4999999937576218
 50
325.00799560545801
 51
15.944992065438131
  0
ARC
  5
1A313
  8
KI1
 10
282.97994190730208
 20
207.68494102186651
 30
0.0
 40
0.3000000099360252
 50
145.14099121094199
 51
235.0079956054592
  0
ARC
  5
1A314
  8
KI1
 10
283.17712994224399
 20
207.79104779839511
 30
0.0
 40
0.4999999937576218
 50
235.0079956054592
 51
325.00799560545801
  0
LINE
  5
1A315
  8
KI1
 10
283.9000069070932
 20
208.6947028822469
 30
0.0
 11
283.9000069070932
 21
208.59470036366289
 31
0.0
  0
ARC
  5
1A316
  8
KI1
 10
284.5000069070922
 20
208.6947028822469
 30
0.0
 40
0.6
 50
90.0
 51
180.0
  0
LINE
  5
1A318
  8
KI1
 10
286.40000951993858
 20
210.79469790399389
 30
0.0
 11
287.90000951993869
 21
209.53604845722791
 31
0.0
  0
LINE
  5
1A319
  8
KI1
 10
287.90000951993869
 20
206.9947028233328
 30
0.0
 11
287.90000951993869
 21
209.53604845722791
 31
0.0
  0
LINE
  5
1A31A
  8
KI1
 10
285.40000192883878
 20
210.49469790399331
 30
0.0
 11
285.40000192883878
 21
209.2947028822482
 31
0.0
  0
ARC
  5
1A31C
  8
KI1
 10
285.70000192883901
 20
210.49469790399331
 30
0.0
 40
0.3
 50
90.0
 51
180.0
  0
LINE
  5
1A31D
  8
KI1
 10
285.2000059895027
 20
209.2947028822482
 30
0.0
 11
285.2000059895027
 21
210.49469539719209
 31
0.0
  0
LINE
  5
1A31E
  8
KI1
 10
285.70000192883901
 20
210.79469790399389
 30
0.0
 11
286.40001446284413
 21
210.79469790399389
 31
0.0
  0
LINE
  5
1A31F
  8
KI1
 10
292.30000951993873
 20
205.79470282333199
 30
0.0
 11
287.7538537791271
 21
205.79470282333199
 31
0.0
  0
LINE
  5
1A320
  8
KI1
 10
287.90000951993869
 20
206.9947028233328
 30
0.0
 11
290.00000951993991
 21
206.9947028233328
 31
0.0
  0
LINE
  5
1A321
  8
KI1
 10
294.99861379830111
 20
209.47546702656379
 30
0.0
 11
298.80000951993873
 21
206.24022504964211
 31
0.0
  0
LINE
  5
1A323
  8
KI1
 10
295.30003211649688
 20
210.79469790399389
 30
0.0
 11
300.0000095199386
 21
206.79470282333301
 31
0.0
  0
LINE
  5
1A51D
  8
KI1
 10
273.50000281629542
 20
498.24764995184933
 30
0.0
 11
273.50000329557508
 21
483.24764995184933
 31
0.0
  0
LINE
  5
1A51E
  8
KI1
 10
270.50000281629542
 20
498.24764995184933
 30
0.0
 11
270.50000329557508
 21
483.24764995184933
 31
0.0
  0
LINE
  5
1A57B
  8
KI1
 10
282.04993669383532
 20
575.89764937966038
 30
0.0
 11
275.89993669383529
 21
575.89764910792564
 31
0.0
  0
LINE
  5
1A57C
  8
KI1
 10
283.1999367446474
 20
574.74764943047262
 30
0.0
 11
266.81993674464752
 21
574.74764870673027
 31
0.0
  0
LINE
  5
1A57D
  8
KI1
 10
275.74993560468721
 20
600.54764910129802
 30
0.0
 11
284.49993560468721
 21
600.54764948791239
 31
0.0
  0
LINE
  5
1A57E
  8
KI1
 10
276.39993565549941
 20
599.39764913001795
 30
0.0
 11
303.59993565549939
 21
599.39765033183642
 31
0.0
  0
LINE
  5
1A57F
  8
KI1
 10
274.7499366938352
 20
575.89764905711354
 30
0.0
 11
268.01993669383518
 21
575.89764875975175
 31
0.0
  0
ARC
  5
1A580
  8
KI1
 10
267.41993663860472
 20
577.14764873324111
 30
0.0
 40
0.5999999999999996
 50
0.0000025315855514
 51
180.00000253158549
  0
LINE
  5
1A581
  8
KI1
 10
266.81993663860459
 20
577.14764870673025
 30
0.0
 11
266.81993674464752
 21
574.74764870673027
 31
0.0
  0
LINE
  5
1A582
  8
KI1
 10
268.01993663860458
 20
577.14764875975175
 30
0.0
 11
268.01993669383518
 21
575.89764875975175
 31
0.0
  0
ARC
  5
1A583
  8
KI1
 10
275.24993555166583
 20
601.74764907920564
 30
0.0
 40
0.5
 50
0.0000025315855514
 51
180.00000253158549
  0
LINE
  5
1A584
  8
KI1
 10
274.7499366938352
 20
575.89764905711354
 30
0.0
 11
274.74993555166583
 21
601.74764905711345
 31
0.0
  0
LINE
  5
1A585
  8
KI1
 10
275.74993555166583
 20
601.74764910129795
 30
0.0
 11
275.74993560468721
 21
600.54764910129802
 31
0.0
  0
LINE
  5
1A586
  8
KI1
 10
275.89993669383529
 20
575.89764910792564
 30
0.0
 11
275.89993567759171
 21
598.89764910792564
 31
0.0
  0
ARC
  5
1A587
  8
KI1
 10
276.39993567759171
 20
598.89764913001795
 30
0.0
 40
0.4999999999999999
 50
90.000002531585565
 51
180.00000253158549
  0
LINE
  5
1A588
  8
KI1
 10
309.54993674464743
 20
574.74765059473407
 30
0.0
 11
296.79993674464743
 21
574.74765003138168
 31
0.0
  0
LINE
  5
1A589
  8
KI1
 10
310.34993670046288
 20
575.74765063008169
 30
0.0
 11
305.2499367004628
 21
575.74765040474085
 31
0.0
  0
LINE
  5
1A58A
  8
KI1
 10
294.54993670046292
 20
575.74764993196652
 30
0.0
 11
296.49993670046291
 21
575.74765001812636
 31
0.0
  0
LINE
  5
1A58B
  8
KI1
 10
294.55120051063727
 20
583.19764993202239
 30
0.0
 11
296.4999363712883
 21
583.19765001812618
 31
0.0
  0
ARC
  5
1A58C
  8
KI1
 10
294.75120053935723
 20
582.54764994085917
 30
0.0
 40
0.5
 50
180.00000253158549
 51
270.00000253158549
  0
LINE
  5
1A58D
  8
KI1
 10
294.54993658116479
 20
578.44764993196645
 30
0.0
 11
294.74993658116472
 21
578.44764994080344
 31
0.0
  0
ARC
  5
1A58E
  8
KI1
 10
294.99993555166583
 20
601.74764995184967
 30
0.0
 40
0.5
 50
0.0000025315855514
 51
180.00000253158549
  0
LINE
  5
1A58F
  8
KI1
 10
285.25120056144942
 20
582.04764952110645
 30
0.0
 11
283.69993642210062
 21
582.04764945256466
 31
0.0
  0
LINE
  5
1A590
  8
KI1
 10
285.4499367004629
 20
575.74764952988755
 30
0.0
 11
283.49993670046291
 21
575.74764944372782
 31
0.0
  0
LINE
  5
1A591
  8
KI1
 10
285.45120051063719
 20
583.19764952994342
 30
0.0
 11
283.4999363712883
 21
583.19764944372776
 31
0.0
  0
LINE
  5
1A592
  8
KI1
 10
284.59993662534919
 20
577.44764949233058
 30
0.0
 11
285.24993658116472
 21
578.44764952105061
 31
0.0
  0
ARC
  5
1A593
  8
KI1
 10
284.99993555166583
 20
601.74764951000463
 30
0.0
 40
0.5
 50
0.0000025315855514
 51
180.00000253158549
  0
LINE
  5
1A594
  8
KI1
 10
284.49993555166583
 20
601.74764948791244
 30
0.0
 11
284.49993560468721
 21
600.54764948791239
 31
0.0
  0
ARC
  5
1A595
  8
KI1
 10
282.92493633925471
 20
583.92264941832184
 30
0.0
 40
0.5749999999999959
 50
0.0000025315855514
 51
180.00000253158549
  0
ARC
  5
1A596
  8
KI1
 10
283.19993673139209
 20
575.04764943047246
 30
0.0
 40
0.2999999999999999
 50
270.00000253158549
 51
0.0000025315855514
  0
LINE
  5
1A597
  8
KI1
 10
282.3499366805799
 20
576.19764939291565
 30
0.0
 11
282.34993633925461
 21
583.92264939291579
 31
0.0
  0
ARC
  5
1A598
  8
KI1
 10
282.04993668057989
 20
576.19764937966045
 30
0.0
 40
0.2999999999999999
 50
270.00000253158549
 51
0.0000025315855514
  0
LINE
  5
1A599
  8
KI1
 10
283.69993642210062
 20
582.04764945256466
 30
0.0
 11
283.49993648837727
 21
580.54764944372778
 31
0.0
  0
LINE
  5
1A59A
  8
KI1
 10
283.49993664302298
 20
577.04764944372778
 30
0.0
 11
283.49993648837727
 21
580.54764944372778
 31
0.0
  0
LINE
  5
1A59B
  8
KI1
 10
284.599936643023
 20
577.04764949233072
 30
0.0
 11
283.49993664302298
 21
577.04764944372778
 31
0.0
  0
LINE
  5
1A59C
  8
KI1
 10
284.599936643023
 20
577.04764949233072
 30
0.0
 11
284.59993662534919
 21
577.44764949233058
 31
0.0
  0
LINE
  5
1A59D
  8
KI1
 10
283.49993633925459
 20
583.92264944372778
 30
0.0
 11
283.4999363712883
 21
583.19764944372776
 31
0.0
  0
LINE
  5
1A59E
  8
KI1
 10
283.49993673139198
 20
575.04764944372778
 30
0.0
 11
283.49993670046291
 21
575.74764944372782
 31
0.0
  0
LINE
  5
1A59F
  8
KI1
 10
285.49993555166583
 20
601.74764953209694
 30
0.0
 11
285.49993560468721
 21
600.54764953209678
 31
0.0
  0
ARC
  5
1A5A0
  8
KI1
 10
285.44993668720758
 20
576.04764952988751
 30
0.0
 40
0.2999999999999999
 50
270.00000253158549
 51
0.0000025315855514
  0
ARC
  5
1A5A1
  8
KI1
 10
285.45120052389262
 20
582.89764952994346
 30
0.0
 40
0.2999999999999999
 50
0.0000025315855514
 51
90.000002531585565
  0
LINE
  5
1A5A2
  8
KI1
 10
285.75120052389258
 20
582.89764954319867
 30
0.0
 11
285.75120053935711
 21
582.54764954319865
 31
0.0
  0
LINE
  5
1A5A3
  8
KI1
 10
285.74993659442009
 20
578.14764954314285
 30
0.0
 11
285.74993668720759
 21
576.04764954314294
 31
0.0
  0
ARC
  5
1A5A4
  8
KI1
 10
285.44993659442008
 20
578.14764952988753
 30
0.0
 40
0.2999999999999999
 50
0.0000025315855514
 51
90.000002531585565
  0
LINE
  5
1A5A5
  8
KI1
 10
285.44993658116482
 20
578.44764952988737
 30
0.0
 11
285.24993658116472
 21
578.44764952105061
 31
0.0
  0
ARC
  5
1A5A6
  8
KI1
 10
285.25120053935723
 20
582.54764952110645
 30
0.0
 40
0.5
 50
270.00000253158549
 51
0.0000025315855514
  0
LINE
  5
1A5A7
  8
KI1
 10
294.49993560468721
 20
600.54764992975743
 30
0.0
 11
285.49993560468721
 21
600.54764953209678
 31
0.0
  0
LINE
  5
1A5A8
  8
KI1
 10
294.49993555166583
 20
601.74764992975747
 30
0.0
 11
294.49993560468721
 21
600.54764992975743
 31
0.0
  0
ARC
  5
1A5A9
  8
KI1
 10
294.54993668720761
 20
576.04764993196636
 30
0.0
 40
0.2999999999999999
 50
180.00000253158549
 51
270.00000253158549
  0
ARC
  5
1A5AA
  8
KI1
 10
294.55120052389259
 20
582.89764993202243
 30
0.0
 40
0.2999999999999999
 50
90.000002531585565
 51
180.00000253158549
  0
LINE
  5
1A5AB
  8
KI1
 10
294.25120052389258
 20
582.89764991876689
 30
0.0
 11
294.25120053935723
 21
582.54764991876687
 31
0.0
  0
LINE
  5
1A5AC
  8
KI1
 10
294.24993659441998
 20
578.14764991871107
 30
0.0
 11
294.24993668720748
 21
576.04764991871104
 31
0.0
  0
ARC
  5
1A5AD
  8
KI1
 10
294.5499365944201
 20
578.1476499319665
 30
0.0
 40
0.2999999999999999
 50
90.000002531585565
 51
180.00000253158549
  0
LINE
  5
1A5AE
  8
KI1
 10
297.94993669383518
 20
575.89765008219399
 30
0.0
 11
304.09993669383522
 21
575.89765035392861
 31
0.0
  0
LINE
  5
1A5AF
  8
KI1
 10
304.2499356046871
 20
600.5476503605563
 30
0.0
 11
295.49993560468721
 21
600.54764997394193
 31
0.0
  0
ARC
  5
1A5B0
  8
KI1
 10
297.94993668057992
 20
576.19765008219406
 30
0.0
 40
0.2999999999999999
 50
180.00000253158549
 51
270.00000253158549
  0
LINE
  5
1A5B1
  8
KI1
 10
295.49993555166583
 20
601.74764997394186
 30
0.0
 11
295.49993560468721
 21
600.54764997394193
 31
0.0
  0
LINE
  5
1A5B2
  8
KI1
 10
294.75120056144942
 20
582.04764994085917
 30
0.0
 11
296.29993642210059
 21
582.04765000928944
 31
0.0
  0
LINE
  5
1A5B3
  8
KI1
 10
295.39993664302312
 20
577.04764996952338
 30
0.0
 11
296.49993664302298
 21
577.04765001812632
 31
0.0
  0
LINE
  5
1A5B4
  8
KI1
 10
295.39993664302312
 20
577.04764996952338
 30
0.0
 11
295.39993662534931
 21
577.44764996952335
 31
0.0
  0
LINE
  5
1A5B5
  8
KI1
 10
295.39993662534931
 20
577.44764996952335
 30
0.0
 11
294.74993658116472
 21
578.44764994080344
 31
0.0
  0
LINE
  5
1A5B6
  8
KI1
 10
296.29993642210059
 20
582.04765000928944
 30
0.0
 11
296.49993648837727
 21
580.54765001812632
 31
0.0
  0
LINE
  5
1A5B7
  8
KI1
 10
296.49993664302298
 20
577.04765001812632
 30
0.0
 11
296.49993648837727
 21
580.54765001812632
 31
0.0
  0
LINE
  5
1A5B8
  8
KI1
 10
297.64993668057991
 20
576.19765006893863
 30
0.0
 11
297.64993633925462
 21
583.92265006893865
 31
0.0
  0
LINE
  5
1A5B9
  8
KI1
 10
296.49993633925448
 20
583.92265001812643
 30
0.0
 11
296.4999363712883
 21
583.19765001812618
 31
0.0
  0
ARC
  5
1A5BA
  8
KI1
 10
297.07493633925458
 20
583.9226500435326
 30
0.0
 40
0.5749999999999959
 50
0.0000025315855514
 51
180.00000253158549
  0
LINE
  5
1A5BB
  8
KI1
 10
296.49993673139198
 20
575.04765001812643
 30
0.0
 11
296.49993670046291
 21
575.74765001812636
 31
0.0
  0
ARC
  5
1A5BC
  8
KI1
 10
296.79993673139211
 20
575.04765003138175
 30
0.0
 40
0.2999999999999999
 50
180.00000253158549
 51
270.00000253158549
  0
ARC
  5
1A5BD
  8
KI1
 10
304.74993555166583
 20
601.74765038264854
 30
0.0
 40
0.5
 50
0.0000025315855514
 51
180.00000253158549
  0
LINE
  5
1A5BE
  8
KI1
 10
304.24993555166583
 20
601.74765036055635
 30
0.0
 11
304.2499356046871
 21
600.5476503605563
 31
0.0
  0
LINE
  5
1A5BF
  8
KI1
 10
304.09993669383522
 20
575.89765035392861
 30
0.0
 11
304.0999356775917
 21
598.8976503539285
 31
0.0
  0
ARC
  5
1A5C0
  8
KI1
 10
303.5999356775917
 20
598.8976503318363
 30
0.0
 40
0.4999999999999999
 50
0.0000025315855514
 51
90.000002531585565
  0
LINE
  5
1A5C1
  8
KI1
 10
305.2499367004628
 20
575.74765040474085
 30
0.0
 11
305.24993555166583
 21
601.74765040474085
 31
0.0
  0
ARC
  5
1A5C2
  8
KI1
 10
310.34993672255513
 20
575.24765063008169
 30
0.0
 40
0.5
 50
0.0000025315855514
 51
90.000002531585565
  0
ARC
  5
1A5C3
  8
KI1
 10
309.5499367579028
 20
574.44765059473423
 30
0.0
 40
0.2999999999999999
 50
0.0000025315855514
 51
90.000002531585565
  0
LINE
  5
1A5C4
  8
KI1
 10
309.8499367579027
 20
574.44765060798954
 30
0.0
 11
309.84993729695373
 21
562.24765060798961
 31
0.0
  0
LINE
  5
1A5C5
  8
KI1
 10
310.84993672255513
 20
575.24765065217412
 30
0.0
 11
310.84993729695373
 21
562.24765065217412
 31
0.0
  0
ARC
  5
1A5C6
  8
KI1
 10
310.34993729695373
 20
562.24765063008169
 30
0.0
 40
0.5
 50
180.00000253158549
 51
0.0000025315855514
  0
LINE
  5
1B7CD
  8
SU
 10
233.14993729695379
 20
561.24764724113061
 30
0.0
 11
233.14993729695379
 21
483.2476491249322
 31
0.0
  0
LINE
  5
1B7CE
  8
SU
 10
237.5000023103531
 20
486.24764912493231
 30
0.0
 11
233.14993729695379
 21
486.24764912493231
 31
0.0
  0
LINE
  5
1B7CF
  8
SU
 10
233.14993729695379
 20
486.24764912493231
 30
0.0
 11
208.49993729695379
 21
486.24764912493231
 31
0.0
  0
LINE
  5
1B7D3
  8
SU
 10
313.50000099546207
 20
561.24765072976345
 30
0.0
 11
313.50000099546207
 21
498.2476635822407
 31
0.0
  0
LINE
  5
1B7D4
  8
SU
 10
310.84993729695373
 20
501.2476635822407
 30
0.0
 11
313.50000099546207
 21
501.2476635822407
 31
0.0
  0
LINE
  5
1B7D5
  8
SU
 10
313.50000099546207
 20
501.2476635822407
 30
0.0
 11
337.87333432879552
 21
501.2476635822407
 31
0.0
  0
LINE
  5
1B7D9
  8
SU
 10
310.84993729695373
 20
561.24765065217412
 30
0.0
 11
310.84993729695373
 21
498.24764995184933
 31
0.0
  0
LINE
  5
1B7DA
  8
SU
 10
233.14993729695379
 20
501.24764995184933
 30
0.0
 11
310.84993729695373
 21
501.24764995184933
 31
0.0
  0
LINE
  5
1B7DF
  8
SU
 10
311.34993731904592
 20
561.74765063008181
 30
0.0
 11
361.14203913270831
 21
561.74765063008181
 31
0.0
  0
LINE
  5
1B7E0
  8
SU
 10
358.14203913270842
 20
565.2476511383976
 30
0.0
 11
358.14203913270842
 21
561.74765063008181
 31
0.0
  0
LINE
  5
1B7E1
  8
SU
 10
358.14203913270842
 20
561.74765063008181
 30
0.0
 11
358.14203913270842
 21
537.37431729674836
 31
0.0
  0
LINE
  5
1B7E5
  8
SU
 10
310.54993674464743
 20
574.74765059473407
 30
0.0
 11
376.14203913270831
 21
574.74765059473407
 31
0.0
  0
LINE
  5
1B7E6
  8
SU
 10
373.14203913270831
 20
574.74765059473407
 30
0.0
 11
373.14203913270831
 21
565.24765065861379
 31
0.0
  0
LINE
  5
1B7E9
  8
SU
 10
237.49999812609781
 20
482.24764995184933
 30
0.0
 11
237.49999812609781
 21
468.24764995184933
 31
0.0
  0
LINE
  5
1B7EA
  8
SU
 10
313.5000029906426
 20
482.24764995184933
 30
0.0
 11
313.5000029906426
 21
468.24764995184933
 31
0.0
  0
LINE
  5
1B7EB
  8
SU
 10
237.49999812609781
 20
471.24764995184933
 30
0.0
 11
313.5000029906426
 21
471.24764995184933
 31
0.0
  0
LINE
  5
1B7EF
  8
SU
 10
313.5000029906426
 20
497.24764999498342
 30
0.0
 11
313.5000029906426
 21
483.24764995184933
 31
0.0
  0
LINE
  5
1B7F0
  8
SU
 10
306.5000029249905
 20
486.24764995184933
 30
0.0
 11
313.5000029906426
 21
486.24764995184933
 31
0.0
  0
LINE
  5
1B7F1
  8
SU
 10
313.5000029906426
 20
486.24764995184933
 30
0.0
 11
329.57333632397581
 21
486.24764995184933
 31
0.0
  0
LINE
  5
1B7F4
  8
SU
 10
273.50000280928077
 20
497.24764995184933
 30
0.0
 11
273.50000280928077
 21
483.24764995184933
 31
0.0
  0
LINE
  5
1B7F5
  8
SU
 10
270.50000280928077
 20
486.24764995184933
 30
0.0
 11
273.50000280928077
 21
486.24764995184933
 31
0.0
  0
LINE
  5
1B7F8
  8
SU
 10
237.49999812609781
 20
497.24764995184933
 30
0.0
 11
237.49999812609781
 21
483.24764995184933
 31
0.0
  0
LINE
  5
1B7F9
  8
SU
 10
270.50000280928077
 20
497.24764995184933
 30
0.0
 11
270.50000280928077
 21
483.24764995184933
 31
0.0
  0
LINE
  5
1B7FA
  8
SU
 10
237.49999812609781
 20
486.24764995184933
 30
0.0
 11
270.50000280928077
 21
486.24764995184933
 31
0.0
  0
LINE
  5
1B7FE
  8
SU
 10
306.5000029249905
 20
497.24764995184933
 30
0.0
 11
306.5000029249905
 21
483.24764995184933
 31
0.0
  0
LINE
  5
1B7FF
  8
SU
 10
273.50000280928077
 20
486.24764995184933
 30
0.0
 11
306.5000029249905
 21
486.24764995184933
 31
0.0
  0
LINE
  5
1B802
  8
SU
 10
305.24993555166583
 20
664.74766313682835
 30
0.0
 11
313.5
 21
664.74766313682835
 31
0.0
  0
LINE
  5
1B803
  8
SU
 10
313.5
 20
664.74766313682835
 30
0.0
 11
345.06666666666661
 21
664.74766313682835
 31
0.0
  0
LINE
  5
1B807
  8
SU
 10
233.14993672255531
 20
576.2476472190383
 30
0.0
 11
233.14993672255531
 21
667.747660687814
 31
0.0
  0
LINE
  5
1B808
  8
SU
 10
238.74993555166591
 20
664.74766068781389
 30
0.0
 11
233.14993672255531
 21
664.74766068781389
 31
0.0
  0
LINE
  5
1B809
  8
SU
 10
233.14993672255531
 20
664.74766068781389
 30
0.0
 11
208.77660338922189
 21
664.74766068781389
 31
0.0
  0
LINE
  5
1B80D
  8
SU
 10
802.81814051335971
 20
244.2947041990102
 30
0.0
 11
835.29287360378828
 21
244.2947041990102
 31
0.0
  0
LINE
  5
1B80E
  8
SU
 10
832.29287360378839
 20
241.2947041990102
 30
0.0
 11
832.29287360378839
 21
244.2947041990102
 31
0.0
  0
LINE
  5
1B811
  8
SU
 10
802.81814051335971
 20
277.2947041990102
 30
0.0
 11
835.29287360378828
 21
277.2947041990102
 31
0.0
  0
LINE
  5
1B812
  8
SU
 10
832.29287360378839
 20
277.2947041990102
 30
0.0
 11
832.29287360378817
 21
244.2947041990102
 31
0.0
  0
LINE
  5
1B815
  8
SU
 10
1039.3181424976451
 20
200.2947012543963
 30
0.0
 11
1039.3181424976451
 21
127.8534873754747
 31
0.0
  0
LINE
  5
1B816
  8
SU
 10
539.31814249761726
 20
183.47378114791829
 30
0.0
 11
539.31814249761726
 21
127.8534873754747
 31
0.0
  0
LINE
  5
1B817
  8
SU
 10
1039.3181424976451
 20
130.85348737547471
 30
0.0
 11
539.31814249761726
 21
130.85348737547471
 31
0.0
  0
LINE
  5
1B819
  8
SU
 10
73.499999999999986
 20
613.9316597069726
 30
0.0
 11
73.499999999999986
 21
697.74764995184967
 31
0.0
  0
LINE
  5
1B81A
  8
SU
 10
73.499999999999986
 20
694.74764995184967
 30
0.0
 11
313.50000000000051
 21
694.74764995184967
 31
0.0
  0
LINE
  5
1B81E
  8
SU
 10
1058.1464914927301
 20
683.82837717091047
 30
0.0
 11
1068.1464914927301
 21
677.82837717091036
 31
0.0
  0
LINE
  5
1B81F
  8
SU
 10
1058.1464914927301
 20
671.82837717091047
 30
0.0
 11
1068.1464914927301
 21
677.82837717091036
 31
0.0
  0
LINE
  5
1B820
  8
SU
 10
1058.1464914927301
 20
683.82837717091047
 30
0.0
 11
1058.1464914927301
 21
671.82837717091047
 31
0.0
  0
LINE
  5
1B821
  8
SU
 10
1068.0787635481629
 20
677.86901393765095
 30
0.0
 11
1068.0787635481629
 21
677.78774040417011
 31
0.0
  0
LINE
  5
1B822
  8
SU
 10
1067.8787635481631
 20
677.98901393765095
 30
0.0
 11
1067.8787635481631
 21
677.66774040417022
 31
0.0
  0
LINE
  5
1B823
  8
SU
 10
1067.678763548163
 20
678.10901393765107
 30
0.0
 11
1067.678763548163
 21
677.54774040416999
 31
0.0
  0
LINE
  5
1B824
  8
SU
 10
1067.478763548163
 20
678.22901393765096
 30
0.0
 11
1067.478763548163
 21
677.42774040416998
 31
0.0
  0
LINE
  5
1B825
  8
SU
 10
1067.2787635481629
 20
678.34901393765085
 30
0.0
 11
1067.2787635481629
 21
677.30774040417009
 31
0.0
  0
LINE
  5
1B826
  8
SU
 10
1067.0787635481629
 20
678.46901393765086
 30
0.0
 11
1067.0787635481629
 21
677.1877404041702
 31
0.0
  0
LINE
  5
1B827
  8
SU
 10
1066.8787635481631
 20
678.58901393765109
 30
0.0
 11
1066.8787635481631
 21
677.06774040416997
 31
0.0
  0
LINE
  5
1B828
  8
SU
 10
1066.6787635481619
 20
678.70901393765087
 30
0.0
 11
1066.6787635481619
 21
676.94774040416985
 31
0.0
  0
LINE
  5
1B829
  8
SU
 10
1066.478763548163
 20
678.82901393765076
 30
0.0
 11
1066.478763548163
 21
676.82774040416996
 31
0.0
  0
LINE
  5
1B82A
  8
SU
 10
1066.278763548162
 20
678.94901393765065
 30
0.0
 11
1066.278763548162
 21
676.70774040417007
 31
0.0
  0
LINE
  5
1B82B
  8
SU
 10
1066.0787635481629
 20
679.06901393765099
 30
0.0
 11
1066.0787635481629
 21
676.58774040417006
 31
0.0
  0
LINE
  5
1B82C
  8
SU
 10
1065.8787635481631
 20
679.18901393765088
 30
0.0
 11
1065.8787635481631
 21
676.46774040416994
 31
0.0
  0
LINE
  5
1B82D
  8
SU
 10
1065.678763548163
 20
679.30901393765078
 30
0.0
 11
1065.678763548163
 21
676.34774040417005
 31
0.0
  0
LINE
  5
1B82E
  8
SU
 10
1065.478763548163
 20
679.42901393765101
 30
0.0
 11
1065.478763548163
 21
676.22774040417005
 31
0.0
  0
LINE
  5
1B82F
  8
SU
 10
1065.2787635481629
 20
679.5490139376509
 30
0.0
 11
1065.2787635481629
 21
676.10774040417004
 31
0.0
  0
LINE
  5
1B830
  8
SU
 10
1065.0787635481629
 20
679.66901393765102
 30
0.0
 11
1065.0787635481629
 21
675.98774040417015
 31
0.0
  0
LINE
  5
1B831
  8
SU
 10
1064.8787635481631
 20
679.78901393765091
 30
0.0
 11
1064.8787635481631
 21
675.86774040417004
 31
0.0
  0
LINE
  5
1B832
  8
SU
 10
1064.678763548163
 20
679.90901393765091
 30
0.0
 11
1064.678763548163
 21
675.74774040417014
 31
0.0
  0
LINE
  5
1B833
  8
SU
 10
1064.478763548163
 20
680.0290139376508
 30
0.0
 11
1064.478763548163
 21
675.62774040417003
 31
0.0
  0
LINE
  5
1B834
  8
SU
 10
1064.278763548162
 20
680.14901393765103
 30
0.0
 11
1064.278763548162
 21
675.50774040417014
 31
0.0
  0
LINE
  5
1B835
  8
SU
 10
1064.0787635481629
 20
680.26901393765093
 30
0.0
 11
1064.0787635481629
 21
675.38774040417002
 31
0.0
  0
LINE
  5
1B836
  8
SU
 10
1063.8787635481631
 20
680.38901393765082
 30
0.0
 11
1063.8787635481631
 21
675.26774040417013
 31
0.0
  0
LINE
  5
1B837
  8
SU
 10
1063.678763548163
 20
680.50901393765093
 30
0.0
 11
1063.678763548163
 21
675.14774040417001
 31
0.0
  0
LINE
  5
1B838
  8
SU
 10
1063.478763548163
 20
680.62901393765105
 30
0.0
 11
1063.478763548163
 21
675.02774040417012
 31
0.0
  0
LINE
  5
1B839
  8
SU
 10
1063.278763548162
 20
680.74901393765094
 30
0.0
 11
1063.278763548162
 21
674.90774040417
 31
0.0
  0
LINE
  5
1B83A
  8
SU
 10
1063.0787635481629
 20
680.86901393765095
 30
0.0
 11
1063.0787635481629
 21
674.78774040417011
 31
0.0
  0
LINE
  5
1B83B
  8
SU
 10
1062.8787635481631
 20
680.98901393765095
 30
0.0
 11
1062.8787635481631
 21
674.66774040417022
 31
0.0
  0
LINE
  5
1B83C
  8
SU
 10
1062.678763548163
 20
681.10901393765096
 30
0.0
 11
1062.678763548163
 21
674.54774040416999
 31
0.0
  0
LINE
  5
1B83D
  8
SU
 10
1062.478763548163
 20
681.22901393765085
 30
0.0
 11
1062.478763548163
 21
674.42774040416987
 31
0.0
  0
LINE
  5
1B83E
  8
SU
 10
1062.278763548162
 20
681.34901393765085
 30
0.0
 11
1062.278763548162
 21
674.30774040416998
 31
0.0
  0
LINE
  5
1B83F
  8
SU
 10
1062.0787635481629
 20
681.46901393765097
 30
0.0
 11
1062.0787635481629
 21
674.18774040417009
 31
0.0
  0
LINE
  5
1B840
  8
SU
 10
1061.8787635481631
 20
681.58901393765098
 30
0.0
 11
1061.8787635481631
 21
674.06774040417008
 31
0.0
  0
LINE
  5
1B841
  8
SU
 10
1061.678763548163
 20
681.70901393765087
 30
0.0
 11
1061.678763548163
 21
673.94774040416985
 31
0.0
  0
LINE
  5
1B842
  8
SU
 10
1061.478763548163
 20
681.82901393765076
 30
0.0
 11
1061.478763548163
 21
673.82774040416996
 31
0.0
  0
LINE
  5
1B843
  8
SU
 10
1061.2787635481629
 20
681.94901393765065
 30
0.0
 11
1061.2787635481629
 21
673.70774040417007
 31
0.0
  0
LINE
  5
1B844
  8
SU
 10
1061.0787635481629
 20
682.06901393765111
 30
0.0
 11
1061.0787635481629
 21
673.58774040416995
 31
0.0
  0
LINE
  5
1B845
  8
SU
 10
1060.8787635481631
 20
682.189013937651
 30
0.0
 11
1060.8787635481631
 21
673.46774040416994
 31
0.0
  0
LINE
  5
1B846
  8
SU
 10
1060.678763548163
 20
682.30901393765089
 30
0.0
 11
1060.678763548163
 21
673.34774040417005
 31
0.0
  0
LINE
  5
1B847
  8
SU
 10
1060.478763548163
 20
682.42901393765089
 30
0.0
 11
1060.478763548163
 21
673.22774040417016
 31
0.0
  0
LINE
  5
1B848
  8
SU
 10
1060.278763548162
 20
682.54901393765078
 30
0.0
 11
1060.278763548162
 21
673.10774040417004
 31
0.0
  0
LINE
  5
1B849
  8
SU
 10
1060.0787635481629
 20
682.66901393765102
 30
0.0
 11
1060.0787635481629
 21
672.98774040417015
 31
0.0
  0
LINE
  5
1B84A
  8
SU
 10
1059.8787635481631
 20
682.78901393765091
 30
0.0
 11
1059.8787635481631
 21
672.86774040417004
 31
0.0
  0
LINE
  5
1B84B
  8
SU
 10
1059.678763548163
 20
682.90901393765103
 30
0.0
 11
1059.678763548163
 21
672.74774040417014
 31
0.0
  0
LINE
  5
1B84C
  8
SU
 10
1059.478763548163
 20
683.02901393765092
 30
0.0
 11
1059.478763548163
 21
672.62774040417003
 31
0.0
  0
LINE
  5
1B84D
  8
SU
 10
1059.2787635481629
 20
683.14901393765103
 30
0.0
 11
1059.2787635481629
 21
672.50774040417014
 31
0.0
  0
LINE
  5
1B84E
  8
SU
 10
1059.0787635481629
 20
683.26901393765093
 30
0.0
 11
1059.0787635481629
 21
672.38774040417002
 31
0.0
  0
LINE
  5
1B84F
  8
SU
 10
1058.8787635481631
 20
683.3890139376507
 30
0.0
 11
1058.8787635481631
 21
672.26774040417013
 31
0.0
  0
LINE
  5
1B850
  8
SU
 10
1058.6787635481619
 20
683.50901393765093
 30
0.0
 11
1058.6787635481619
 21
672.14774040416989
 31
0.0
  0
LINE
  5
1B851
  8
SU
 10
1058.478763548163
 20
683.62901393765105
 30
0.0
 11
1058.478763548163
 21
672.02774040417012
 31
0.0
  0
LINE
  5
1B852
  8
SU
 10
1058.278763548162
 20
683.74901393765094
 30
0.0
 11
1058.278763548162
 21
671.90774040417
 31
0.0
  0
LINE
  5
1B853
  8
SU
 10
911.64649149272998
 20
671.82837717091093
 30
0.0
 11
901.64649149272987
 21
677.82837717091093
 31
0.0
  0
LINE
  5
1B854
  8
SU
 10
911.64649149272998
 20
683.82837717091093
 30
0.0
 11
901.64649149272987
 21
677.82837717091093
 31
0.0
  0
LINE
  5
1B855
  8
SU
 10
911.64649149272998
 20
671.82837717091093
 30
0.0
 11
911.64649149272998
 21
683.82837717091093
 31
0.0
  0
LINE
  5
1B856
  8
SU
 10
901.71421943729717
 20
677.78774040417034
 30
0.0
 11
901.71421943729717
 21
677.86901393765129
 31
0.0
  0
LINE
  5
1B857
  8
SU
 10
901.91421943729688
 20
677.66774040417044
 30
0.0
 11
901.91421943729688
 21
677.98901393765118
 31
0.0
  0
LINE
  5
1B858
  8
SU
 10
902.11421943729715
 20
677.54774040417033
 30
0.0
 11
902.11421943729715
 21
678.10901393765118
 31
0.0
  0
LINE
  5
1B859
  8
SU
 10
902.31421943729708
 20
677.42774040417044
 30
0.0
 11
902.31421943729708
 21
678.22901393765142
 31
0.0
  0
LINE
  5
1B85A
  8
SU
 10
902.51421943729736
 20
677.30774040417054
 30
0.0
 11
902.51421943729736
 21
678.34901393765131
 31
0.0
  0
LINE
  5
1B85B
  8
SU
 10
902.71421943729717
 20
677.18774040417043
 30
0.0
 11
902.71421943729717
 21
678.4690139376512
 31
0.0
  0
LINE
  5
1B85C
  8
SU
 10
902.91421943729688
 20
677.06774040417031
 30
0.0
 11
902.91421943729688
 21
678.58901393765132
 31
0.0
  0
LINE
  5
1B85D
  8
SU
 10
903.11421943729727
 20
676.94774040417042
 30
0.0
 11
903.11421943729727
 21
678.70901393765143
 31
0.0
  0
LINE
  5
1B85E
  8
SU
 10
903.31421943729697
 20
676.82774040417053
 30
0.0
 11
903.31421943729697
 21
678.82901393765133
 31
0.0
  0
LINE
  5
1B85F
  8
SU
 10
903.51421943729736
 20
676.70774040417064
 30
0.0
 11
903.51421943729736
 21
678.9490139376511
 31
0.0
  0
LINE
  5
1B860
  8
SU
 10
903.71421943729717
 20
676.58774040417018
 30
0.0
 11
903.71421943729717
 21
679.06901393765133
 31
0.0
  0
LINE
  5
1B861
  8
SU
 10
903.91421943729688
 20
676.46774040417029
 30
0.0
 11
903.91421943729688
 21
679.18901393765145
 31
0.0
  0
LINE
  5
1B862
  8
SU
 10
904.11421943729727
 20
676.34774040417039
 30
0.0
 11
904.11421943729727
 21
679.30901393765134
 31
0.0
  0
LINE
  5
1B863
  8
SU
 10
904.31421943729697
 20
676.22774040417039
 30
0.0
 11
904.31421943729697
 21
679.42901393765123
 31
0.0
  0
LINE
  5
1B864
  8
SU
 10
904.51421943729736
 20
676.1077404041705
 30
0.0
 11
904.51421943729736
 21
679.54901393765135
 31
0.0
  0
LINE
  5
1B865
  8
SU
 10
904.71421943729706
 20
675.98774040417027
 30
0.0
 11
904.71421943729706
 21
679.66901393765124
 31
0.0
  0
LINE
  5
1B866
  8
SU
 10
904.91421943729699
 20
675.86774040417049
 30
0.0
 11
904.91421943729699
 21
679.78901393765125
 31
0.0
  0
LINE
  5
1B867
  8
SU
 10
905.11421943729727
 20
675.74774040417026
 30
0.0
 11
905.11421943729727
 21
679.90901393765125
 31
0.0
  0
LINE
  5
1B868
  8
SU
 10
905.31421943729697
 20
675.62774040417037
 30
0.0
 11
905.31421943729697
 21
680.02901393765137
 31
0.0
  0
LINE
  5
1B869
  8
SU
 10
905.51421943729736
 20
675.50774040417036
 30
0.0
 11
905.51421943729736
 21
680.14901393765115
 31
0.0
  0
LINE
  5
1B86A
  8
SU
 10
905.71421943729706
 20
675.38774040417047
 30
0.0
 11
905.71421943729706
 21
680.26901393765138
 31
0.0
  0
LINE
  5
1B86B
  8
SU
 10
905.91421943729699
 20
675.26774040417058
 30
0.0
 11
905.91421943729699
 21
680.38901393765116
 31
0.0
  0
LINE
  5
1B86C
  8
SU
 10
906.11421943729727
 20
675.14774040417035
 30
0.0
 11
906.11421943729727
 21
680.50901393765128
 31
0.0
  0
LINE
  5
1B86D
  8
SU
 10
906.31421943729697
 20
675.02774040417034
 30
0.0
 11
906.31421943729697
 21
680.62901393765117
 31
0.0
  0
LINE
  5
1B86E
  8
SU
 10
906.51421943729736
 20
674.90774040417045
 30
0.0
 11
906.51421943729736
 21
680.7490139376514
 31
0.0
  0
LINE
  5
1B86F
  8
SU
 10
906.71421943729706
 20
674.78774040417034
 30
0.0
 11
906.71421943729706
 21
680.86901393765129
 31
0.0
  0
LINE
  5
1B870
  8
SU
 10
906.91421943729699
 20
674.66774040417044
 30
0.0
 11
906.91421943729699
 21
680.98901393765118
 31
0.0
  0
LINE
  5
1B871
  8
SU
 10
907.11421943729715
 20
674.54774040417033
 30
0.0
 11
907.11421943729715
 21
681.1090139376513
 31
0.0
  0
LINE
  5
1B872
  8
SU
 10
907.31421943729708
 20
674.42774040417044
 30
0.0
 11
907.31421943729708
 21
681.22901393765142
 31
0.0
  0
LINE
  5
1B873
  8
SU
 10
907.51421943729736
 20
674.30774040417054
 30
0.0
 11
907.51421943729736
 21
681.34901393765119
 31
0.0
  0
LINE
  5
1B874
  8
SU
 10
907.71421943729706
 20
674.18774040417043
 30
0.0
 11
907.71421943729706
 21
681.46901393765108
 31
0.0
  0
LINE
  5
1B875
  8
SU
 10
907.91421943729699
 20
674.06774040417031
 30
0.0
 11
907.91421943729699
 21
681.58901393765132
 31
0.0
  0
LINE
  5
1B876
  8
SU
 10
908.11421943729715
 20
673.94774040417042
 30
0.0
 11
908.11421943729715
 21
681.70901393765143
 31
0.0
  0
LINE
  5
1B877
  8
SU
 10
908.31421943729708
 20
673.82774040417053
 30
0.0
 11
908.31421943729708
 21
681.82901393765133
 31
0.0
  0
LINE
  5
1B878
  8
SU
 10
908.51421943729736
 20
673.70774040417064
 30
0.0
 11
908.51421943729736
 21
681.94901393765122
 31
0.0
  0
LINE
  5
1B879
  8
SU
 10
908.71421943729706
 20
673.58774040417018
 30
0.0
 11
908.71421943729706
 21
682.06901393765133
 31
0.0
  0
LINE
  5
1B87A
  8
SU
 10
908.91421943729688
 20
673.4677404041704
 30
0.0
 11
908.91421943729688
 21
682.18901393765145
 31
0.0
  0
LINE
  5
1B87B
  8
SU
 10
909.11421943729715
 20
673.34774040417051
 30
0.0
 11
909.11421943729715
 21
682.30901393765134
 31
0.0
  0
LINE
  5
1B87C
  8
SU
 10
909.31421943729708
 20
673.22774040417028
 30
0.0
 11
909.31421943729708
 21
682.42901393765123
 31
0.0
  0
LINE
  5
1B87D
  8
SU
 10
909.51421943729736
 20
673.10774040417039
 30
0.0
 11
909.51421943729736
 21
682.54901393765135
 31
0.0
  0
LINE
  5
1B87E
  8
SU
 10
909.71421943729717
 20
672.98774040417038
 30
0.0
 11
909.71421943729717
 21
682.66901393765124
 31
0.0
  0
LINE
  5
1B87F
  8
SU
 10
909.91421943729688
 20
672.86774040417049
 30
0.0
 11
909.91421943729688
 21
682.78901393765125
 31
0.0
  0
LINE
  5
1B880
  8
SU
 10
910.11421943729715
 20
672.74774040417026
 30
0.0
 11
910.11421943729715
 21
682.90901393765125
 31
0.0
  0
LINE
  5
1B881
  8
SU
 10
910.31421943729708
 20
672.62774040417037
 30
0.0
 11
910.31421943729708
 21
683.02901393765126
 31
0.0
  0
LINE
  5
1B882
  8
SU
 10
910.51421943729736
 20
672.50774040417025
 30
0.0
 11
910.51421943729736
 21
683.14901393765115
 31
0.0
  0
LINE
  5
1B883
  8
SU
 10
910.71421943729717
 20
672.38774040417036
 30
0.0
 11
910.71421943729717
 21
683.26901393765138
 31
0.0
  0
LINE
  5
1B884
  8
SU
 10
910.91421943729688
 20
672.26774040417047
 30
0.0
 11
910.91421943729688
 21
683.38901393765127
 31
0.0
  0
LINE
  5
1B885
  8
SU
 10
911.11421943729715
 20
672.14774040417046
 30
0.0
 11
911.11421943729715
 21
683.50901393765128
 31
0.0
  0
LINE
  5
1B886
  8
SU
 10
911.31421943729697
 20
672.02774040417034
 30
0.0
 11
911.31421943729697
 21
683.62901393765117
 31
0.0
  0
LINE
  5
1B887
  8
SU
 10
911.51421943729736
 20
671.90774040417045
 30
0.0
 11
911.51421943729736
 21
683.74901393765128
 31
0.0
  0
LINE
  5
1B888
  8
SU
 10
1039.318142497661
 20
346.2673323298643
 30
0.0
 11
1039.318142497661
 21
366.2673323298643
 31
0.0
  0
LINE
  5
1B889
  8
SU
 10
1031.8181424976619
 20
363.2673323298643
 30
0.0
 11
1039.318142497661
 21
363.2673323298643
 31
0.0
  0
LINE
  5
1B88A
  8
SU
 10
1035.568142497661
 20
363.2673323298643
 30
0.0
 11
1029.7907145861941
 21
378.2673323298643
 31
0.0
  0
LINE
  5
1B88B
  8
SU
 10
1029.7907145861941
 20
378.2673323298643
 30
0.0
 11
963.4467145861945
 21
378.2673323298643
 31
0.0
  0
LINE
  5
1B88E
  8
SU
 10
394.14203913270808
 20
215.7947028233321
 30
0.0
 11
388.14203913270808
 21
205.79470282333199
 31
0.0
  0
LINE
  5
1B88F
  8
SU
 10
382.14203913270808
 20
215.7947028233321
 30
0.0
 11
388.14203913270808
 21
205.79470282333199
 31
0.0
  0
LINE
  5
1B890
  8
SU
 10
394.14203913270808
 20
215.7947028233321
 30
0.0
 11
382.14203913270808
 21
215.7947028233321
 31
0.0
  0
LINE
  5
1B891
  8
SU
 10
388.18267589944872
 20
205.86243076789921
 30
0.0
 11
388.10140236596772
 21
205.86243076789921
 31
0.0
  0
LINE
  5
1B892
  8
SU
 10
388.30267589944862
 20
206.062430767899
 30
0.0
 11
387.98140236596782
 21
206.062430767899
 31
0.0
  0
LINE
  5
1B893
  8
SU
 10
388.42267589944868
 20
206.2624307678993
 30
0.0
 11
387.86140236596771
 21
206.2624307678993
 31
0.0
  0
LINE
  5
1B894
  8
SU
 10
388.54267589944862
 20
206.46243076789909
 30
0.0
 11
387.74140236596759
 21
206.46243076789909
 31
0.0
  0
LINE
  5
1B895
  8
SU
 10
388.66267589944852
 20
206.66243076789939
 30
0.0
 11
387.6214023659677
 21
206.66243076789939
 31
0.0
  0
LINE
  5
1B896
  8
SU
 10
388.78267589944858
 20
206.86243076789921
 30
0.0
 11
387.50140236596781
 21
206.86243076789921
 31
0.0
  0
LINE
  5
1B897
  8
SU
 10
388.9026758994487
 20
207.06243076789909
 30
0.0
 11
387.38140236596769
 21
207.06243076789909
 31
0.0
  0
LINE
  5
1B898
  8
SU
 10
389.02267589944859
 20
207.2624307678993
 30
0.0
 11
387.26140236596763
 21
207.2624307678993
 31
0.0
  0
LINE
  5
1B899
  8
SU
 10
389.14267589944848
 20
207.46243076789921
 30
0.0
 11
387.14140236596768
 21
207.46243076789921
 31
0.0
  0
LINE
  5
1B89A
  8
SU
 10
389.26267589944842
 20
207.66243076789939
 30
0.0
 11
387.02140236596779
 21
207.66243076789939
 31
0.0
  0
LINE
  5
1B89B
  8
SU
 10
389.38267589944871
 20
207.86243076789921
 30
0.0
 11
386.90140236596773
 21
207.86243076789921
 31
0.0
  0
LINE
  5
1B89C
  8
SU
 10
389.5026758994486
 20
208.062430767899
 30
0.0
 11
386.78140236596761
 21
208.062430767899
 31
0.0
  0
LINE
  5
1B89D
  8
SU
 10
389.6226758994485
 20
208.2624307678993
 30
0.0
 11
386.66140236596772
 21
208.2624307678993
 31
0.0
  0
LINE
  5
1B89E
  8
SU
 10
389.74267589944861
 20
208.46243076789909
 30
0.0
 11
386.54140236596783
 21
208.46243076789909
 31
0.0
  0
LINE
  5
1B89F
  8
SU
 10
389.8626758994485
 20
208.66243076789939
 30
0.0
 11
386.42140236596771
 21
208.66243076789939
 31
0.0
  0
LINE
  5
1B8A0
  8
SU
 10
389.98267589944862
 20
208.86243076789921
 30
0.0
 11
386.30140236596782
 21
208.86243076789921
 31
0.0
  0
LINE
  5
1B8A1
  8
SU
 10
390.10267589944851
 20
209.06243076789909
 30
0.0
 11
386.18140236596759
 21
209.06243076789909
 31
0.0
  0
LINE
  5
1B8A2
  8
SU
 10
390.22267589944869
 20
209.2624307678993
 30
0.0
 11
386.06140236596781
 21
209.2624307678993
 31
0.0
  0
LINE
  5
1B8A3
  8
SU
 10
390.34267589944852
 20
209.46243076789921
 30
0.0
 11
385.94140236596769
 21
209.46243076789921
 31
0.0
  0
LINE
  5
1B8A4
  8
SU
 10
390.46267589944858
 20
209.66243076789939
 30
0.0
 11
385.8214023659678
 21
209.66243076789939
 31
0.0
  0
LINE
  5
1B8A5
  8
SU
 10
390.58267589944847
 20
209.86243076789921
 30
0.0
 11
385.70140236596762
 21
209.86243076789921
 31
0.0
  0
LINE
  5
1B8A6
  8
SU
 10
390.70267589944842
 20
210.062430767899
 30
0.0
 11
385.58140236596768
 21
210.062430767899
 31
0.0
  0
LINE
  5
1B8A7
  8
SU
 10
390.82267589944848
 20
210.2624307678993
 30
0.0
 11
385.46140236596761
 21
210.2624307678993
 31
0.0
  0
LINE
  5
1B8A8
  8
SU
 10
390.94267589944872
 20
210.46243076789909
 30
0.0
 11
385.34140236596772
 21
210.46243076789909
 31
0.0
  0
LINE
  5
1B8A9
  8
SU
 10
391.06267589944849
 20
210.66243076789939
 30
0.0
 11
385.22140236596761
 21
210.66243076789939
 31
0.0
  0
LINE
  5
1B8AA
  8
SU
 10
391.18267589944872
 20
210.86243076789921
 30
0.0
 11
385.10140236596772
 21
210.86243076789921
 31
0.0
  0
LINE
  5
1B8AB
  8
SU
 10
391.30267589944862
 20
211.06243076789909
 30
0.0
 11
384.98140236596782
 21
211.06243076789909
 31
0.0
  0
LINE
  5
1B8AC
  8
SU
 10
391.42267589944868
 20
211.2624307678993
 30
0.0
 11
384.86140236596771
 21
211.2624307678993
 31
0.0
  0
LINE
  5
1B8AD
  8
SU
 10
391.54267589944862
 20
211.46243076789921
 30
0.0
 11
384.74140236596759
 21
211.46243076789921
 31
0.0
  0
LINE
  5
1B8AE
  8
SU
 10
391.6626758994484
 20
211.66243076789939
 30
0.0
 11
384.6214023659677
 21
211.66243076789939
 31
0.0
  0
LINE
  5
1B8AF
  8
SU
 10
391.78267589944858
 20
211.8624307678993
 30
0.0
 11
384.50140236596781
 21
211.8624307678993
 31
0.0
  0
LINE
  5
1B8B0
  8
SU
 10
391.9026758994487
 20
212.06243076789909
 30
0.0
 11
384.38140236596769
 21
212.06243076789909
 31
0.0
  0
LINE
  5
1B8B1
  8
SU
 10
392.02267589944859
 20
212.2624307678993
 30
0.0
 11
384.26140236596763
 21
212.2624307678993
 31
0.0
  0
LINE
  5
1B8B2
  8
SU
 10
392.14267589944848
 20
212.46243076789909
 30
0.0
 11
384.14140236596768
 21
212.46243076789909
 31
0.0
  0
LINE
  5
1B8B3
  8
SU
 10
392.26267589944842
 20
212.66243076789939
 30
0.0
 11
384.02140236596779
 21
212.66243076789939
 31
0.0
  0
LINE
  5
1B8B4
  8
SU
 10
392.38267589944871
 20
212.86243076789921
 30
0.0
 11
383.90140236596773
 21
212.86243076789921
 31
0.0
  0
LINE
  5
1B8B5
  8
SU
 10
392.5026758994486
 20
213.06243076789909
 30
0.0
 11
383.78140236596749
 21
213.06243076789909
 31
0.0
  0
LINE
  5
1B8B6
  8
SU
 10
392.6226758994485
 20
213.2624307678993
 30
0.0
 11
383.66140236596772
 21
213.2624307678993
 31
0.0
  0
LINE
  5
1B8B7
  8
SU
 10
392.74267589944861
 20
213.46243076789921
 30
0.0
 11
383.54140236596783
 21
213.46243076789921
 31
0.0
  0
LINE
  5
1B8B8
  8
SU
 10
392.8626758994485
 20
213.66243076789939
 30
0.0
 11
383.42140236596771
 21
213.66243076789939
 31
0.0
  0
LINE
  5
1B8B9
  8
SU
 10
392.98267589944862
 20
213.8624307678993
 30
0.0
 11
383.30140236596782
 21
213.8624307678993
 31
0.0
  0
LINE
  5
1B8BA
  8
SU
 10
393.10267589944851
 20
214.06243076789909
 30
0.0
 11
383.18140236596759
 21
214.06243076789909
 31
0.0
  0
LINE
  5
1B8BB
  8
SU
 10
393.22267589944857
 20
214.2624307678993
 30
0.0
 11
383.06140236596769
 21
214.2624307678993
 31
0.0
  0
LINE
  5
1B8BC
  8
SU
 10
393.34267589944852
 20
214.46243076789909
 30
0.0
 11
382.94140236596758
 21
214.46243076789909
 31
0.0
  0
LINE
  5
1B8BD
  8
SU
 10
393.46267589944858
 20
214.66243076789939
 30
0.0
 11
382.82140236596769
 21
214.66243076789939
 31
0.0
  0
LINE
  5
1B8BE
  8
SU
 10
393.58267589944847
 20
214.86243076789921
 30
0.0
 11
382.70140236596762
 21
214.86243076789921
 31
0.0
  0
LINE
  5
1B8BF
  8
SU
 10
393.70267589944842
 20
215.06243076789909
 30
0.0
 11
382.58140236596779
 21
215.06243076789909
 31
0.0
  0
LINE
  5
1B8C0
  8
SU
 10
393.8226758994486
 20
215.2624307678993
 30
0.0
 11
382.46140236596761
 21
215.2624307678993
 31
0.0
  0
LINE
  5
1B8C1
  8
SU
 10
393.9426758994486
 20
215.46243076789921
 30
0.0
 11
382.34140236596772
 21
215.46243076789921
 31
0.0
  0
LINE
  5
1B8C2
  8
SU
 10
394.06267589944849
 20
215.66243076789939
 30
0.0
 11
382.22140236596761
 21
215.66243076789939
 31
0.0
  0
LINE
  5
1B8C3
  8
SU
 10
382.1420391327087
 20
592.25425387022017
 30
0.0
 11
388.1420391327087
 21
602.25425387022028
 31
0.0
  0
LINE
  5
1B8C4
  8
SU
 10
394.1420391327087
 20
592.25425387022017
 30
0.0
 11
388.1420391327087
 21
602.25425387022028
 31
0.0
  0
LINE
  5
1B8C5
  8
SU
 10
382.1420391327087
 20
592.25425387022017
 30
0.0
 11
394.1420391327087
 21
592.25425387022017
 31
0.0
  0
LINE
  5
1B8C6
  8
SU
 10
388.10140236596811
 20
602.18652592565297
 30
0.0
 11
388.18267589944901
 21
602.18652592565297
 31
0.0
  0
LINE
  5
1B8C7
  8
SU
 10
387.98140236596822
 20
601.98652592565315
 30
0.0
 11
388.3026758994489
 21
601.98652592565315
 31
0.0
  0
LINE
  5
1B8C8
  8
SU
 10
387.8614023659681
 20
601.786525925653
 30
0.0
 11
388.42267589944908
 21
601.786525925653
 31
0.0
  0
LINE
  5
1B8C9
  8
SU
 10
387.74140236596821
 20
601.58652592565306
 30
0.0
 11
388.54267589944919
 21
601.58652592565306
 31
0.0
  0
LINE
  5
1B8CA
  8
SU
 10
387.62140236596832
 20
601.3865259256529
 30
0.0
 11
388.66267589944908
 21
601.3865259256529
 31
0.0
  0
LINE
  5
1B8CB
  8
SU
 10
387.5014023659682
 20
601.18652592565309
 30
0.0
 11
388.78267589944898
 21
601.18652592565309
 31
0.0
  0
LINE
  5
1B8CC
  8
SU
 10
387.38140236596809
 20
600.98652592565327
 30
0.0
 11
388.90267589944909
 21
600.98652592565327
 31
0.0
  0
LINE
  5
1B8CD
  8
SU
 10
387.26140236596819
 20
600.78652592565288
 30
0.0
 11
389.02267589944921
 21
600.78652592565288
 31
0.0
  0
LINE
  5
1B8CE
  8
SU
 10
387.1414023659683
 20
600.58652592565306
 30
0.0
 11
389.1426758994491
 21
600.58652592565306
 31
0.0
  0
LINE
  5
1B8CF
  8
SU
 10
387.02140236596841
 20
600.3865259256529
 30
0.0
 11
389.26267589944899
 21
600.3865259256529
 31
0.0
  0
LINE
  5
1B8D0
  8
SU
 10
386.90140236596812
 20
600.18652592565309
 30
0.0
 11
389.38267589944911
 21
600.18652592565309
 31
0.0
  0
LINE
  5
1B8D1
  8
SU
 10
386.78140236596818
 20
599.98652592565315
 30
0.0
 11
389.50267589944917
 21
599.98652592565315
 31
0.0
  0
LINE
  5
1B8D2
  8
SU
 10
386.66140236596829
 20
599.786525925653
 30
0.0
 11
389.62267589944912
 21
599.786525925653
 31
0.0
  0
LINE
  5
1B8D3
  8
SU
 10
386.54140236596822
 20
599.58652592565318
 30
0.0
 11
389.74267589944901
 21
599.58652592565318
 31
0.0
  0
LINE
  5
1B8D4
  8
SU
 10
386.42140236596828
 20
599.3865259256529
 30
0.0
 11
389.86267589944907
 21
599.3865259256529
 31
0.0
  0
LINE
  5
1B8D5
  8
SU
 10
386.3014023659681
 20
599.18652592565297
 30
0.0
 11
389.98267589944902
 21
599.18652592565297
 31
0.0
  0
LINE
  5
1B8D6
  8
SU
 10
386.18140236596832
 20
598.98652592565315
 30
0.0
 11
390.1026758994492
 21
598.98652592565315
 31
0.0
  0
LINE
  5
1B8D7
  8
SU
 10
386.06140236596821
 20
598.786525925653
 30
0.0
 11
390.22267589944909
 21
598.786525925653
 31
0.0
  0
LINE
  5
1B8D8
  8
SU
 10
385.94140236596832
 20
598.58652592565318
 30
0.0
 11
390.3426758994492
 21
598.58652592565318
 31
0.0
  0
LINE
  5
1B8D9
  8
SU
 10
385.8214023659682
 20
598.38652592565279
 30
0.0
 11
390.46267589944898
 21
598.38652592565279
 31
0.0
  0
LINE
  5
1B8DA
  8
SU
 10
385.70140236596831
 20
598.18652592565297
 30
0.0
 11
390.5826758994491
 21
598.18652592565297
 31
0.0
  0
LINE
  5
1B8DB
  8
SU
 10
385.58140236596842
 20
597.98652592565315
 30
0.0
 11
390.70267589944899
 21
597.98652592565315
 31
0.0
  0
LINE
  5
1B8DC
  8
SU
 10
385.46140236596818
 20
597.786525925653
 30
0.0
 11
390.82267589944922
 21
597.786525925653
 31
0.0
  0
LINE
  5
1B8DD
  8
SU
 10
385.34140236596812
 20
597.58652592565306
 30
0.0
 11
390.94267589944911
 21
597.58652592565306
 31
0.0
  0
LINE
  5
1B8DE
  8
SU
 10
385.22140236596817
 20
597.3865259256529
 30
0.0
 11
391.06267589944918
 21
597.3865259256529
 31
0.0
  0
LINE
  5
1B8DF
  8
SU
 10
385.10140236596811
 20
597.18652592565309
 30
0.0
 11
391.18267589944912
 21
597.18652592565309
 31
0.0
  0
LINE
  5
1B8E0
  8
SU
 10
384.98140236596822
 20
596.98652592565327
 30
0.0
 11
391.30267589944901
 21
596.98652592565327
 31
0.0
  0
LINE
  5
1B8E1
  8
SU
 10
384.8614023659681
 20
596.78652592565288
 30
0.0
 11
391.42267589944908
 21
596.78652592565288
 31
0.0
  0
LINE
  5
1B8E2
  8
SU
 10
384.74140236596821
 20
596.58652592565306
 30
0.0
 11
391.54267589944919
 21
596.58652592565306
 31
0.0
  0
LINE
  5
1B8E3
  8
SU
 10
384.62140236596832
 20
596.3865259256529
 30
0.0
 11
391.66267589944908
 21
596.3865259256529
 31
0.0
  0
LINE
  5
1B8E4
  8
SU
 10
384.5014023659682
 20
596.18652592565309
 30
0.0
 11
391.78267589944898
 21
596.18652592565309
 31
0.0
  0
LINE
  5
1B8E5
  8
SU
 10
384.38140236596809
 20
595.98652592565315
 30
0.0
 11
391.90267589944909
 21
595.98652592565315
 31
0.0
  0
LINE
  5
1B8E6
  8
SU
 10
384.26140236596819
 20
595.78652592565288
 30
0.0
 11
392.02267589944921
 21
595.78652592565288
 31
0.0
  0
LINE
  5
1B8E7
  8
SU
 10
384.1414023659683
 20
595.58652592565306
 30
0.0
 11
392.1426758994491
 21
595.58652592565306
 31
0.0
  0
LINE
  5
1B8E8
  8
SU
 10
384.02140236596841
 20
595.3865259256529
 30
0.0
 11
392.26267589944899
 21
595.3865259256529
 31
0.0
  0
LINE
  5
1B8E9
  8
SU
 10
383.90140236596812
 20
595.18652592565297
 30
0.0
 11
392.38267589944911
 21
595.18652592565297
 31
0.0
  0
LINE
  5
1B8EA
  8
SU
 10
383.78140236596818
 20
594.98652592565315
 30
0.0
 11
392.50267589944917
 21
594.98652592565315
 31
0.0
  0
LINE
  5
1B8EB
  8
SU
 10
383.66140236596829
 20
594.786525925653
 30
0.0
 11
392.62267589944912
 21
594.786525925653
 31
0.0
  0
LINE
  5
1B8EC
  8
SU
 10
383.54140236596822
 20
594.58652592565318
 30
0.0
 11
392.74267589944901
 21
594.58652592565318
 31
0.0
  0
LINE
  5
1B8ED
  8
SU
 10
383.42140236596828
 20
594.38652592565279
 30
0.0
 11
392.86267589944907
 21
594.38652592565279
 31
0.0
  0
LINE
  5
1B8EE
  8
SU
 10
383.30140236596822
 20
594.18652592565297
 30
0.0
 11
392.98267589944902
 21
594.18652592565297
 31
0.0
  0
LINE
  5
1B8EF
  8
SU
 10
383.18140236596832
 20
593.98652592565315
 30
0.0
 11
393.10267589944908
 21
593.98652592565315
 31
0.0
  0
LINE
  5
1B8F0
  8
SU
 10
383.06140236596809
 20
593.786525925653
 30
0.0
 11
393.22267589944897
 21
593.786525925653
 31
0.0
  0
LINE
  5
1B8F1
  8
SU
 10
382.9414023659682
 20
593.58652592565306
 30
0.0
 11
393.3426758994492
 21
593.58652592565306
 31
0.0
  0
LINE
  5
1B8F2
  8
SU
 10
382.82140236596808
 20
593.3865259256529
 30
0.0
 11
393.46267589944898
 21
593.3865259256529
 31
0.0
  0
LINE
  5
1B8F3
  8
SU
 10
382.70140236596819
 20
593.18652592565309
 30
0.0
 11
393.58267589944921
 21
593.18652592565309
 31
0.0
  0
LINE
  5
1B8F4
  8
SU
 10
382.58140236596842
 20
592.98652592565327
 30
0.0
 11
393.7026758994491
 21
592.98652592565327
 31
0.0
  0
LINE
  5
1B8F5
  8
SU
 10
382.46140236596818
 20
592.78652592565288
 30
0.0
 11
393.82267589944922
 21
592.78652592565288
 31
0.0
  0
LINE
  5
1B8F6
  8
SU
 10
382.34140236596812
 20
592.58652592565306
 30
0.0
 11
393.942675899449
 21
592.58652592565306
 31
0.0
  0
LINE
  5
1B8F7
  8
SU
 10
382.22140236596817
 20
592.3865259256529
 30
0.0
 11
394.06267589944918
 21
592.3865259256529
 31
0.0
  0
LINE
  5
1B8F8
  8
SU
 10
1029.3181424976451
 20
136.85348737547471
 30
0.0
 11
1039.3181424976451
 21
130.85348737547471
 31
0.0
  0
LINE
  5
1B8F9
  8
SU
 10
1029.3181424976451
 20
124.8534873754747
 30
0.0
 11
1039.3181424976451
 21
130.85348737547471
 31
0.0
  0
LINE
  5
1B8FA
  8
SU
 10
1029.3181424976451
 20
136.85348737547471
 30
0.0
 11
1029.3181424976451
 21
124.8534873754747
 31
0.0
  0
LINE
  5
1B8FB
  8
SU
 10
1039.2504145530779
 20
130.8941241422153
 30
0.0
 11
1039.2504145530779
 21
130.81285060873429
 31
0.0
  0
LINE
  5
1B8FC
  8
SU
 10
1039.0504145530781
 20
131.01412414221519
 30
0.0
 11
1039.0504145530781
 21
130.6928506087344
 31
0.0
  0
LINE
  5
1B8FD
  8
SU
 10
1038.8504145530781
 20
131.13412414221531
 30
0.0
 11
1038.8504145530781
 21
130.57285060873431
 31
0.0
  0
LINE
  5
1B8FE
  8
SU
 10
1038.650414553078
 20
131.2541241422152
 30
0.0
 11
1038.650414553078
 21
130.4528506087342
 31
0.0
  0
LINE
  5
1B8FF
  8
SU
 10
1038.450414553078
 20
131.37412414221509
 30
0.0
 11
1038.450414553078
 21
130.3328506087343
 31
0.0
  0
LINE
  5
1B900
  8
SU
 10
1038.2504145530779
 20
131.49412414221521
 30
0.0
 11
1038.2504145530779
 21
130.21285060873441
 31
0.0
  0
LINE
  5
1B901
  8
SU
 10
1038.0504145530781
 20
131.6141241422153
 30
0.0
 11
1038.0504145530781
 21
130.0928506087343
 31
0.0
  0
LINE
  5
1B902
  8
SU
 10
1037.8504145530781
 20
131.73412414221519
 30
0.0
 11
1037.8504145530781
 21
129.97285060873421
 31
0.0
  0
LINE
  5
1B903
  8
SU
 10
1037.650414553078
 20
131.85412414221511
 30
0.0
 11
1037.650414553078
 21
129.85285060873429
 31
0.0
  0
LINE
  5
1B904
  8
SU
 10
1037.450414553078
 20
131.974124142215
 30
0.0
 11
1037.450414553078
 21
129.7328506087344
 31
0.0
  0
LINE
  5
1B905
  8
SU
 10
1037.2504145530779
 20
132.09412414221529
 30
0.0
 11
1037.2504145530779
 21
129.61285060873431
 31
0.0
  0
LINE
  5
1B906
  8
SU
 10
1037.0504145530781
 20
132.21412414221521
 30
0.0
 11
1037.0504145530781
 21
129.49285060873419
 31
0.0
  0
LINE
  5
1B907
  8
SU
 10
1036.8504145530781
 20
132.3341241422151
 30
0.0
 11
1036.8504145530781
 21
129.3728506087343
 31
0.0
  0
LINE
  5
1B908
  8
SU
 10
1036.650414553078
 20
132.45412414221519
 30
0.0
 11
1036.650414553078
 21
129.25285060873441
 31
0.0
  0
LINE
  5
1B909
  8
SU
 10
1036.450414553078
 20
132.57412414221511
 30
0.0
 11
1036.450414553078
 21
129.13285060873429
 31
0.0
  0
LINE
  5
1B90A
  8
SU
 10
1036.2504145530779
 20
132.6941241422152
 30
0.0
 11
1036.2504145530779
 21
129.0128506087344
 31
0.0
  0
LINE
  5
1B90B
  8
SU
 10
1036.0504145530781
 20
132.81412414221509
 30
0.0
 11
1036.0504145530781
 21
128.89285060873419
 31
0.0
  0
LINE
  5
1B90C
  8
SU
 10
1035.8504145530781
 20
132.93412414221521
 30
0.0
 11
1035.8504145530781
 21
128.77285060873439
 31
0.0
  0
LINE
  5
1B90D
  8
SU
 10
1035.650414553078
 20
133.0541241422151
 30
0.0
 11
1035.650414553078
 21
128.6528506087343
 31
0.0
  0
LINE
  5
1B90E
  8
SU
 10
1035.450414553078
 20
133.17412414221519
 30
0.0
 11
1035.450414553078
 21
128.53285060873441
 31
0.0
  0
LINE
  5
1B90F
  8
SU
 10
1035.2504145530779
 20
133.29412414221511
 30
0.0
 11
1035.2504145530779
 21
128.4128506087342
 31
0.0
  0
LINE
  5
1B910
  8
SU
 10
1035.050414553079
 20
133.414124142215
 30
0.0
 11
1035.050414553079
 21
128.29285060873431
 31
0.0
  0
LINE
  5
1B911
  8
SU
 10
1034.8504145530781
 20
133.53412414221509
 30
0.0
 11
1034.8504145530781
 21
128.17285060873419
 31
0.0
  0
LINE
  5
1B912
  8
SU
 10
1034.650414553078
 20
133.6541241422153
 30
0.0
 11
1034.650414553078
 21
128.0528506087343
 31
0.0
  0
LINE
  5
1B913
  8
SU
 10
1034.450414553078
 20
133.77412414221519
 30
0.0
 11
1034.450414553078
 21
127.9328506087342
 31
0.0
  0
LINE
  5
1B914
  8
SU
 10
1034.2504145530779
 20
133.8941241422153
 30
0.0
 11
1034.2504145530779
 21
127.81285060873429
 31
0.0
  0
LINE
  5
1B915
  8
SU
 10
1034.0504145530781
 20
134.01412414221519
 30
0.0
 11
1034.0504145530781
 21
127.6928506087344
 31
0.0
  0
LINE
  5
1B916
  8
SU
 10
1033.8504145530781
 20
134.13412414221531
 30
0.0
 11
1033.8504145530781
 21
127.5728506087343
 31
0.0
  0
LINE
  5
1B917
  8
SU
 10
1033.650414553078
 20
134.2541241422152
 30
0.0
 11
1033.650414553078
 21
127.4528506087342
 31
0.0
  0
LINE
  5
1B918
  8
SU
 10
1033.450414553078
 20
134.37412414221509
 30
0.0
 11
1033.450414553078
 21
127.3328506087343
 31
0.0
  0
LINE
  5
1B919
  8
SU
 10
1033.2504145530779
 20
134.49412414221521
 30
0.0
 11
1033.2504145530779
 21
127.2128506087344
 31
0.0
  0
LINE
  5
1B91A
  8
SU
 10
1033.0504145530781
 20
134.6141241422153
 30
0.0
 11
1033.0504145530781
 21
127.0928506087343
 31
0.0
  0
LINE
  5
1B91B
  8
SU
 10
1032.8504145530781
 20
134.73412414221519
 30
0.0
 11
1032.8504145530781
 21
126.97285060873421
 31
0.0
  0
LINE
  5
1B91C
  8
SU
 10
1032.650414553078
 20
134.85412414221511
 30
0.0
 11
1032.650414553078
 21
126.8528506087343
 31
0.0
  0
LINE
  5
1B91D
  8
SU
 10
1032.450414553078
 20
134.974124142215
 30
0.0
 11
1032.450414553078
 21
126.7328506087344
 31
0.0
  0
LINE
  5
1B91E
  8
SU
 10
1032.2504145530779
 20
135.09412414221529
 30
0.0
 11
1032.2504145530779
 21
126.61285060873431
 31
0.0
  0
LINE
  5
1B91F
  8
SU
 10
1032.0504145530781
 20
135.21412414221521
 30
0.0
 11
1032.0504145530781
 21
126.4928506087342
 31
0.0
  0
LINE
  5
1B920
  8
SU
 10
1031.8504145530781
 20
135.3341241422151
 30
0.0
 11
1031.8504145530781
 21
126.3728506087343
 31
0.0
  0
LINE
  5
1B921
  8
SU
 10
1031.650414553078
 20
135.45412414221519
 30
0.0
 11
1031.650414553078
 21
126.25285060873441
 31
0.0
  0
LINE
  5
1B922
  8
SU
 10
1031.450414553078
 20
135.57412414221511
 30
0.0
 11
1031.450414553078
 21
126.1328506087343
 31
0.0
  0
LINE
  5
1B923
  8
SU
 10
1031.2504145530779
 20
135.6941241422152
 30
0.0
 11
1031.2504145530779
 21
126.0128506087344
 31
0.0
  0
LINE
  5
1B924
  8
SU
 10
1031.0504145530781
 20
135.81412414221509
 30
0.0
 11
1031.0504145530781
 21
125.89285060873419
 31
0.0
  0
LINE
  5
1B925
  8
SU
 10
1030.8504145530781
 20
135.93412414221521
 30
0.0
 11
1030.8504145530781
 21
125.7728506087344
 31
0.0
  0
LINE
  5
1B926
  8
SU
 10
1030.650414553078
 20
136.0541241422151
 30
0.0
 11
1030.650414553078
 21
125.6528506087343
 31
0.0
  0
LINE
  5
1B927
  8
SU
 10
1030.450414553078
 20
136.17412414221531
 30
0.0
 11
1030.450414553078
 21
125.53285060873441
 31
0.0
  0
LINE
  5
1B928
  8
SU
 10
1030.2504145530779
 20
136.2941241422152
 30
0.0
 11
1030.2504145530779
 21
125.4128506087342
 31
0.0
  0
LINE
  5
1B929
  8
SU
 10
1030.0504145530781
 20
136.414124142215
 30
0.0
 11
1030.0504145530781
 21
125.2928506087343
 31
0.0
  0
LINE
  5
1B92A
  8
SU
 10
1029.8504145530781
 20
136.53412414221509
 30
0.0
 11
1029.8504145530781
 21
125.17285060873419
 31
0.0
  0
LINE
  5
1B92B
  8
SU
 10
1029.650414553078
 20
136.6541241422153
 30
0.0
 11
1029.650414553078
 21
125.0528506087343
 31
0.0
  0
LINE
  5
1B92C
  8
SU
 10
1029.450414553078
 20
136.77412414221519
 30
0.0
 11
1029.450414553078
 21
124.9328506087342
 31
0.0
  0
LINE
  5
1B92D
  8
SU
 10
549.31814249762101
 20
124.8534873754751
 30
0.0
 11
539.31814249762101
 21
130.85348737547511
 31
0.0
  0
LINE
  5
1B92E
  8
SU
 10
549.31814249762101
 20
136.8534873754752
 30
0.0
 11
539.31814249762101
 21
130.85348737547511
 31
0.0
  0
LINE
  5
1B92F
  8
SU
 10
549.31814249762101
 20
124.8534873754751
 30
0.0
 11
549.31814249762101
 21
136.8534873754752
 31
0.0
  0
LINE
  5
1B930
  8
SU
 10
539.38587044218821
 20
130.81285060873449
 30
0.0
 11
539.38587044218821
 21
130.8941241422155
 31
0.0
  0
LINE
  5
1B931
  8
SU
 10
539.58587044218802
 20
130.69285060873469
 30
0.0
 11
539.58587044218802
 21
131.01412414221539
 31
0.0
  0
LINE
  5
1B932
  8
SU
 10
539.78587044218818
 20
130.5728506087346
 30
0.0
 11
539.78587044218818
 21
131.13412414221551
 31
0.0
  0
LINE
  5
1B933
  8
SU
 10
539.985870442188
 20
130.45285060873471
 30
0.0
 11
539.985870442188
 21
131.2541241422156
 31
0.0
  0
LINE
  5
1B934
  8
SU
 10
540.18587044218839
 20
130.33285060873479
 30
0.0
 11
540.18587044218839
 21
131.37412414221549
 31
0.0
  0
LINE
  5
1B935
  8
SU
 10
540.38587044218821
 20
130.21285060873461
 30
0.0
 11
540.38587044218821
 21
131.49412414221541
 31
0.0
  0
LINE
  5
1B936
  8
SU
 10
540.58587044218802
 20
130.09285060873449
 30
0.0
 11
540.58587044218802
 21
131.6141241422155
 31
0.0
  0
LINE
  5
1B937
  8
SU
 10
540.78587044218818
 20
129.9728506087346
 30
0.0
 11
540.78587044218818
 21
131.73412414221571
 31
0.0
  0
LINE
  5
1B938
  8
SU
 10
540.98587044218812
 20
129.85285060873471
 30
0.0
 11
540.98587044218812
 21
131.8541241422156
 31
0.0
  0
LINE
  5
1B939
  8
SU
 10
541.18587044218827
 20
129.73285060873479
 30
0.0
 11
541.18587044218827
 21
131.9741241422154
 31
0.0
  0
LINE
  5
1B93A
  8
SU
 10
541.38587044218809
 20
129.6128506087345
 30
0.0
 11
541.38587044218809
 21
132.09412414221549
 31
0.0
  0
LINE
  5
1B93B
  8
SU
 10
541.58587044218791
 20
129.49285060873461
 30
0.0
 11
541.58587044218791
 21
132.2141241422157
 31
0.0
  0
LINE
  5
1B93C
  8
SU
 10
541.7858704421883
 20
129.37285060873469
 30
0.0
 11
541.7858704421883
 21
132.33412414221559
 31
0.0
  0
LINE
  5
1B93D
  8
SU
 10
541.98587044218812
 20
129.2528506087346
 30
0.0
 11
541.98587044218812
 21
132.45412414221551
 31
0.0
  0
LINE
  5
1B93E
  8
SU
 10
542.18587044218827
 20
129.13285060873471
 30
0.0
 11
542.18587044218827
 21
132.5741241422156
 31
0.0
  0
LINE
  5
1B93F
  8
SU
 10
542.38587044218809
 20
129.0128506087346
 30
0.0
 11
542.38587044218809
 21
132.69412414221549
 31
0.0
  0
LINE
  5
1B940
  8
SU
 10
542.58587044218802
 20
128.8928506087347
 30
0.0
 11
542.58587044218802
 21
132.8141241422156
 31
0.0
  0
LINE
  5
1B941
  8
SU
 10
542.7858704421883
 20
128.77285060873459
 30
0.0
 11
542.7858704421883
 21
132.9341241422155
 31
0.0
  0
LINE
  5
1B942
  8
SU
 10
542.98587044218812
 20
128.6528506087347
 30
0.0
 11
542.98587044218812
 21
133.05412414221561
 31
0.0
  0
LINE
  5
1B943
  8
SU
 10
543.18587044218827
 20
128.53285060873461
 30
0.0
 11
543.18587044218827
 21
133.1741241422155
 31
0.0
  0
LINE
  5
1B944
  8
SU
 10
543.38587044218821
 20
128.41285060873469
 30
0.0
 11
543.38587044218821
 21
133.29412414221559
 31
0.0
  0
LINE
  5
1B945
  8
SU
 10
543.58587044218802
 20
128.2928506087348
 30
0.0
 11
543.58587044218802
 21
133.41412414221551
 31
0.0
  0
LINE
  5
1B946
  8
SU
 10
543.78587044218818
 20
128.17285060873471
 30
0.0
 11
543.78587044218818
 21
133.5341241422156
 31
0.0
  0
LINE
  5
1B947
  8
SU
 10
543.985870442188
 20
128.05285060873459
 30
0.0
 11
543.985870442188
 21
133.65412414221549
 31
0.0
  0
LINE
  5
1B948
  8
SU
 10
544.18587044218839
 20
127.9328506087347
 30
0.0
 11
544.18587044218839
 21
133.77412414221561
 31
0.0
  0
LINE
  5
1B949
  8
SU
 10
544.38587044218821
 20
127.81285060873449
 30
0.0
 11
544.38587044218821
 21
133.8941241422155
 31
0.0
  0
LINE
  5
1B94A
  8
SU
 10
544.58587044218802
 20
127.6928506087347
 30
0.0
 11
544.58587044218802
 21
134.01412414221539
 31
0.0
  0
LINE
  5
1B94B
  8
SU
 10
544.78587044218818
 20
127.5728506087346
 30
0.0
 11
544.78587044218818
 21
134.13412414221551
 31
0.0
  0
LINE
  5
1B94C
  8
SU
 10
544.98587044218812
 20
127.45285060873471
 30
0.0
 11
544.98587044218812
 21
134.2541241422156
 31
0.0
  0
LINE
  5
1B94D
  8
SU
 10
545.18587044218839
 20
127.3328506087348
 30
0.0
 11
545.18587044218839
 21
134.37412414221549
 31
0.0
  0
LINE
  5
1B94E
  8
SU
 10
545.38587044218821
 20
127.2128506087346
 30
0.0
 11
545.38587044218821
 21
134.49412414221541
 31
0.0
  0
LINE
  5
1B94F
  8
SU
 10
545.58587044218802
 20
127.09285060873449
 30
0.0
 11
545.58587044218802
 21
134.6141241422155
 31
0.0
  0
LINE
  5
1B950
  8
SU
 10
545.7858704421883
 20
126.9728506087346
 30
0.0
 11
545.7858704421883
 21
134.73412414221571
 31
0.0
  0
LINE
  5
1B951
  8
SU
 10
545.98587044218812
 20
126.8528506087347
 30
0.0
 11
545.98587044218812
 21
134.8541241422156
 31
0.0
  0
LINE
  5
1B952
  8
SU
 10
546.18587044218827
 20
126.73285060873479
 30
0.0
 11
546.18587044218827
 21
134.9741241422154
 31
0.0
  0
LINE
  5
1B953
  8
SU
 10
546.38587044218809
 20
126.6128506087345
 30
0.0
 11
546.38587044218809
 21
135.09412414221549
 31
0.0
  0
LINE
  5
1B954
  8
SU
 10
546.58587044218802
 20
126.4928506087346
 30
0.0
 11
546.58587044218802
 21
135.2141241422157
 31
0.0
  0
LINE
  5
1B955
  8
SU
 10
546.7858704421883
 20
126.37285060873469
 30
0.0
 11
546.7858704421883
 21
135.33412414221559
 31
0.0
  0
LINE
  5
1B956
  8
SU
 10
546.98587044218812
 20
126.2528506087346
 30
0.0
 11
546.98587044218812
 21
135.45412414221539
 31
0.0
  0
LINE
  5
1B957
  8
SU
 10
547.18587044218827
 20
126.1328506087347
 30
0.0
 11
547.18587044218827
 21
135.5741241422156
 31
0.0
  0
LINE
  5
1B958
  8
SU
 10
547.38587044218821
 20
126.0128506087346
 30
0.0
 11
547.38587044218821
 21
135.69412414221549
 31
0.0
  0
LINE
  5
1B959
  8
SU
 10
547.58587044218802
 20
125.8928506087347
 30
0.0
 11
547.58587044218802
 21
135.8141241422156
 31
0.0
  0
LINE
  5
1B95A
  8
SU
 10
547.78587044218818
 20
125.7728506087346
 30
0.0
 11
547.78587044218818
 21
135.9341241422155
 31
0.0
  0
LINE
  5
1B95B
  8
SU
 10
547.985870442188
 20
125.6528506087347
 30
0.0
 11
547.985870442188
 21
136.05412414221561
 31
0.0
  0
LINE
  5
1B95C
  8
SU
 10
548.18587044218839
 20
125.53285060873461
 30
0.0
 11
548.18587044218839
 21
136.1741241422155
 31
0.0
  0
LINE
  5
1B95D
  8
SU
 10
548.38587044218821
 20
125.4128506087347
 30
0.0
 11
548.38587044218821
 21
136.29412414221559
 31
0.0
  0
LINE
  5
1B95E
  8
SU
 10
548.58587044218802
 20
125.2928506087348
 30
0.0
 11
548.58587044218802
 21
136.41412414221551
 31
0.0
  0
LINE
  5
1B95F
  8
SU
 10
548.78587044218818
 20
125.17285060873471
 30
0.0
 11
548.78587044218818
 21
136.5341241422156
 31
0.0
  0
LINE
  5
1B960
  8
SU
 10
548.98587044218812
 20
125.0528506087346
 30
0.0
 11
548.98587044218812
 21
136.65412414221549
 31
0.0
  0
LINE
  5
1B961
  8
SU
 10
549.18587044218839
 20
124.9328506087347
 30
0.0
 11
549.18587044218839
 21
136.77412414221561
 31
0.0
  0
LINE
  5
1B962
  8
SU
 10
901.64649149272987
 20
696.9077962636652
 30
0.0
 11
901.64649149272987
 21
674.8283771709107
 31
0.0
  0
LINE
  5
1B963
  8
SU
 10
1068.1464914927301
 20
700.75
 30
0.0
 11
1068.1464914927301
 21
674.8283771709107
 31
0.0
  0
LINE
  5
1B964
  8
SU
 10
901.64649149272987
 20
677.8283771709107
 30
0.0
 11
1068.1464914927301
 21
677.8283771709107
 31
0.0
  0
LINE
  5
1B966
  8
SU
 10
1082.1464914927301
 20
701.75
 30
0.0
 11
1114.5
 21
701.75
 31
0.0
  0
LINE
  5
1B967
  8
SU
 10
1092.5
 20
761.74999999999966
 30
0.0
 11
1114.5
 21
761.74999999999966
 31
0.0
  0
LINE
  5
1B968
  8
SU
 10
1111.5
 20
701.75
 30
0.0
 11
1111.5
 21
761.74999999999966
 31
0.0
  0
LINE
  5
1B970
  8
SU
 10
720.31814177235174
 20
318.26733232986902
 30
0.0
 11
734.31814177235185
 21
318.26733232986902
 31
0.0
  0
LINE
  5
1B971
  8
SU
 10
720.31814177235174
 20
182.35348737547361
 30
0.0
 11
734.31814177235174
 21
182.35348737547361
 31
0.0
  0
LINE
  5
1B972
  8
SU
 10
731.31814177235185
 20
318.26733232986902
 30
0.0
 11
731.31814177235174
 21
182.35348737547361
 31
0.0
  0
LINE
  5
1B976
  8
SU
 10
779.31814177235162
 20
319.26733232986811
 30
0.0
 11
779.31814177235162
 21
336.26733232986862
 31
0.0
  0
LINE
  5
1B977
  8
SU
 10
761.31814177235174
 20
319.26733232986828
 30
0.0
 11
761.31814177235174
 21
336.26733232986862
 31
0.0
  0
LINE
  5
1B978
  8
SU
 10
779.31814177235162
 20
333.26733232986862
 30
0.0
 11
761.31814177235174
 21
333.26733232986862
 31
0.0
  0
LINE
  5
1B97C
  8
SU
 10
208.5
 20
645.74764995184978
 30
0.0
 11
208.5
 21
682.74764995184967
 31
0.0
  0
LINE
  5
1B97D
  8
SU
 10
208.5
 20
679.74764995184978
 30
0.0
 11
313.5
 21
679.74764995184978
 31
0.0
  0
LINE
  5
1B981
  8
SU
 10
546.81814249760919
 20
346.2673323298647
 30
0.0
 11
546.81814249760919
 21
366.2673323298643
 31
0.0
  0
LINE
  5
1B982
  8
SU
 10
539.31814249760998
 20
346.2673323298643
 30
0.0
 11
539.31814249760998
 21
366.2673323298643
 31
0.0
  0
LINE
  5
1B983
  8
SU
 10
546.81814249760919
 20
363.2673323298643
 30
0.0
 11
539.31814249760998
 21
363.2673323298643
 31
0.0
  0
LINE
  5
1B984
  8
SU
 10
543.06814249760964
 20
363.2673323298643
 30
0.0
 11
548.84557040907657
 21
378.2673323298643
 31
0.0
  0
LINE
  5
1B985
  8
SU
 10
548.84557040907657
 20
378.2673323298643
 30
0.0
 11
615.18957040907662
 21
378.2673323298643
 31
0.0
  0
LINE
  5
1B989
  8
SU
 10
802.81814051335971
 20
208.2947041990102
 30
0.0
 11
835.31814123864353
 21
208.2947041990102
 31
0.0
  0
LINE
  5
1B98A
  8
SU
 10
760.81814021487935
 20
182.35348871940249
 30
0.0
 11
835.31814123864353
 21
182.35348871940241
 31
0.0
  0
LINE
  5
1B98B
  8
SU
 10
832.31814123864365
 20
208.2947041990102
 30
0.0
 11
832.31814123864365
 21
182.35348871940241
 31
0.0
  0
LINE
  5
1B992
  8
SU
 10
73.5
 20
192.79470282333179
 30
0.0
 11
73.5
 21
155.79470282333219
 31
0.0
  0
LINE
  5
1B993
  8
SU
 10
313.50000967510181
 20
204.79470282333199
 30
0.0
 11
313.50000967510181
 21
155.79470282333219
 31
0.0
  0
LINE
  5
1B994
  8
SU
 10
73.5
 20
158.7947028233323
 30
0.0
 11
313.50000967510181
 21
158.7947028233323
 31
0.0
  0
LINE
  5
1B998
  8
SU
 10
1052.818141772359
 20
318.26733232986481
 30
0.0
 11
1088.5
 21
318.26733232986481
 31
0.0
  0
LINE
  5
1B999
  8
SU
 10
1085.5
 20
277.29470233944022
 30
0.0
 11
1085.5
 21
318.26733232986481
 31
0.0
  0
LINE
  5
1B99C
  8
SU
 10
1052.818141772362
 20
277.29470233944022
 30
0.0
 11
1103.5
 21
277.29470233944022
 31
0.0
  0
LINE
  5
1B99D
  8
SU
 10
1100.5
 20
201.29470282333131
 30
0.0
 11
1100.5
 21
428.70789071421513
 31
0.0
  0
LINE
  5
1B9A1
  8
SU
 10
1066.5
 20
428.70789071421513
 30
0.0
 11
1118.5
 21
428.70789071421513
 31
0.0
  0
LINE
  5
1B9A2
  8
SU
 10
1066.5
 20
201.29470282333131
 30
0.0
 11
1118.5
 21
201.29470282333131
 31
0.0
  0
LINE
  5
1B9A3
  8
SU
 10
1115.5
 20
428.70789071421513
 30
0.0
 11
1115.5
 21
201.29470282333131
 31
0.0
  0
LINE
  5
1B9A7
  8
SU
 10
1085.5
 20
428.70789071421513
 30
0.0
 11
1085.5
 21
318.26733232986481
 31
0.0
  0
LINE
  5
1B9AA
  8
SU
 10
300.00000951993889
 20
173.794699737092
 30
0.0
 11
313.50000967510181
 21
173.794699737092
 31
0.0
  0
LINE
  5
1B9AB
  8
SU
 10
313.50000967510181
 20
173.794699737092
 30
0.0
 11
342.57667634176852
 21
173.794699737092
 31
0.0
  0
LINE
  5
1B9AE
  8
SU
 10
1038.3181417723711
 20
201.2947028233323
 30
0.0
 11
972.31814249764091
 21
201.2947028233323
 31
0.0
  0
LINE
  5
1B9AF
  8
SU
 10
1029.318142497636
 20
208.29470281530169
 30
0.0
 11
972.31814249764091
 21
208.29470281530169
 31
0.0
  0
LINE
  5
1B9B0
  8
SU
 10
975.31814249764113
 20
208.29470281530169
 30
0.0
 11
975.31814249764113
 21
201.2947028233323
 31
0.0
  0
LINE
  5
1B9B1
  8
SU
 10
975.31814249764113
 20
201.2947028233323
 30
0.0
 11
975.31814249764113
 21
185.22136948999889
 31
0.0
  0
LINE
  5
1B9B7
  8
SU
 10
779.31814249763556
 20
346.26733232986612
 30
0.0
 11
779.31814249763556
 21
366.2673323298643
 31
0.0
  0
LINE
  5
1B9B8
  8
SU
 10
779.31814249763556
 20
363.2673323298643
 30
0.0
 11
561.81814249760919
 21
363.2673323298643
 31
0.0
  0
LINE
  5
1B9BB
  8
SU
 10
561.81814249760919
 20
346.2673323298647
 30
0.0
 11
561.81814249760919
 21
366.2673323298643
 31
0.0
  0
LINE
  5
1B9BC
  8
SU
 10
561.81814249760919
 20
363.2673323298643
 30
0.0
 11
546.81814249760919
 21
363.2673323298643
 31
0.0
  0
LINE
  5
1B9BF
  8
SU
 10
799.31814249763568
 20
346.26733232986197
 30
0.0
 11
799.31814249763568
 21
366.2673323298643
 31
0.0
  0
LINE
  5
1B9C0
  8
SU
 10
799.31814249763568
 20
363.2673323298643
 30
0.0
 11
779.31814249763556
 21
363.2673323298643
 31
0.0
  0
LINE
  5
1B9C3
  8
SU
 10
1031.8181417723781
 20
346.2673323298647
 30
0.0
 11
1031.8181417723781
 21
366.2673323298643
 31
0.0
  0
LINE
  5
1B9C4
  8
SU
 10
1016.818141772378
 20
363.2673323298643
 30
0.0
 11
1031.8181417723781
 21
363.2673323298643
 31
0.0
  0
LINE
  5
1B9C7
  8
SU
 10
1016.818141772378
 20
346.2673323298643
 30
0.0
 11
1016.818141772378
 21
366.2673323298643
 31
0.0
  0
LINE
  5
1B9C8
  8
SU
 10
1016.818141772378
 20
363.2673323298643
 30
0.0
 11
799.31814249763556
 21
363.2673323298643
 31
0.0
  0
LINE
  5
1B9CD
  8
SU
 10
296.30003211649688
 20
210.79469790399389
 30
0.0
 11
361.14203913270831
 21
210.79469790399381
 31
0.0
  0
LINE
  5
1B9CE
  8
SU
 10
358.14203913270842
 20
210.79469790399381
 30
0.0
 11
358.14203913270842
 21
205.79470282333199
 31
0.0
  0
LINE
  5
1B9CF
  8
SU
 10
358.14203913270842
 20
205.79470282333199
 30
0.0
 11
358.14203913270842
 21
189.72136948999869
 31
0.0
  0
LINE
  5
1B9D3
  8
SU
 10
244.0000095199384
 20
204.79470282333199
 30
0.0
 11
244.0000095199384
 21
170.79470282333219
 31
0.0
  0
LINE
  5
1B9D4
  8
SU
 10
300.00000951993837
 20
204.79470282333199
 30
0.0
 11
300.00000951993837
 21
170.79470282333219
 31
0.0
  0
LINE
  5
1B9D5
  8
SU
 10
244.0000095199384
 20
173.79470282333219
 30
0.0
 11
300.00000951993837
 21
173.79470282333219
 31
0.0
  0
LINE
  5
1B9D9
  8
SU
 10
548.31814249763545
 20
243.29470281530169
 30
0.0
 11
548.31814249763545
 21
142.85348737547491
 31
0.0
  0
LINE
  5
1B9DA
  8
SU
 10
548.31814249763545
 20
145.85348737547491
 30
0.0
 11
539.31814249761726
 21
145.85348737547491
 31
0.0
  0
LINE
  5
1B9DE
  8
SU
 10
801.81814051335982
 20
207.29470281530169
 30
0.0
 11
801.81814051335982
 21
157.853487375475
 31
0.0
  0
LINE
  5
1B9DF
  8
SU
 10
801.81814051335982
 20
160.853487375475
 30
0.0
 11
776.81814448191142
 21
160.853487375475
 31
0.0
  0
LINE
  5
1B9E3
  8
SU
 10
776.81814277380022
 20
207.29470281530169
 30
0.0
 11
776.81815835302382
 21
142.8534299059736
 31
0.0
  0
LINE
  5
1B9E4
  8
SU
 10
1030.3181427393949
 20
205.7947028153018
 30
0.0
 11
1030.3181579559659
 21
142.85349119174589
 31
0.0
  0
LINE
  5
1B9E5
  8
SU
 10
776.81815762774841
 20
145.85342990597351
 30
0.0
 11
1030.3181572306901
 21
145.85349119174589
 31
0.0
  0
LINE
  5
1B9E9
  8
SU
 10
1030.318142497641
 20
146.0392074107028
 30
0.0
 11
1039.3181424976451
 21
146.0392074107028
 31
0.0
  0
LINE
  5
1B9EC
  8
SU
 10
802.81814123864388
 20
241.2947032075034
 30
0.0
 11
835.31810016380928
 21
241.2947032075034
 31
0.0
  0
LINE
  5
1B9ED
  8
SU
 10
832.31810016380939
 20
241.2947032075034
 30
0.0
 11
832.31810016380939
 21
208.2947041990102
 31
0.0
  0
LINE
  5
1B9F0
  8
SU
 10
305.24993555166583
 20
602.74765040474074
 30
0.0
 11
305.24993555166583
 21
667.74764995184978
 31
0.0
  0
LINE
  5
1B9F1
  8
SU
 10
238.74993555166591
 20
602.74764746647145
 30
0.0
 11
238.74993555166591
 21
667.74764995184978
 31
0.0
  0
LINE
  5
1B9F2
  8
SU
 10
305.24993555166583
 20
664.74764995184967
 30
0.0
 11
238.74993555166591
 21
664.74764995184967
 31
0.0
  0
LINE
  5
1B9F6
  8
SU
 10
307.50000945719421
 20
214.79470282323479
 30
0.0
 11
376.14203913270831
 21
214.79470282323479
 31
0.0
  0
LINE
  5
1B9F7
  8
SU
 10
373.14203913270831
 20
214.79470282323479
 30
0.0
 11
373.14203913270831
 21
205.79470282333199
 31
0.0
  0
LINE
  5
1B9FB
  8
SU
 10
339.14204454884572
 20
602.24764995184933
 30
0.0
 11
391.14203913270842
 21
602.24764995184933
 31
0.0
  0
LINE
  5
1B9FC
  8
SU
 10
339.14203913270831
 20
205.79470282333199
 30
0.0
 11
391.14203913270842
 21
205.79470282333199
 31
0.0
  0
LINE
  5
1B9FD
  8
SU
 10
388.14203913270842
 20
602.24764995184933
 30
0.0
 11
388.14203913270831
 21
205.79470282333199
 31
0.0
  0
LINE
  5
1B9FF
  8
SU
 10
307.50000067551258
 20
565.2476511383976
 30
0.0
 11
376.14203913270831
 21
565.2476511383976
 31
0.0
  0
LINE
  5
1BA00
  8
SU
 10
373.14203913270831
 20
214.794702823233
 30
0.0
 11
373.14203913270831
 21
565.2476511383976
 31
0.0
  0
LINE
  5
1BA04
  8
SU
 10
373.14203913270831
 20
602.24764995184933
 30
0.0
 11
373.14203913270831
 21
574.7476505947343
 31
0.0
  0
TEXT
  5
1BA07
  8
SU
 10
208.96993729695379
 20
487.54764912493221
 30
0.0
 40
7.0
  1
4.4
 41
0.8299999999999999
  0
TEXT
  5
1BA0A
  8
SU
 10
323.57000099546218
 20
502.54766358224072
 30
0.0
 40
7.0
  1
2.7
 41
0.8299999999999999
  0
TEXT
  5
1BA0D
  8
SU
 10
262.31660396362031
 20
502.54764995184928
 30
0.0
 40
7.0
  1
77.7
 41
0.8299999999999999
  0
TEXT
  5
1BA10
  8
SU
 10
356.84203913270829
 20
537.8443172967485
 30
0.0
 40
7.0
  1
3.5
 50
90.0
 41
0.8299999999999999
  0
TEXT
  5
1BA14
  8
SU
 10
371.84203913270829
 20
550.08098396000719
 30
0.0
 40
7.0
  1
9.5
 50
90.0
 41
0.8299999999999999
  0
TEXT
  5
1BA15
  8
SU
 10
269.96666722503687
 20
472.54764995184928
 30
0.0
 40
7.0
  1
76
 41
0.8299999999999999
  0
TEXT
  5
1BA18
  8
SU
 10
323.57000299064248
 20
487.54764995184928
 30
0.0
 40
7.0
  1
7
 41
0.8299999999999999
  0
TEXT
  5
1BA1B
  8
SU
 10
274.2333314594311
 20
487.54764995184928
 30
0.0
 40
7.0
  1
3
 41
0.8299999999999999
  0
TEXT
  5
1BA1C
  8
SU
 10
248.4666671343559
 20
487.54764995184928
 30
0.0
 40
7.0
  1
33
 41
0.8299999999999999
  0
TEXT
  5
1BA1F
  8
SU
 10
290.49195064062508
 20
487.54764995184928
 30
0.0
 40
7.0
  1
33
 41
0.8299999999999999
  0
TEXT
  5
1BA21
  8
SU
 10
323.29333333333329
 20
668.38099647016179
 30
0.0
 40
7.0
  1
(8.3)
 41
0.8299999999999999
  0
TEXT
  5
1BA24
  8
SU
 10
209.24660338922189
 20
666.04766068781385
 30
0.0
 40
7.0
  1
5.6
 41
0.8299999999999999
  0
TEXT
  5
1BA28
  8
SU
 10
843.45220821394275
 20
241.35249125064439
 30
0.0
 40
7.0
  1
3
 50
90.0
 41
0.8299999999999999
  0
TEXT
  5
1BA29
  8
SU
 10
830.99287360378844
 20
254.7860435654467
 30
0.0
 40
7.0
  1
33
 50
90.0
 41
0.8299999999999999
  0
TEXT
  5
1BA2B
  8
SU
 10
771.47314249763156
 20
132.1534873754747
 30
0.0
 40
7.0
  1
W=1665
 41
0.8299999999999999
  0
TEXT
  5
1BA2C
  8
SU
 10
168.4616666666669
 20
696.04764995184973
 30
0.0
 40
7.0
  1
D=600の場合
 41
0.8299999999999999
  0
TEXT
  5
1BA30
  8
SU
 10
963.91671458619464
 20
379.56733232986431
 30
0.0
 40
7.0
  1
7.5（クリアランス）
 41
0.8299999999999999
  0
TEXT
  5
1BA31
  8
SU
 10
965.05149149273007
 20
679.12837717091065
 30
0.0
 40
7.0
  1
W=1665
 41
0.8299999999999999
  0
TEXT
  5
1BA32
  8
SU
 10
1110.2
 20
710.19766666666681
 30
0.0
 40
7.0
  1
D=600以上
 50
90.0
 41
0.8299999999999999
  0
LINE
  5
1BA35
  8
SU
 10
222.93725040474499
 20
232.915377259888
 30
0.0
 11
199.5126044918261
 21
173.79470282333219
 31
0.0
1001
ACAD
1000
DSTYLE
1002
{
1070
    41
1040
1.1999999999999991
1070
    77
1070
     0
1002
}
  0
LINE
  5
1BA36
  8
SU
 10
199.5126044918261
 20
173.79470282333219
 30
0.0
 11
182.20356945638511
 21
173.79470282333219
 31
0.0
1001
ACAD
1000
DSTYLE
1002
{
1070
    41
1040
1.1999999999999991
1070
    77
1070
     0
1002
}
  0
LINE
  5
1BA37
  8
SU
 10
222.56537666940321
 20
233.06272014218291
 30
0.0
 11
223.82130769851389
 21
235.14661967193879
 31
0.0
  0
LINE
  5
1BA38
  8
SU
 10
223.30912414008679
 20
232.76803437759321
 30
0.0
 11
223.82130769851389
 21
235.14661967193879
 31
0.0
  0
LINE
  5
1BA39
  8
SU
 10
223.82130769851389
 20
235.14661967193879
 30
0.0
 11
222.93725040474499
 21
232.915377259888
 31
0.0
  0
LINE
  5
1BA3A
  8
SU
 10
309.97831686156633
 20
624.19930006391837
 30
0.0
 11
331.53923812026937
 21
633.8340857047292
 31
0.0
210
0.0
220
0.0
230
-1.0
1001
ACAD
1000
DSTYLE
1002
{
1070
    41
1040
1.1999999999999991
1070
    77
1070
     0
1002
}
  0
LINE
  5
1BA3B
  8
SU
 10
331.53923812026937
 20
633.8340857047292
 30
0.0
 11
357.50725510180109
 21
633.8340857047292
 31
0.0
210
0.0
220
0.0
230
-1.0
1001
ACAD
1000
DSTYLE
1002
{
1070
    41
1040
1.1999999999999991
1070
    77
1070
     0
1002
}
  0
LINE
  5
1BA3C
  8
SU
 10
309.81512414060921
 20
624.56449608775586
 30
0.0
 11
307.7871407185421
 21
623.22014373817592
 31
0.0
210
0.0
220
0.0
230
-1.0
  0
LINE
  5
1BA3D
  8
SU
 10
310.14150958252338
 20
623.83410404008112
 30
0.0
 11
307.7871407185421
 21
623.22014373817592
 31
0.0
210
0.0
220
0.0
230
-1.0
  0
LINE
  5
1BA3E
  8
SU
 10
307.7871407185421
 20
623.22014373817592
 30
0.0
 11
309.97831686156633
 21
624.19930006391837
 31
0.0
210
0.0
220
0.0
230
-1.0
  0
TEXT
  5
1BA3F
  8
SU
 10
727.6848084390183
 20
210.13840985267129
 30
0.0
 40
7.0
  1
(テーブル出寸法=344)
 50
90.0
 41
0.8299999999999999
  0
TEXT
  5
1BA42
  8
SU
 10
764.36980843901847
 20
334.56733232986869
 30
0.0
 40
7.0
  1
18
 41
0.8299999999999999
  0
TEXT
  5
1BA45
  8
SU
 10
252.285
 20
681.04764995184973
 30
0.0
 40
7.0
  1
105
 41
0.8299999999999999
  0
TEXT
  5
1BA4A
  8
SU
 10
549.31557040907649
 20
379.56733232986431
 30
0.0
 40
7.0
  1
7.5（クリアランス）
 41
0.8299999999999999
  0
TEXT
  5
1BA4D
  8
SU
 10
828.70097312528083
 20
182.48997417701781
 30
0.0
 40
7.0
  1
(201)
 50
90.0
 41
0.8299999999999999
  0
TEXT
  5
1BA4E
  8
SU
 10
1099.2
 20
319.71529652682648
 30
0.0
 40
7.0
  1
最大有効開口=524
 50
90.0
 41
0.8299999999999999
  0
TEXT
  5
1BA50
  8
SU
 10
186.2382434247325
 20
160.09470282333231
 30
0.0
 40
7.0
  1
D=600の場合
 41
0.8299999999999999
  0
TEXT
  5
1BA53
  8
SU
 10
1081.8666666666661
 20
288.37435066798582
 30
0.0
 40
7.0
  1
(74)
 50
90.0
 41
0.8299999999999999
  0
TEXT
  5
1BA55
  8
SU
 10
1099.2
 20
221.92003591471911
 30
0.0
 40
7.0
  1
76（建具）
 50
90.0
 41
0.8299999999999999
  0
TEXT
  5
1BA58
  8
SU
 10
1114.2
 20
289.68803996036593
 30
0.0
 40
7.0
  1
D=600の場合
 50
90.0
 41
0.8299999999999999
  0
TEXT
  5
1BA5B
  8
SU
 10
1084.2
 20
351.74064731756039
 30
0.0
 40
7.0
  1
収納棚=450
 50
90.0
 41
0.8299999999999999
  0
TEXT
  5
1BA5D
  8
SU
 10
322.74000967510182
 20
175.0946997370921
 30
0.0
 40
7.0
  1
13.5
 41
0.8299999999999999
  0
TEXT
  5
1BA5F
  8
SU
 10
974.01814249764107
 20
185.69136948999909
 30
0.0
 40
7.0
  1
7
 50
90.0
 41
0.8299999999999999
  0
LINE
  5
1BA62
  8
SU
 10
1040.590027934993
 20
221.25944192319409
 30
0.0
 11
1064.3325973013241
 21
183.26670849558209
 31
0.0
210
0.0
220
0.0
230
-1.0
1001
ACAD
1000
DSTYLE
1002
{
1070
   176
1070
   256
1070
    41
1040
1.1999999999999991
1070
    77
1070
     0
1070
   371
1070
    -1
1002
}
  0
LINE
  5
1BA63
  8
SU
 10
1064.3325973013241
 20
183.26670849558209
 30
0.0
 11
1151.0013292922381
 21
183.26670849558209
 31
0.0
210
0.0
220
0.0
230
-1.0
1001
ACAD
1000
DSTYLE
1002
{
1070
   176
1070
   256
1070
    41
1040
1.1999999999999991
1070
    77
1070
     0
1070
   371
1070
    -1
1002
}
  0
LINE
  5
1BA64
  8
SU
 10
1040.9292388489509
 20
221.47142295029769
 30
0.0
 11
1039.318141772372
 21
223.29470740694089
 31
0.0
210
0.0
220
0.0
230
-1.0
  0
LINE
  5
1BA65
  8
SU
 10
1040.250817021036
 20
221.0474608960904
 30
0.0
 11
1039.318141772372
 21
223.29470740694089
 31
0.0
210
0.0
220
0.0
230
-1.0
  0
LINE
  5
1BA66
  8
SU
 10
1039.318141772372
 20
223.29470740694089
 30
0.0
 11
1040.590027934993
 21
221.25944192319409
 31
0.0
210
0.0
220
0.0
230
-1.0
  0
TEXT
  5
1BA67
  8
SU
 10
662.87971026560092
 20
364.56733232986431
 30
0.0
 40
7.0
  1
800
 41
0.8299999999999999
  0
TEXT
  5
1BA69
  8
SU
 10
548.71299571926136
 20
364.56733232986431
 30
0.0
 40
7.0
  1
15
 41
0.8299999999999999
  0
TEXT
  5
1BA6B
  8
SU
 10
783.78480916430215
 20
364.56733232986431
 30
0.0
 40
7.0
  1
20
 41
0.8299999999999999
  0
TEXT
  5
1BA6D
  8
SU
 10
1018.369808439045
 20
364.56733232986431
 30
0.0
 40
7.0
  1
15
 41
0.8299999999999999
  0
TEXT
  5
1BA6F
  8
SU
 10
899.74876970695459
 20
364.56733232986431
 30
0.0
 40
7.0
  1
800
 41
0.8299999999999999
  0
LINE
  5
1BA71
  8
SU
 10
1044.9299797934341
 20
191.76201688905951
 30
0.0
 11
1064.332597301325
 21
160.85348737547491
 31
0.0
210
0.0
220
0.0
230
-1.0
1001
ACAD
1000
DSTYLE
1002
{
1070
    41
1040
1.1999999999999991
1070
    77
1070
     0
1002
}
  0
LINE
  5
1BA72
  8
SU
 10
1064.332597301325
 20
160.85348737547491
 30
0.0
 11
1081.3223931541049
 21
160.85348737547491
 31
0.0
210
0.0
220
0.0
230
-1.0
1001
ACAD
1000
DSTYLE
1002
{
1070
    41
1040
1.1999999999999991
1070
    77
1070
     0
1002
}
  0
LINE
  5
1BA73
  8
SU
 10
1045.2687607824789
 20
191.9746843324105
 30
0.0
 11
1043.653975133328
 21
193.79470282333179
 31
0.0
210
0.0
220
0.0
230
-1.0
  0
LINE
  5
1BA74
  8
SU
 10
1044.591198804389
 20
191.5493494457086
 30
0.0
 11
1043.653975133328
 21
193.79470282333179
 31
0.0
210
0.0
220
0.0
230
-1.0
  0
LINE
  5
1BA75
  8
SU
 10
1043.653975133328
 20
193.79470282333179
 30
0.0
 11
1044.9299797934341
 21
191.76201688905951
 31
0.0
210
0.0
220
0.0
230
-1.0
  0
TEXT
  5
1BA76
  8
SU
 10
356.84203913270829
 20
190.19136948999869
 30
0.0
 40
7.0
  1
5
 50
90.0
 41
0.8299999999999999
  0
TEXT
  5
1BA79
  8
SU
 10
266.46667618660513
 20
175.09470282333231
 30
0.0
 40
7.0
  1
56
 41
0.8299999999999999
  0
TEXT
  5
1BA7C
  8
SU
 10
541.18980916429314
 20
147.1534873754749
 30
0.0
 40
7.0
  1
9
 41
0.8299999999999999
  0
TEXT
  5
1BA7F
  8
SU
 10
783.78480916430215
 20
162.15348737547501
 30
0.0
 40
7.0
  1
25
 41
0.8299999999999999
  0
TEXT
  5
1BA82
  8
SU
 10
888.0011090705234
 20
147.1534567853939
 30
0.0
 40
7.0
  1
DW=836
 50
0.000013851740051
 41
0.8299999999999999
  0
TEXT
  5
1BA85
  8
SU
 10
1032.1692725270029
 20
147.33920741070281
 30
0.0
 40
7.0
  1
9
 41
0.8299999999999999
  0
TEXT
  5
1BA87
  8
SU
 10
831.01810016380944
 20
219.8289949668316
 30
0.0
 40
7.0
  1
33
 50
90.0
 41
0.8299999999999999
  0
TEXT
  5
1BA89
  8
SU
 10
262.17826888499923
 20
666.04764995184973
 30
0.0
 40
7.0
  1
66.5
 41
0.8299999999999999
  0
TEXT
  5
1BA8E
  8
SU
 10
371.84203913270829
 20
207.66636948995011
 30
0.0
 40
7.0
  1
9
 50
90.0
 41
0.8299999999999999
  0
TEXT
  5
1BA8F
  8
SU
 10
386.66735956457723
 20
371.68798584539451
 30
0.0
 40
7.0
  1
H=2200～2500
 50
90.0
 41
0.8299999999999999
  0
TEXT
  5
1BA91
  8
SU
 10
371.96050311576448
 20
368.21345292693189
 30
0.0
 40
7.0
  1
DH=H-46
 50
90.0
 41
0.8299999999999999
  0
TEXT
  5
1BA93
  8
SU
 10
371.87309400362233
 20
578.8143169399583
 30
0.0
 40
7.0
  1
27.5
 50
90.0
 41
0.8299999999999999
  0
ARC
  5
1BA94
  8
SU
 10
233.14993729695379
 20
486.24764912493231
 30
0.0
 40
0.5999999999999944
 50
0.0
 51
180.0
  0
ARC
  5
1BA95
  8
SU
 10
233.14993729695379
 20
486.24764912493231
 30
0.0
 40
0.5999999999999944
 50
180.0
 51
0.0
  0
ARC
  5
1BA96
  8
SU
 10
237.5000023103531
 20
486.24764912493231
 30
0.0
 40
0.5999999999999944
 50
180.0
 51
0.0
  0
ARC
  5
1BA97
  8
SU
 10
237.5000023103531
 20
486.24764912493231
 30
0.0
 40
0.5999999999999944
 50
0.0
 51
180.0
  0
ARC
  5
1BA98
  8
SU
 10
313.50000099546207
 20
501.2476635822407
 30
0.0
 40
0.6000000000000229
 50
180.0
 51
0.0
  0
ARC
  5
1BA99
  8
SU
 10
313.50000099546207
 20
501.2476635822407
 30
0.0
 40
0.6000000000000229
 50
0.0
 51
180.0
  0
ARC
  5
1BA9A
  8
SU
 10
310.84993729695373
 20
501.2476635822407
 30
0.0
 40
0.6000000000000229
 50
0.0
 51
180.0
  0
ARC
  5
1BA9B
  8
SU
 10
310.84993729695373
 20
501.2476635822407
 30
0.0
 40
0.6000000000000229
 50
180.0
 51
0.0
  0
ARC
  5
1BA9E
  8
SU
 10
233.14993729695379
 20
501.24764995184933
 30
0.0
 40
0.5999999999999944
 50
0.0
 51
180.0
  0
ARC
  5
1BA9F
  8
SU
 10
233.14993729695379
 20
501.24764995184933
 30
0.0
 40
0.5999999999999944
 50
180.0
 51
0.0
  0
ARC
  5
1BAA0
  8
SU
 10
358.14203913270842
 20
561.74765063008181
 30
0.0
 40
0.6000000000000229
 50
90.0
 51
270.0
  0
ARC
  5
1BAA1
  8
SU
 10
358.14203913270842
 20
561.74765063008181
 30
0.0
 40
0.6000000000000229
 50
270.0
 51
90.0
  0
ARC
  5
1BAA2
  8
SU
 10
358.14203913270842
 20
565.2476511383976
 30
0.0
 40
0.6000000000000229
 50
270.0
 51
90.0
  0
ARC
  5
1BAA3
  8
SU
 10
358.14203913270842
 20
565.2476511383976
 30
0.0
 40
0.6000000000000229
 50
90.0
 51
270.0
  0
ARC
  5
1BAA4
  8
SU
 10
373.14203913270831
 20
574.74765059473407
 30
0.0
 40
0.6000000000000229
 50
270.0
 51
90.0
  0
ARC
  5
1BAA5
  8
SU
 10
373.14203913270831
 20
574.74765059473407
 30
0.0
 40
0.6000000000000229
 50
90.0
 51
270.0
  0
ARC
  5
1BAA6
  8
SU
 10
313.5000029906426
 20
471.24764995184933
 30
0.0
 40
0.6000000000000229
 50
180.0
 51
0.0
  0
ARC
  5
1BAA7
  8
SU
 10
313.5000029906426
 20
471.24764995184933
 30
0.0
 40
0.6000000000000229
 50
0.0
 51
180.0
  0
ARC
  5
1BAA8
  8
SU
 10
237.49999812609781
 20
471.24764995184933
 30
0.0
 40
0.5999999999999944
 50
0.0
 51
180.0
  0
ARC
  5
1BAA9
  8
SU
 10
237.49999812609781
 20
471.24764995184933
 30
0.0
 40
0.5999999999999944
 50
180.0
 51
0.0
  0
ARC
  5
1BAAA
  8
SU
 10
313.5000029906426
 20
486.24764995184933
 30
0.0
 40
0.6000000000000229
 50
180.0
 51
0.0
  0
ARC
  5
1BAAB
  8
SU
 10
313.5000029906426
 20
486.24764995184933
 30
0.0
 40
0.6000000000000229
 50
0.0
 51
180.0
  0
ARC
  5
1BAAC
  8
SU
 10
273.50000280928077
 20
486.24764995184933
 30
0.0
 40
0.6000000000000229
 50
180.0
 51
0.0
  0
ARC
  5
1BAAD
  8
SU
 10
273.50000280928077
 20
486.24764995184933
 30
0.0
 40
0.6000000000000229
 50
0.0
 51
180.0
  0
ARC
  5
1BAAE
  8
SU
 10
270.50000280928077
 20
486.24764995184933
 30
0.0
 40
0.6000000000000229
 50
180.0
 51
0.0
  0
ARC
  5
1BAAF
  8
SU
 10
270.50000280928077
 20
486.24764995184933
 30
0.0
 40
0.6000000000000229
 50
0.0
 51
180.0
  0
ARC
  5
1BAB2
  8
SU
 10
306.5000029249905
 20
486.24764995184933
 30
0.0
 40
0.6000000000000229
 50
180.0
 51
0.0
  0
ARC
  5
1BAB3
  8
SU
 10
306.5000029249905
 20
486.24764995184933
 30
0.0
 40
0.6000000000000229
 50
0.0
 51
180.0
  0
ARC
  5
1BAB4
  8
SU
 10
313.5
 20
664.74766313682835
 30
0.0
 40
0.6000000000000229
 50
180.0
 51
0.0
  0
ARC
  5
1BAB5
  8
SU
 10
313.5
 20
664.74766313682835
 30
0.0
 40
0.6000000000000229
 50
0.0
 51
180.0
  0
ARC
  5
1BAB7
  8
SU
 10
305.24993555166583
 20
664.74766313682835
 30
0.0
 40
0.6000000000000229
 50
180.0
 51
0.0
  0
ARC
  5
1BAB8
  8
SU
 10
233.14993672255531
 20
664.74766068781389
 30
0.0
 40
0.5999999999999944
 50
0.0
 51
180.0
  0
ARC
  5
1BAB9
  8
SU
 10
233.14993672255531
 20
664.74766068781389
 30
0.0
 40
0.5999999999999944
 50
180.0
 51
0.0
  0
ARC
  5
1BABB
  8
SU
 10
238.74993555166591
 20
664.74766068781389
 30
0.0
 40
0.5999999999999944
 50
0.0
 51
180.0
  0
ARC
  5
1BABC
  8
SU
 10
832.29287360378839
 20
244.2947041990102
 30
0.0
 40
0.5999999999999944
 50
270.0
 51
90.0
  0
ARC
  5
1BABD
  8
SU
 10
832.29287360378839
 20
244.2947041990102
 30
0.0
 40
0.5999999999999944
 50
90.0
 51
270.0
  0
ARC
  5
1BABE
  8
SU
 10
832.29287360378839
 20
277.2947041990102
 30
0.0
 40
0.6000000000000229
 50
270.0
 51
90.0
  0
ARC
  5
1BABF
  8
SU
 10
832.29287360378839
 20
277.2947041990102
 30
0.0
 40
0.6000000000000229
 50
90.0
 51
270.0
  0
ARC
  5
1BAC0
  8
SU
 10
313.50000000000051
 20
694.74764995184967
 30
0.0
 40
0.6000000000000229
 50
180.0
 51
0.0
  0
ARC
  5
1BAC1
  8
SU
 10
313.50000000000051
 20
694.74764995184967
 30
0.0
 40
0.6000000000000229
 50
0.0
 51
180.0
  0
ARC
  5
1BAC2
  8
SU
 10
73.499999999999986
 20
694.74764995184967
 30
0.0
 40
0.5999999999999944
 50
0.0
 51
180.0
  0
ARC
  5
1BAC3
  8
SU
 10
73.499999999999986
 20
694.74764995184967
 30
0.0
 40
0.5999999999999944
 50
180.0
 51
0.0
  0
ARC
  5
1BAC4
  8
SU
 10
1039.318142497661
 20
363.2673323298643
 30
0.0
 40
0.5999999999999091
 50
180.0
 51
0.0
  0
ARC
  5
1BAC5
  8
SU
 10
1039.318142497661
 20
363.2673323298643
 30
0.0
 40
0.5999999999999091
 50
0.0
 51
180.0
  0
ARC
  5
1BAC6
  8
SU
 10
1111.5
 20
761.74999999999966
 30
0.0
 40
0.6000000000000229
 50
270.0
 51
90.0
  0
ARC
  5
1BAC7
  8
SU
 10
1111.5
 20
761.74999999999966
 30
0.0
 40
0.6000000000000229
 50
90.0
 51
270.0
  0
ARC
  5
1BAC8
  8
SU
 10
1111.5
 20
701.75
 30
0.0
 40
0.6000000000000229
 50
90.0
 51
270.0
  0
ARC
  5
1BAC9
  8
SU
 10
1111.5
 20
701.75
 30
0.0
 40
0.6000000000000229
 50
270.0
 51
90.0
  0
ARC
  5
1BACA
  8
SU
 10
731.31814177235174
 20
182.35348737547361
 30
0.0
 40
0.5999999999999944
 50
90.0
 51
270.0
  0
ARC
  5
1BACB
  8
SU
 10
731.31814177235174
 20
182.35348737547361
 30
0.0
 40
0.5999999999999944
 50
270.0
 51
90.0
  0
ARC
  5
1BACC
  8
SU
 10
731.31814177235185
 20
318.26733232986902
 30
0.0
 40
0.6000000000000229
 50
270.0
 51
90.0
  0
ARC
  5
1BACD
  8
SU
 10
731.31814177235185
 20
318.26733232986902
 30
0.0
 40
0.6000000000000229
 50
90.0
 51
270.0
  0
ARC
  5
1BACE
  8
SU
 10
761.31814177235174
 20
333.26733232986862
 30
0.0
 40
0.6000000000000229
 50
0.0
 51
180.0
  0
ARC
  5
1BACF
  8
SU
 10
761.31814177235174
 20
333.26733232986862
 30
0.0
 40
0.6000000000000229
 50
180.0
 51
0.0
  0
ARC
  5
1BAD0
  8
SU
 10
779.31814177235162
 20
333.26733232986862
 30
0.0
 40
0.6000000000000229
 50
180.0
 51
0.0
  0
ARC
  5
1BAD1
  8
SU
 10
779.31814177235162
 20
333.26733232986862
 30
0.0
 40
0.6000000000000229
 50
0.0
 51
180.0
  0
ARC
  5
1BAD2
  8
SU
 10
313.5
 20
679.74764995184978
 30
0.0
 40
0.6000000000000229
 50
180.0
 51
0.0
  0
ARC
  5
1BAD3
  8
SU
 10
313.5
 20
679.74764995184978
 30
0.0
 40
0.6000000000000229
 50
0.0
 51
180.0
  0
ARC
  5
1BAD4
  8
SU
 10
208.5
 20
679.74764995184978
 30
0.0
 40
0.5999999999999944
 50
0.0
 51
180.0
  0
ARC
  5
1BAD5
  8
SU
 10
208.5
 20
679.74764995184978
 30
0.0
 40
0.5999999999999944
 50
180.0
 51
0.0
  0
ARC
  5
1BAD6
  8
SU
 10
539.31814249760998
 20
363.2673323298643
 30
0.0
 40
0.6000000000000229
 50
0.0
 51
180.0
  0
ARC
  5
1BAD7
  8
SU
 10
539.31814249760998
 20
363.2673323298643
 30
0.0
 40
0.6000000000000229
 50
180.0
 51
0.0
  0
ARC
  5
1BAD8
  8
SU
 10
546.81814249760919
 20
363.2673323298643
 30
0.0
 40
0.6000000000000229
 50
180.0
 51
0.0
  0
ARC
  5
1BAD9
  8
SU
 10
546.81814249760919
 20
363.2673323298643
 30
0.0
 40
0.6000000000000229
 50
0.0
 51
180.0
  0
ARC
  5
1BADA
  8
SU
 10
832.31814123864365
 20
182.35348871940241
 30
0.0
 40
0.5999999999999944
 50
90.0
 51
270.0
  0
ARC
  5
1BADB
  8
SU
 10
832.31814123864365
 20
182.35348871940241
 30
0.0
 40
0.5999999999999944
 50
270.0
 51
90.0
  0
ARC
  5
1BADC
  8
SU
 10
832.31814123864365
 20
208.2947041990102
 30
0.0
 40
0.5999999999999944
 50
270.0
 51
90.0
  0
ARC
  5
1BADD
  8
SU
 10
832.31814123864365
 20
208.2947041990102
 30
0.0
 40
0.5999999999999944
 50
90.0
 51
270.0
  0
ARC
  5
1BADE
  8
SU
 10
1100.5
 20
428.70789071421513
 30
0.0
 40
0.6000000000000229
 50
270.0
 51
90.0
  0
ARC
  5
1BADF
  8
SU
 10
1100.5
 20
428.70789071421513
 30
0.0
 40
0.6000000000000229
 50
90.0
 51
270.0
  0
ARC
  5
1BAE0
  8
SU
 10
313.50000967510181
 20
158.7947028233323
 30
0.0
 40
0.6000000000000229
 50
180.0
 51
0.0
  0
ARC
  5
1BAE1
  8
SU
 10
313.50000967510181
 20
158.7947028233323
 30
0.0
 40
0.6000000000000229
 50
0.0
 51
180.0
  0
ARC
  5
1BAE2
  8
SU
 10
73.5
 20
158.7947028233323
 30
0.0
 40
0.5999999999999944
 50
0.0
 51
180.0
  0
ARC
  5
1BAE3
  8
SU
 10
73.5
 20
158.7947028233323
 30
0.0
 40
0.5999999999999944
 50
180.0
 51
0.0
  0
ARC
  5
1BAE4
  8
SU
 10
1085.5
 20
318.26733232986481
 30
0.0
 40
0.6000000000000229
 50
270.0
 51
90.0
  0
ARC
  5
1BAE5
  8
SU
 10
1085.5
 20
318.26733232986481
 30
0.0
 40
0.6000000000000229
 50
90.0
 51
270.0
  0
ARC
  5
1BAE6
  8
SU
 10
1100.5
 20
277.29470233944022
 30
0.0
 40
0.6000000000000229
 50
270.0
 51
90.0
  0
ARC
  5
1BAE7
  8
SU
 10
1100.5
 20
277.29470233944022
 30
0.0
 40
0.6000000000000229
 50
90.0
 51
270.0
  0
ARC
  5
1BAE8
  8
SU
 10
1100.5
 20
201.29470282333131
 30
0.0
 40
0.5999999999999944
 50
90.0
 51
270.0
  0
ARC
  5
1BAE9
  8
SU
 10
1100.5
 20
201.29470282333131
 30
0.0
 40
0.5999999999999944
 50
270.0
 51
90.0
  0
ARC
  5
1BAEA
  8
SU
 10
1115.5
 20
201.29470282333131
 30
0.0
 40
0.5999999999999944
 50
90.0
 51
270.0
  0
ARC
  5
1BAEB
  8
SU
 10
1115.5
 20
201.29470282333131
 30
0.0
 40
0.5999999999999944
 50
270.0
 51
90.0
  0
ARC
  5
1BAEC
  8
SU
 10
1115.5
 20
428.70789071421513
 30
0.0
 40
0.6000000000000229
 50
270.0
 51
90.0
  0
ARC
  5
1BAED
  8
SU
 10
1115.5
 20
428.70789071421513
 30
0.0
 40
0.6000000000000229
 50
90.0
 51
270.0
  0
ARC
  5
1BAEE
  8
SU
 10
1085.5
 20
428.70789071421513
 30
0.0
 40
0.6000000000000229
 50
270.0
 51
90.0
  0
ARC
  5
1BAEF
  8
SU
 10
1085.5
 20
428.70789071421513
 30
0.0
 40
0.6000000000000229
 50
90.0
 51
270.0
  0
ARC
  5
1BAF0
  8
SU
 10
313.50000967510181
 20
173.794699737092
 30
0.0
 40
0.6000000000000229
 50
180.0
 51
0.0
  0
ARC
  5
1BAF1
  8
SU
 10
313.50000967510181
 20
173.794699737092
 30
0.0
 40
0.6000000000000229
 50
0.0
 51
180.0
  0
ARC
  5
1BAF2
  8
SU
 10
975.31814249764113
 20
201.2947028233323
 30
0.0
 40
0.5999999999999944
 50
90.0
 51
270.0
  0
ARC
  5
1BAF3
  8
SU
 10
975.31814249764113
 20
201.2947028233323
 30
0.0
 40
0.5999999999999944
 50
270.0
 51
90.0
  0
ARC
  5
1BAF4
  8
SU
 10
975.31814249764113
 20
208.29470281530169
 30
0.0
 40
0.5999999999999944
 50
270.0
 51
90.0
  0
ARC
  5
1BAF5
  8
SU
 10
975.31814249764113
 20
208.29470281530169
 30
0.0
 40
0.5999999999999944
 50
90.0
 51
270.0
  0
ARC
  5
1BAF6
  8
SU
 10
779.31814249763556
 20
363.2673323298643
 30
0.0
 40
0.6000000000000229
 50
180.0
 51
0.0
  0
ARC
  5
1BAF7
  8
SU
 10
779.31814249763556
 20
363.2673323298643
 30
0.0
 40
0.6000000000000229
 50
0.0
 51
180.0
  0
ARC
  5
1BAF8
  8
SU
 10
561.81814249760919
 20
363.2673323298643
 30
0.0
 40
0.6000000000000229
 50
180.0
 51
0.0
  0
ARC
  5
1BAF9
  8
SU
 10
561.81814249760919
 20
363.2673323298643
 30
0.0
 40
0.6000000000000229
 50
0.0
 51
180.0
  0
ARC
  5
1BAFA
  8
SU
 10
799.31814249763568
 20
363.2673323298643
 30
0.0
 40
0.6000000000000229
 50
180.0
 51
0.0
  0
ARC
  5
1BAFB
  8
SU
 10
799.31814249763568
 20
363.2673323298643
 30
0.0
 40
0.6000000000000229
 50
0.0
 51
180.0
  0
ARC
  5
1BAFC
  8
SU
 10
1031.8181417723781
 20
363.2673323298643
 30
0.0
 40
0.5999999999999091
 50
180.0
 51
0.0
  0
ARC
  5
1BAFD
  8
SU
 10
1031.8181417723781
 20
363.2673323298643
 30
0.0
 40
0.5999999999999091
 50
0.0
 51
180.0
  0
ARC
  5
1BAFE
  8
SU
 10
1016.818141772378
 20
363.2673323298643
 30
0.0
 40
0.6000000000000229
 50
180.0
 51
0.0
  0
ARC
  5
1BAFF
  8
SU
 10
1016.818141772378
 20
363.2673323298643
 30
0.0
 40
0.6000000000000229
 50
0.0
 51
180.0
  0
ARC
  5
1BB00
  8
SU
 10
358.14203913270842
 20
205.79470282333199
 30
0.0
 40
0.5999999999999944
 50
90.0
 51
270.0
  0
ARC
  5
1BB01
  8
SU
 10
358.14203913270842
 20
205.79470282333199
 30
0.0
 40
0.5999999999999944
 50
270.0
 51
90.0
  0
ARC
  5
1BB02
  8
SU
 10
358.14203913270842
 20
210.79469790399381
 30
0.0
 40
0.5999999999999944
 50
270.0
 51
90.0
  0
ARC
  5
1BB03
  8
SU
 10
358.14203913270842
 20
210.79469790399381
 30
0.0
 40
0.5999999999999944
 50
90.0
 51
270.0
  0
ARC
  5
1BB04
  8
SU
 10
300.00000951993837
 20
173.79470282333219
 30
0.0
 40
0.6000000000000229
 50
180.0
 51
0.0
  0
ARC
  5
1BB05
  8
SU
 10
300.00000951993837
 20
173.79470282333219
 30
0.0
 40
0.6000000000000229
 50
0.0
 51
180.0
  0
ARC
  5
1BB06
  8
SU
 10
244.0000095199384
 20
173.79470282333219
 30
0.0
 40
0.5999999999999944
 50
0.0
 51
180.0
  0
ARC
  5
1BB07
  8
SU
 10
244.0000095199384
 20
173.79470282333219
 30
0.0
 40
0.5999999999999944
 50
180.0
 51
0.0
  0
ARC
  5
1BB08
  8
SU
 10
539.31814249761726
 20
145.85348737547491
 30
0.0
 40
0.6000000000000229
 50
0.0
 51
180.0
  0
ARC
  5
1BB09
  8
SU
 10
539.31814249761726
 20
145.85348737547491
 30
0.0
 40
0.6000000000000229
 50
180.0
 51
0.0
  0
ARC
  5
1BB0A
  8
SU
 10
548.31814249763545
 20
145.85348737547491
 30
0.0
 40
0.6000000000000229
 50
180.0
 51
0.0
  0
ARC
  5
1BB0B
  8
SU
 10
548.31814249763545
 20
145.85348737547491
 30
0.0
 40
0.6000000000000229
 50
0.0
 51
180.0
  0
ARC
  5
1BB0C
  8
SU
 10
776.81814448191142
 20
160.853487375475
 30
0.0
 40
0.6000000000000229
 50
0.0
 51
180.0
  0
ARC
  5
1BB0D
  8
SU
 10
776.81814448191142
 20
160.853487375475
 30
0.0
 40
0.6000000000000229
 50
180.0
 51
0.0
  0
ARC
  5
1BB0E
  8
SU
 10
801.81814051335982
 20
160.853487375475
 30
0.0
 40
0.6000000000000229
 50
180.0
 51
0.0
  0
ARC
  5
1BB0F
  8
SU
 10
801.81814051335982
 20
160.853487375475
 30
0.0
 40
0.6000000000000229
 50
0.0
 51
180.0
  0
ARC
  5
1BB10
  8
SU
 10
1030.3181572306901
 20
145.85349119174589
 30
0.0
 40
0.5999999999999267
 50
180.00001385173999
 51
0.000013851740051
  0
ARC
  5
1BB11
  8
SU
 10
1030.3181572306901
 20
145.85349119174589
 30
0.0
 40
0.5999999999999267
 50
0.000013851740051
 51
180.00001385173999
  0
ARC
  5
1BB12
  8
SU
 10
776.81815762774841
 20
145.85342990597351
 30
0.0
 40
0.6000000000000404
 50
0.000013851740051
 51
180.00001385173999
  0
ARC
  5
1BB13
  8
SU
 10
776.81815762774841
 20
145.85342990597351
 30
0.0
 40
0.6000000000000404
 50
180.00001385173999
 51
0.000013851740051
  0
ARC
  5
1BB14
  8
SU
 10
1039.3181424976451
 20
146.0392074107028
 30
0.0
 40
0.5999999999999091
 50
180.0
 51
0.0
  0
ARC
  5
1BB15
  8
SU
 10
1039.3181424976451
 20
146.0392074107028
 30
0.0
 40
0.5999999999999091
 50
0.0
 51
180.0
  0
ARC
  5
1BB16
  8
SU
 10
832.31810016380939
 20
241.2947032075034
 30
0.0
 40
0.5999999999999944
 50
270.0
 51
90.0
  0
ARC
  5
1BB17
  8
SU
 10
832.31810016380939
 20
241.2947032075034
 30
0.0
 40
0.5999999999999944
 50
90.0
 51
270.0
  0
ARC
  5
1BB19
  8
SU
 10
238.74993555166591
 20
664.74764995184967
 30
0.0
 40
0.5999999999999944
 50
180.0
 51
0.0
  0
ARC
  5
1BB1B
  8
SU
 10
305.24993555166583
 20
664.74764995184967
 30
0.0
 40
0.6000000000000229
 50
0.0
 51
180.0
  0
ARC
  5
1BB1C
  8
SU
 10
373.14203913270831
 20
205.79470282333199
 30
0.0
 40
0.5999999999999944
 50
90.0
 51
270.0
  0
ARC
  5
1BB1D
  8
SU
 10
373.14203913270831
 20
205.79470282333199
 30
0.0
 40
0.5999999999999944
 50
270.0
 51
90.0
  0
ARC
  5
1BB1E
  8
SU
 10
373.14203913270831
 20
214.79470282323479
 30
0.0
 40
0.5999999999999944
 50
270.0
 51
90.0
  0
ARC
  5
1BB1F
  8
SU
 10
373.14203913270831
 20
214.79470282323479
 30
0.0
 40
0.5999999999999944
 50
90.0
 51
270.0
  0
ARC
  5
1BB20
  8
SU
 10
373.14203913270831
 20
565.2476511383976
 30
0.0
 40
0.6000000000000229
 50
270.0
 51
90.0
  0
ARC
  5
1BB21
  8
SU
 10
373.14203913270831
 20
565.2476511383976
 30
0.0
 40
0.6000000000000229
 50
90.0
 51
270.0
  0
ARC
  5
1BB22
  8
SU
 10
373.14203913270831
 20
602.24764995184933
 30
0.0
 40
0.6000000000000229
 50
270.0
 51
90.0
  0
ARC
  5
1BB23
  8
SU
 10
373.14203913270831
 20
602.24764995184933
 30
0.0
 40
0.6000000000000229
 50
90.0
 51
270.0
  0
ENDSEC
  0
EOF
