  0
SECTION
  2
HEADER
  9
$ACADVER
  1
AC1009
  9
$INSBASE
 10
0.0
 20
0.0
 30
0.0
  9
$EXTMIN
 10
-407.61627726715659
 20
-272.09397755015402
 30
-0.0000000000112498
  9
$EXTMAX
 10
432.21955741355032
 20
262.93867622355299
 30
0.0000000000002956
  9
$LIMMIN
 10
-410.0
 20
-286.0
  9
$LIMMAX
 10
519.87804136686066
 20
279.0
  9
$ORTHOMODE
 70
     1
  9
$REGENMODE
 70
     1
  9
$FILLMODE
 70
     1
  9
$QTEXTMODE
 70
     0
  9
$MIRRTEXT
 70
     0
  9
$DRAGMODE
 70
     2
  9
$LTSCALE
 40
1.0
  9
$OSMODE
 70
     0
  9
$ATTMODE
 70
     1
  9
$TEXTSIZE
 40
2.5
  9
$TRACEWID
 40
1.0
  9
$TEXTSTYLE
  7
STANDARD
  9
$CLAYER
  8
0
  9
$CELTYPE
  6
BYLAYER
  9
$CECOLOR
 62
   256
  9
$DIMSCALE
 40
1.0
  9
$DIMASZ
 40
1.5
  9
$DIMEXO
 40
3.0
  9
$DIMDLI
 40
7.0
  9
$DIMRND
 40
0.0
  9
$DIMDLE
 40
0.0
  9
$DIMEXE
 40
1.0
  9
$DIMTP
 40
0.1
  9
$DIMTM
 40
0.1
  9
$DIMTXT
 40
10.0
  9
$DIMCEN
 40
0.0
  9
$DIMTSZ
 40
0.0
  9
$DIMTOL
 70
     0
  9
$DIMLIM
 70
     0
  9
$DIMTIH
 70
     0
  9
$DIMTOH
 70
     0
  9
$DIMSE1
 70
     0
  9
$DIMSE2
 70
     0
  9
$DIMTAD
 70
     1
  9
$DIMZIN
 70
     0
  9
$DIMBLK
  1
DOTSMALL
  9
$DIMASO
 70
     1
  9
$DIMSHO
 70
     1
  9
$DIMPOST
  1

  9
$DIMAPOST
  1
"
  9
$DIMALT
 70
     0
  9
$DIMALTD
 70
     2
  9
$DIMALTF
 40
0.0393701
  9
$DIMLFAC
 40
1.0
  9
$DIMTOFL
 70
     1
  9
$DIMTVP
 40
0.0
  9
$DIMTIX
 70
     0
  9
$DIMSOXD
 70
     0
  9
$DIMSAH
 70
     0
  9
$DIMBLK1
  1

  9
$DIMBLK2
  1

  9
$DIMSTYLE
  2
SANKYO
  9
$DIMCLRD
 70
   256
  9
$DIMCLRE
 70
   256
  9
$DIMCLRT
 70
   256
  9
$DIMTFAC
 40
0.71
  9
$DIMGAP
 40
0.5
  9
$LUNITS
 70
     2
  9
$LUPREC
 70
     4
  9
$SKETCHINC
 40
1.0
  9
$FILLETRAD
 40
0.5
  9
$AUNITS
 70
     0
  9
$AUPREC
 70
     0
  9
$MENU
  1
.
  9
$ELEVATION
 40
0.0
  9
$PELEVATION
 40
0.0
  9
$THICKNESS
 40
0.0
  9
$LIMCHECK
 70
     0
  9
$BLIPMODE
 70
     0
  9
$CHAMFERA
 40
10.0
  9
$CHAMFERB
 40
10.0
  9
$SKPOLY
 70
     0
  9
$TDCREATE
 40
2452388.6082117362
  9
$TDUPDATE
 40
2456027.6131868288
  9
$TDINDWG
 40
1.6497200347000001
  9
$TDUSRTIMER
 40
1.649719919
  9
$USRTIMER
 70
     1
  9
$ANGBASE
 50
0.0
  9
$ANGDIR
 70
     0
  9
$PDMODE
 70
     0
  9
$PDSIZE
 40
0.0
  9
$PLINEWID
 40
0.0
  9
$COORDS
 70
     1
  9
$SPLFRAME
 70
     0
  9
$SPLINETYPE
 70
     6
  9
$SPLINESEGS
 70
     8
  9
$ATTDIA
 70
     0
  9
$ATTREQ
 70
     1
  9
$HANDLING
 70
-16383
  9
$HANDSEED
  5
19EFB
  9
$SURFTAB1
 70
     6
  9
$SURFTAB2
 70
     6
  9
$SURFTYPE
 70
     6
  9
$SURFU
 70
     6
  9
$SURFV
 70
     6
  9
$UCSNAME
  2

  9
$UCSORG
 10
0.0
 20
0.0
 30
0.0
  9
$UCSXDIR
 10
1.0
 20
0.0
 30
0.0
  9
$UCSYDIR
 10
0.0
 20
1.0
 30
0.0
  9
$PUCSNAME
  2

  9
$PUCSORG
 10
0.0
 20
0.0
 30
0.0
  9
$PUCSXDIR
 10
1.0
 20
0.0
 30
0.0
  9
$PUCSYDIR
 10
0.0
 20
1.0
 30
0.0
  9
$USERI1
 70
     0
  9
$USERI2
 70
     1
  9
$USERI3
 70
     0
  9
$USERI4
 70
     0
  9
$USERI5
 70
     0
  9
$USERR1
 40
0.0
  9
$USERR2
 40
0.0
  9
$USERR3
 40
0.0
  9
$USERR4
 40
0.0
  9
$USERR5
 40
0.0
  9
$WORLDVIEW
 70
     1
  9
$SHADEDGE
 70
     3
  9
$SHADEDIF
 70
    70
  9
$TILEMODE
 70
     1
  9
$MAXACTVP
 70
    48
  9
$PLIMCHECK
 70
     0
  9
$PEXTMIN
 10
1.0000000000000000E+020
 20
1.0000000000000000E+020
 30
1.0000000000000000E+020
  9
$PEXTMAX
 10
-1.0000000000000000E+020
 20
-1.0000000000000000E+020
 30
-1.0000000000000000E+020
  9
$PLIMMIN
 10
0.0
 20
0.0
  9
$PLIMMAX
 10
420.0
 20
297.0
  9
$UNITMODE
 70
     0
  9
$VISRETAIN
 70
     1
  9
$PLINEGEN
 70
     0
  9
$PSLTSCALE
 70
     1
  0
ENDSEC
  0
SECTION
  2
TABLES
  0
TABLE
  2
VPORT
 70
     2
  0
VPORT
  2
*ACTIVE
 70
     0
 10
0.0
 20
0.0
 11
1.0
 21
1.0
 12
12.301640073196779
 22
-4.5776506633004601
 13
0.0
 23
0.0
 14
2.5
 24
2.5
 15
10.0
 25
10.0
 16
0.0
 26
0.0
 36
1.0
 17
0.0
 27
0.0
 37
0.0
 40
604.68924014637173
 41
1.3969986357435189
 42
50.0
 43
0.0
 44
0.0
 50
0.0
 51
0.0
 71
    16
 72
   100
 73
     1
 74
     0
 75
     0
 76
     0
 77
     0
 78
     0
  0
ENDTAB
  0
TABLE
  2
LTYPE
 70
    16
  0
LTYPE
  2
CONTINUOUS
 70
     0
  3
Solid line
 72
    65
 73
     0
 40
0.0
  0
LTYPE
  2
CENTER2
 70
     0
  3
Center (.5x) ___ _ ___ _ ___ _ ___ _ ___ _ ___
 72
    65
 73
     4
 40
28.574999999999989
 49
19.050000000000001
 49
-3.174999999999998
 49
3.174999999999998
 49
-3.174999999999998
  0
LTYPE
  2
PHANTOM2
 70
     0
  3
Phantom (.5x) ___ _ _ ___ _ _ ___ _ _ ___ _ _
 72
    65
 73
     6
 40
31.75
 49
15.875
 49
-3.174999999999998
 49
3.174999999999998
 49
-3.174999999999998
 49
3.174999999999998
 49
-3.174999999999998
  0
ENDTAB
  0
TABLE
  2
LAYER
 70
     4
  0
LAYER
  2
0
 70
     0
 62
     7
  6
CONTINUOUS
  0
LAYER
  2
SU
 70
     0
 62
     7
  6
CONTINUOUS
  0
LAYER
  2
KI
 70
     0
 62
     7
  6
CONTINUOUS
  0
LAYER
  2
OS
 70
     0
 62
     7
  6
CONTINUOUS
  0
ENDTAB
  0
TABLE
  2
STYLE
 70
     4
  0
STYLE
  2
STANDARD
 70
     0
 40
0.0
 41
0.8299999999999999
 50
0.0
 71
     0
 42
2.5
  3
txt.shx
  4
extfont.shx
  0
ENDTAB
  0
TABLE
  2
VIEW
 70
     6
  0
VIEW
  2
AM_VIEW1
 70
     0
 40
148.9999998536185
 10
126.61001776470241
 20
223.4999997804278
 41
253.2200355294051
 11
0.0
 21
0.0
 31
1.0
 12
0.0
 22
0.0
 32
0.0
 42
50.0
 43
0.0
 44
0.0
 50
0.0
 71
    16
  0
VIEW
  2
AM_VIEW2
 70
     0
 40
148.9999998536185
 10
294.38998139545481
 20
223.4999997804278
 41
253.2200355294051
 11
0.0
 21
0.0
 31
1.0
 12
0.0
 22
0.0
 32
0.0
 42
50.0
 43
0.0
 44
0.0
 50
0.0
 71
    16
  0
VIEW
  2
AM_VIEW3
 70
     0
 40
148.9999998536185
 10
126.61001776470241
 20
74.499999926809267
 41
253.2200355294051
 11
0.0
 21
0.0
 31
1.0
 12
0.0
 22
0.0
 32
0.0
 42
50.0
 43
0.0
 44
0.0
 50
0.0
 71
    16
  0
VIEW
  2
AM_VIEW4
 70
     0
 40
148.9999998536185
 10
294.38998139545481
 20
74.499999926809267
 41
253.2200355294051
 11
0.0
 21
0.0
 31
1.0
 12
0.0
 22
0.0
 32
0.0
 42
50.0
 43
0.0
 44
0.0
 50
0.0
 71
    16
  0
VIEW
  2
AM_VIEW5
 70
     0
 40
148.9999998536185
 10
210.49999958007871
 20
148.9999998536185
 41
253.2200355294051
 11
0.0
 21
0.0
 31
1.0
 12
0.0
 22
0.0
 32
0.0
 42
50.0
 43
0.0
 44
0.0
 50
0.0
 71
    16
  0
VIEW
  2
AM_VIEW6
 70
     0
 40
297.99701970723982
 10
210.49999958007871
 20
148.9999998536185
 41
506.43500665810018
 11
0.0
 21
0.0
 31
1.0
 12
0.0
 22
0.0
 32
0.0
 42
50.0
 43
0.0
 44
0.0
 50
0.0
 71
    16
  0
ENDTAB
  0
TABLE
  2
UCS
 70
     0
  0
ENDTAB
  0
TABLE
  2
APPID
 70
    22
  0
APPID
  2
ACAD
 70
     0
  0
APPID
  2
MCAD_NO_VIS
 70
     0
  0
APPID
  2
ACAD_TEMP_GRAPHIC
 70
     0
  0
APPID
  2
ACATTRIBSERVICES
 70
     0
  0
APPID
  2
GENIUS_GENDIMSH_14
 70
     0
  0
APPID
  2
GENIUS_GENOLIS_13
 70
     0
  0
APPID
  2
GENIUS_GENOENT_13
 70
     0
  0
APPID
  2
GENIUS_GENODEF_13
 70
     0
  0
APPID
  2
GENIUS_GENOBJ-N-TIT_13
 70
     0
  0
APPID
  2
GENIUS_GENTITLE_13
 70
     0
  0
APPID
  2
GENIUS_GENOREF_13
 70
     0
  0
APPID
  2
GENIUS_GENSCREG_15
 70
     0
  0
APPID
  2
GENIUS_GENOBJ-N-SDF_13
 70
     0
  0
APPID
  2
GENIUS_GENOBJ-N-FIL_13
 70
     0
  0
APPID
  2
GENIUS_GENREC_14
 70
     0
  0
APPID
  2
GENIUS_GENOBJ-N-REC_13
 70
     0
  0
APPID
  2
GENIUS_GENDTOL_13
 70
     0
  0
APPID
  2
GENIUS_GENOBJ-N-CEN_13
 70
     0
  0
APPID
  2
GENIUS_GENOBJ-N-HTC_13
 70
     0
  0
APPID
  2
GENIUS_GENHATCH_13
 70
     0
  0
APPID
  2
GENIUS_GENFIL_13
 70
     0
  0
APPID
  2
GENIUS_GENOBJ-N-CHA_13
 70
     0
  0
ENDTAB
  0
TABLE
  2
DIMSTYLE
 70
     7
  0
DIMSTYLE
  2
SANKYO
 70
     0
  3

  4
"
  5

  6

  7

 40
1.0
 41
2.399999999999999
 42
3.0
 43
7.0
 44
3.0
 45
0.0
 46
0.0
 47
0.1
 48
0.1
140
4.0
141
0.0
142
0.0
143
0.0393701
144
1.0
145
0.0
146
0.71
147
1.3
 71
     0
 72
     0
 73
     0
 74
     0
 75
     0
 76
     0
 77
     1
 78
     8
170
     0
171
     2
172
     1
173
     0
174
     0
175
     0
176
   256
177
   256
178
   256
  0
ENDTAB
  0
ENDSEC
  0
SECTION
  2
BLOCKS
  0
BLOCK
  8
0
  2
$MODEL_SPACE
 70
     0
 10
0.0
 20
0.0
 30
0.0
  3
$MODEL_SPACE
  1

  0
ENDBLK
  5
19ADF
  8
0
  0
BLOCK
 67
     1
  8
0
  2
$PAPER_SPACE
 70
     0
 10
0.0
 20
0.0
 30
0.0
  3
$PAPER_SPACE
  1

  0
ENDBLK
  5
19ADB
 67
     1
  8
0
  0
BLOCK
  8
0
  2
_DOTSMALL
 70
     0
 10
0.0
 20
0.0
 30
0.0
  3
_DOTSMALL
  1

  0
POLYLINE
  5
19B26
  8
0
  6
BYBLOCK
 62
     0
 66
     1
 10
0.0
 20
0.0
 30
0.0
 70
     1
 40
1.0
 41
1.0
  0
VERTEX
  5
19B27
  8
0
  6
BYBLOCK
 62
     0
 10
-0.125
 20
0.0
 30
0.0
 42
1.0
  0
VERTEX
  5
19B28
  8
0
  6
BYBLOCK
 62
     0
 10
0.125
 20
0.0
 30
0.0
 42
1.0
  0
SEQEND
  5
19B29
  8
0
  6
BYBLOCK
 62
     0
  0
ENDBLK
  5
19B2A
  8
0
  0
ENDSEC
  0
SECTION
  2
ENTITIES
  0
TEXT
  5
19B2F
  8
KI
  6
CONTINUOUS
 62
     7
 10
217.70790036644311
 20
-269.30914795167661
 30
0.0
 40
7.0
  1
dt31a001
 41
0.84552428
  0
TEXT
  5
19B30
  8
KI
  6
CONTINUOUS
 62
     7
 10
218.9348388181505
 20
-259.45253833158881
 30
0.0
 40
7.0
  1
たて横断面
 41
0.84552428
  0
TEXT
  5
19B31
  8
KI
  6
CONTINUOUS
 62
     7
 10
218.9348388181505
 20
-223.3426223696793
 30
0.0
 40
7.0
  1
D TOS多機能商品シリーズ
 41
0.84552428
  0
TEXT
  5
19B32
  8
KI
  6
CONTINUOUS
 62
     7
 10
218.9348388181505
 20
-250.73514759855161
 30
0.0
 40
7.0
  1
ノンケーシング枠
 41
0.84552428
  0
TEXT
  5
19B33
  8
KI
  6
CONTINUOUS
 62
     7
 10
218.9348388181505
 20
-232.8118551370851
 30
0.0
 40
7.0
  1
室内引戸
 41
0.84552428
  0
TEXT
  5
19B34
  8
KI
  6
CONTINUOUS
 62
     7
 10
218.9348388181505
 20
-241.73514759855149
 30
0.0
 40
7.0
  1
バリアフリー幅広片引き戸（自動閉鎖式）
 41
0.84552428
  0
LINE
  5
19B35
  8
KI
  6
CONTINUOUS
 62
     7
 10
-189.5846087754382
 20
-245.39368002714511
 30
0.0
 11
-189.58460877543831
 21
-121.39368002714529
 31
0.0
  0
LINE
  5
19B36
  8
KI
  6
CONTINUOUS
 62
     7
 10
-356.58460877543843
 20
24.606319972854848
 30
0.0
 11
-356.58460877543843
 21
-119.393680027145
 31
0.0
  0
LINE
  5
19B37
  8
KI
  6
CONTINUOUS
 62
     7
 10
-256.08460877543803
 20
4.6063199728546351
 30
0.0
 11
-256.08460877543843
 21
-119.393680027145
 31
0.0
  0
LINE
  5
19B38
  8
KI
  6
CENTER2
 62
     7
 10
-230.08460877543729
 20
118.1746189792899
 30
0.0
 11
-230.0846087754349
 21
-267.97542391020642
 31
0.0
  0
LINE
  5
19B39
  8
KI
  6
CONTINUOUS
 62
     7
 10
-216.5846087754374
 20
14.60631997285577
 30
0.0
 11
-216.5846087754374
 21
-119.393680027145
 31
0.0
  0
LINE
  5
19B3A
  8
KI
  6
CONTINUOUS
 62
     7
 10
-213.58460877543729
 20
14.60631997285577
 30
0.0
 11
-213.58460877543729
 21
-119.393680027145
 31
0.0
  0
LINE
  5
19B3B
  8
KI
  6
CONTINUOUS
 62
     7
 10
-243.5846087754374
 20
-235.3936800271446
 30
0.0
 11
-243.5846087754374
 21
-121.39368002714529
 31
0.0
  0
LINE
  5
19B3C
  8
KI
  6
CONTINUOUS
 62
     7
 10
-246.5846087754372
 20
-235.3936800271446
 30
0.0
 11
-246.5846087754372
 21
-121.39368002714529
 31
0.0
  0
LINE
  5
19B3D
  8
KI
  6
CONTINUOUS
 62
     7
 10
-232.584608775437
 20
-215.393680027144
 30
0.0
 11
-232.584608775437
 21
-235.3936800271446
 31
0.0
  0
LINE
  5
19B3E
  8
KI
  6
CONTINUOUS
 62
     7
 10
-227.5846087754378
 20
-235.3936800271446
 30
0.0
 11
-227.5846087754378
 21
-215.393680027144
 31
0.0
  0
LINE
  5
19B3F
  8
KI
  6
CONTINUOUS
 62
     7
 10
-228.5846087754378
 20
-222.39368002714471
 30
0.0
 11
-228.5846087754378
 21
-242.3936800271444
 31
0.0
  0
LINE
  5
19B40
  8
KI
  6
CONTINUOUS
 62
     7
 10
-231.5846087754374
 20
-222.39368002714471
 30
0.0
 11
-231.5846087754374
 21
-245.39368002714471
 31
0.0
  0
LINE
  5
19B41
  8
KI
  6
CONTINUOUS
 62
     7
 10
-228.5846087754378
 20
-242.3936800271444
 30
0.0
 11
-209.5846087754372
 21
-242.3936800271444
 31
0.0
  0
LINE
  5
19B42
  8
KI
  6
CONTINUOUS
 62
     7
 10
-231.5846087754374
 20
-245.39368002714471
 30
0.0
 11
-209.5846087754372
 21
-245.39368002714471
 31
0.0
  0
LINE
  5
19B43
  8
KI
  6
CONTINUOUS
 62
     7
 10
-232.584608775437
 20
-235.3936800271446
 30
0.0
 11
-246.5846087754372
 21
-235.3936800271446
 31
0.0
  0
LINE
  5
19B44
  8
KI
  6
CONTINUOUS
 62
     7
 10
-213.58460877543729
 20
-235.3936800271446
 30
0.0
 11
-227.5846087754378
 21
-235.3936800271446
 31
0.0
  0
LINE
  5
19B45
  8
KI
  6
CONTINUOUS
 62
     7
 10
-209.5846087754372
 20
-245.39368002714471
 30
0.0
 11
-209.5846087754372
 21
-242.3936800271444
 31
0.0
  0
LINE
  5
19B46
  8
KI
  6
CONTINUOUS
 62
     7
 10
-227.5846087754378
 20
-215.393680027144
 30
0.0
 11
-232.584608775437
 21
-215.393680027144
 31
0.0
  0
LINE
  5
19B47
  8
KI
  6
CONTINUOUS
 62
     7
 10
-231.5846087754374
 20
-222.39368002714471
 30
0.0
 11
-228.5846087754378
 21
-222.39368002714471
 31
0.0
  0
LINE
  5
19B48
  8
KI
  6
CONTINUOUS
 62
     7
 10
-272.58460877543803
 20
132.60631997285481
 30
0.0
 11
-195.08460877543831
 21
132.60631997285481
 31
0.0
  0
LINE
  5
19B49
  8
KI
  6
CONTINUOUS
 62
     7
 10
-192.5846087754384
 20
152.60631997285469
 30
0.0
 11
-272.58460877543803
 21
152.60631997285469
 31
0.0
  0
LINE
  5
19B4A
  8
KI
  6
CONTINUOUS
 62
     7
 10
-256.08460877543882
 20
24.606319972854848
 30
0.0
 11
-353.58460877543843
 21
24.606319972854848
 31
0.0
  0
LINE
  5
19B4B
  8
KI
  6
CONTINUOUS
 62
     7
 10
-351.08460877543871
 20
4.6063199728546351
 30
0.0
 11
-256.08460877543803
 21
4.6063199728546351
 31
0.0
  0
LINE
  5
19B4C
  8
OS
  6
CONTINUOUS
 62
     2
 10
-333.08460877543803
 20
162.60631997285481
 30
0.0
 11
-213.08460877543871
 21
162.60631997285481
 31
0.0
  0
LINE
  5
19B4D
  8
OS
  6
CONTINUOUS
 62
     2
 10
-333.08460877543803
 20
152.60631997285469
 30
0.0
 11
-213.08460877543871
 21
162.60631997285481
 31
0.0
  0
LINE
  5
19B4E
  8
OS
  6
CONTINUOUS
 62
     2
 10
-333.08460877543803
 20
162.60631997285481
 30
0.0
 11
-213.08460877543871
 21
212.60631997285441
 31
0.0
  0
LINE
  5
19B4F
  8
KI
  6
CENTER2
 62
     7
 10
-241.28460877543591
 20
61.606319972855999
 30
0.0
 11
-272.58991172959912
 21
61.606319972855999
 31
0.0
  0
LINE
  5
19B50
  8
OS
  6
CONTINUOUS
 62
     2
 10
-333.08460877543803
 20
222.60631606293549
 30
0.0
 11
-333.08460877543803
 21
24.606319972854511
 31
0.0
  0
LINE
  5
19B51
  8
OS
  6
CONTINUOUS
 62
     2
 10
-345.58460877543882
 20
222.60631606293549
 30
0.0
 11
-345.5846087754386
 21
24.606319972854848
 31
0.0
  0
LINE
  5
19B52
  8
KI
  6
CONTINUOUS
 62
     7
 10
-353.58460877543843
 20
24.606319972854848
 30
0.0
 11
-353.58460877543843
 21
7.1063199728550881
 31
0.0
  0
LINE
  5
19B53
  8
KI
  6
CONTINUOUS
 62
     7
 10
-351.08460877543871
 20
4.6063199728546351
 30
0.0
 11
-353.58460877543843
 21
7.1063199728550881
 31
0.0
  0
LINE
  5
19B54
  8
OS
  6
CONTINUOUS
 62
     2
 10
-272.58460877543803
 20
152.60631997285469
 30
0.0
 11
-272.58460877543803
 21
24.606319972854848
 31
0.0
  0
LINE
  5
19B55
  8
OS
  6
CONTINUOUS
 62
     2
 10
-333.08460877543803
 20
67.606319972854976
 30
0.0
 11
-272.58460877543803
 21
110.6063199728554
 31
0.0
  0
LINE
  5
19B56
  8
OS
  6
CONTINUOUS
 62
     2
 10
-333.08460877543803
 20
67.606319972854976
 30
0.0
 11
-272.58460877543803
 21
67.606319972854976
 31
0.0
  0
LINE
  5
19B57
  8
OS
  6
CONTINUOUS
 62
     2
 10
-272.58460877543803
 20
67.606319972854976
 30
0.0
 11
-333.08460877543803
 21
24.606319972854511
 31
0.0
  0
LINE
  5
19B58
  8
KI
  6
CONTINUOUS
 62
     7
 10
-353.58460877543843
 20
24.606319972854848
 30
0.0
 11
-356.58460877543843
 21
24.606319972854848
 31
0.0
  0
LINE
  5
19B59
  8
OS
  6
CONTINUOUS
 62
     2
 10
-333.08460877543803
 20
152.60631997285469
 30
0.0
 11
-272.58460877543803
 21
152.60631997285469
 31
0.0
  0
LINE
  5
19B5A
  8
OS
  6
CONTINUOUS
 62
     2
 10
-272.58460877543803
 20
110.6063199728554
 30
0.0
 11
-333.08460877543803
 21
110.6063199728554
 31
0.0
  0
LINE
  5
19B5B
  8
OS
  6
CONTINUOUS
 62
     2
 10
-333.08460877543803
 20
110.6063199728554
 30
0.0
 11
-272.58460877543803
 21
152.60631997285469
 31
0.0
  0
LINE
  5
19B5C
  8
KI
  6
CONTINUOUS
 62
     7
 10
-272.58460877543803
 20
152.60631997285469
 30
0.0
 11
-272.58460877543803
 21
132.60631997285481
 31
0.0
  0
LINE
  5
19B5D
  8
OS
  6
CONTINUOUS
 62
     2
 10
-200.5846087754384
 20
222.60631606293549
 30
0.0
 11
-200.584608775438
 21
152.60631997285469
 31
0.0
  0
LINE
  5
19B5E
  8
OS
  6
CONTINUOUS
 62
     2
 10
-213.08460877543871
 20
222.60631606293549
 30
0.0
 11
-213.08460877543871
 21
152.60631997285469
 31
0.0
  0
CIRCLE
  5
19B5F
  8
KI
  6
CONTINUOUS
 62
     7
 10
-191.084608775438
 20
157.60631997285461
 30
0.0
 40
4.5
  0
LINE
  5
19B60
  8
KI
  6
CONTINUOUS
 62
     7
 10
-169.58460877543729
 20
7.106319972854406
 30
0.0
 11
-169.58460877543729
 21
152.6063199728554
 31
0.0
  0
LINE
  5
19B61
  8
KI
  6
CONTINUOUS
 62
     7
 10
-189.5846087754384
 20
152.60631997285469
 30
0.0
 11
-189.5846087754382
 21
4.6063199728546351
 31
0.0
  0
LINE
  5
19B62
  8
KI
  6
CONTINUOUS
 62
     7
 10
-256.08460877543803
 20
4.6063199728546351
 30
0.0
 11
-256.08460877543882
 21
24.606319972854848
 31
0.0
  0
LINE
  5
19B63
  8
KI
  6
CONTINUOUS
 62
     7
 10
-238.59016227490079
 20
24.904419229602581
 30
0.0
 11
-238.59016227490079
 21
20.206319972855791
 31
0.0
  0
LINE
  5
19B64
  8
KI
  6
CONTINUOUS
 62
     7
 10
-223.57905527597109
 20
20.206319972855791
 30
0.0
 11
-223.57905527597109
 21
24.904419229602581
 31
0.0
  0
LINE
  5
19B65
  8
KI
  6
CONTINUOUS
 62
     7
 10
-234.83738552516931
 20
20.206319972855791
 30
0.0
 11
-234.83738552516931
 21
24.904419229602581
 31
0.0
  0
LINE
  5
19B66
  8
KI
  6
CONTINUOUS
 62
     7
 10
-227.3318320257049
 20
20.206319972855791
 30
0.0
 11
-227.3318320257049
 21
24.904419229602581
 31
0.0
  0
LINE
  5
19B67
  8
KI
  6
CONTINUOUS
 62
     7
 10
-221.0846087754374
 20
18.606319972855541
 30
0.0
 11
-221.0846087754374
 21
44.606319972855772
 31
0.0
  0
LINE
  5
19B68
  8
KI
  6
CONTINUOUS
 62
     7
 10
-217.0846087754378
 20
18.606319972855541
 30
0.0
 11
-217.0846087754378
 21
44.606319972855772
 31
0.0
  0
LINE
  5
19B69
  8
KI
  6
CONTINUOUS
 62
     7
 10
-246.5846087754372
 20
14.60631997285577
 30
0.0
 11
-213.58460877543729
 21
14.60631997285577
 31
0.0
  0
LINE
  5
19B6A
  8
KI
  6
CONTINUOUS
 62
     7
 10
-222.58460877543709
 20
20.206319972855791
 30
0.0
 11
-239.5846087754374
 21
20.206319972855791
 31
0.0
  0
LINE
  5
19B6B
  8
KI
  6
CONTINUOUS
 62
     7
 10
-245.0846087754374
 20
18.606319972855541
 30
0.0
 11
-221.0846087754374
 21
18.606319972855541
 31
0.0
  0
LINE
  5
19B6C
  8
KI
  6
CONTINUOUS
 62
     7
 10
-239.5846087754374
 20
20.206319972855791
 30
0.0
 11
-239.5846087754374
 21
18.606319972855541
 31
0.0
  0
LINE
  5
19B6D
  8
KI
  6
CONTINUOUS
 62
     7
 10
-245.0846087754374
 20
18.606319972855541
 30
0.0
 11
-245.0846087754374
 21
14.60631997285577
 31
0.0
  0
ARC
  5
19B6E
  8
KI
  6
CONTINUOUS
 62
     7
 10
-221.0846087754374
 20
18.606319972855541
 30
0.0
 40
3.9999999999999392
 50
270.0
 51
0.0
  0
LINE
  5
19B6F
  8
KI
  6
CONTINUOUS
 62
     7
 10
-222.58460877543709
 20
18.606319972855541
 30
0.0
 11
-222.58460877543709
 21
20.206319972855791
 31
0.0
  0
LINE
  5
19B70
  8
KI
  6
CONTINUOUS
 62
     7
 10
-189.5846087754382
 20
4.6063199728546351
 30
0.0
 11
-172.0846087754384
 21
4.6063199728546351
 31
0.0
  0
LINE
  5
19B71
  8
KI
  6
CONTINUOUS
 62
     7
 10
-169.58460877543729
 20
7.106319972854406
 30
0.0
 11
-172.0846087754384
 21
4.6063199728546351
 31
0.0
  0
LINE
  5
19B72
  8
OS
  6
CONTINUOUS
 62
     2
 10
-260.08460877543712
 20
24.606319972854848
 30
0.0
 11
-260.08460877543791
 21
132.60631997285481
 31
0.0
  0
LINE
  5
19B73
  8
KI
  6
CONTINUOUS
 62
     7
 10
-198.5846087754372
 20
109.6063199728559
 30
0.0
 11
-198.5846087754372
 21
38.606319972855772
 31
0.0
  0
LINE
  5
19B74
  8
KI
  6
CONTINUOUS
 62
     7
 10
-213.08460877543729
 20
93.106319972855644
 30
0.0
 11
-213.08460877543729
 21
61.106319972855779
 31
0.0
  0
LINE
  5
19B75
  8
KI
  6
CONTINUOUS
 62
     7
 10
-208.08460877543709
 20
61.106319972855779
 30
0.0
 11
-208.08460877543709
 21
93.106319972855644
 31
0.0
  0
LINE
  5
19B76
  8
KI
  6
CONTINUOUS
 62
     7
 10
-215.0846087754372
 20
57.106319972855637
 30
0.0
 11
-215.0846087754372
 21
97.106319972855758
 31
0.0
  0
LINE
  5
19B77
  8
KI
  6
CONTINUOUS
 62
     7
 10
-217.0846087754378
 20
109.6063199728559
 30
0.0
 11
-217.0846087754378
 21
44.606319972855772
 31
0.0
  0
LINE
  5
19B78
  8
KI
  6
CONTINUOUS
 62
     7
 10
-245.0846087754374
 20
44.606319972855772
 30
0.0
 11
-245.0846087754374
 21
109.6063199728559
 31
0.0
  0
ARC
  5
19B79
  8
KI
  6
CONTINUOUS
 62
     7
 10
-215.4846087754365
 20
33.956319972855567
 30
0.0
 40
3.899999999999177
 50
0.0
 51
90.0
  0
ARC
  5
19B7A
  8
KI
  6
CONTINUOUS
 62
     7
 10
-215.4846087754365
 20
31.256319972854609
 30
0.0
 40
3.89999999999884
 50
270.0
 51
0.0
  0
LINE
  5
19B7B
  8
KI
  6
CENTER2
 62
     7
 10
-205.4846087754357
 20
35.106319972855871
 30
0.0
 11
-219.0846087754372
 21
35.106319972855871
 31
0.0
  0
LINE
  5
19B7C
  8
KI
  6
CENTER2
 62
     7
 10
-208.584608775437
 20
32.606319972855758
 30
0.0
 11
-248.4846087754365
 21
32.606319972855758
 31
0.0
  0
LINE
  5
19B7D
  8
KI
  6
CENTER2
 62
     7
 10
-249.02999907522519
 20
77.106319972855545
 30
0.0
 11
-203.08460877543729
 21
77.106319972855545
 31
0.0
  0
LINE
  5
19B7E
  8
KI
  6
CONTINUOUS
 62
     7
 10
-208.08460877543709
 20
85.106319972855729
 30
0.0
 11
-213.08460877543729
 21
85.106319972855729
 31
0.0
  0
LINE
  5
19B7F
  8
KI
  6
CONTINUOUS
 62
     7
 10
-213.08460877543729
 20
69.106319972855658
 30
0.0
 11
-208.08460877543709
 21
69.106319972855658
 31
0.0
  0
LINE
  5
19B80
  8
KI
  6
CONTINUOUS
 62
     7
 10
-213.08460877543729
 20
61.106319972855779
 30
0.0
 11
-208.08460877543709
 21
61.106319972855779
 31
0.0
  0
LINE
  5
19B81
  8
KI
  6
CONTINUOUS
 62
     7
 10
-260.08460877543712
 20
69.606319972855886
 30
0.0
 11
-260.08460877543712
 21
36.606319972855879
 31
0.0
  0
LINE
  5
19B82
  8
KI
  6
CONTINUOUS
 62
     7
 10
-256.0846087754374
 20
67.606319972855658
 30
0.0
 11
-256.08460877543882
 21
40.606319972855658
 31
0.0
  0
ARC
  5
19B83
  8
KI
  6
CONTINUOUS
 62
     7
 10
-236.71377390003599
 20
22.28060719413542
 30
0.0
 40
3.225712778719926
 50
54.429990415730487
 51
125.57000958424599
  0
LINE
  5
19B84
  8
KI
  6
CONTINUOUS
 62
     7
 10
-221.0846087754374
 20
35.606319972855772
 30
0.0
 11
-245.4846087754365
 21
35.606319972855772
 31
0.0
  0
LINE
  5
19B85
  8
KI
  6
CONTINUOUS
 62
     7
 10
-245.4846087754365
 20
29.606319972855768
 30
0.0
 11
-221.0846087754374
 21
29.606319972855768
 31
0.0
  0
LINE
  5
19B86
  8
KI
  6
CONTINUOUS
 62
     7
 10
-221.0846087754374
 20
34.906319972855712
 30
0.0
 11
-245.4846087754365
 21
34.906319972855712
 31
0.0
  0
LINE
  5
19B87
  8
KI
  6
CONTINUOUS
 62
     7
 10
-221.0846087754374
 20
30.306319972856151
 30
0.0
 11
-245.4846087754365
 21
30.306319972856151
 31
0.0
  0
LINE
  5
19B88
  8
KI
  6
CONTINUOUS
 62
     7
 10
-236.71377390003599
 20
25.506319972854719
 30
0.0
 11
-225.45544365083759
 21
25.506319972854719
 31
0.0
  0
LINE
  5
19B89
  8
KI
  6
CONTINUOUS
 62
     7
 10
-221.0846087754374
 20
36.606319972855879
 30
0.0
 11
-260.08460877543712
 21
36.606319972855879
 31
0.0
  0
LINE
  5
19B8A
  8
KI
  6
CONTINUOUS
 62
     7
 10
-256.08460877543882
 20
40.606319972855658
 30
0.0
 11
-221.0846087754374
 21
40.606319972855658
 31
0.0
  0
LINE
  5
19B8B
  8
KI
  6
CONTINUOUS
 62
     7
 10
-217.0846087754378
 20
44.606319972855772
 30
0.0
 11
-245.0846087754374
 21
44.606319972855772
 31
0.0
  0
LINE
  5
19B8C
  8
KI
  6
CONTINUOUS
 62
     7
 10
-245.4846087754365
 20
35.606319972855772
 30
0.0
 11
-245.4846087754365
 21
29.606319972855768
 31
0.0
  0
LINE
  5
19B8D
  8
KI
  6
CONTINUOUS
 62
     7
 10
-215.4846087754365
 20
38.856319972855879
 30
0.0
 11
-215.4846087754365
 21
26.356319972855658
 31
0.0
  0
ARC
  5
19B8E
  8
KI
  6
CONTINUOUS
 62
     7
 10
-225.45544365083759
 20
22.28060719413542
 30
0.0
 40
3.225712778719926
 50
54.429990415730487
 51
125.5700095842695
  0
ARC
  5
19B8F
  8
KI
  6
CONTINUOUS
 62
     7
 10
-231.084608775437
 20
13.506319972855399
 30
0.0
 40
11.999999999999471
 50
71.776085575036063
 51
108.22391442496379
  0
LINE
  5
19B90
  8
KI
  6
CONTINUOUS
 62
     7
 10
-215.4846087754365
 20
26.356319972855658
 30
0.0
 11
-217.0846087754378
 21
26.356319972855658
 31
0.0
  0
LINE
  5
19B91
  8
KI
  6
CONTINUOUS
 62
     7
 10
-217.0846087754378
 20
38.856319972855879
 30
0.0
 11
-215.4846087754365
 21
38.856319972855879
 31
0.0
  0
ARC
  5
19B92
  8
KI
  6
CONTINUOUS
 62
     7
 10
-255.08460877543681
 20
62.806319972855597
 30
0.0
 40
3.3000000000000642
 50
0.0
 51
90.0
  0
ARC
  5
19B93
  8
KI
  6
CONTINUOUS
 62
     7
 10
-255.08460877543681
 20
60.406319972855719
 30
0.0
 40
3.30000000000032
 50
270.0
 51
0.0
  0
ARC
  5
19B94
  8
KI
  6
CONTINUOUS
 62
     7
 10
-258.084608775437
 20
67.606319972855658
 30
0.0
 40
1.9999999999998861
 50
0.0
 51
90.0
  0
LINE
  5
19B95
  8
KI
  6
CONTINUOUS
 62
     7
 10
-255.08460877543681
 20
66.106319972855644
 30
0.0
 11
-255.08460877543681
 21
57.106319972855637
 31
0.0
  0
LINE
  5
19B96
  8
KI
  6
CONTINUOUS
 62
     7
 10
-251.78460877543711
 20
62.806319972855597
 30
0.0
 11
-251.78460877543711
 21
60.406319972855719
 31
0.0
  0
LINE
  5
19B97
  8
KI
  6
CONTINUOUS
 62
     7
 10
-255.08460877543681
 20
56.606319972855779
 30
0.0
 11
-256.0846087754374
 21
56.606319972855779
 31
0.0
  0
LINE
  5
19B98
  8
KI
  6
CONTINUOUS
 62
     7
 10
-255.08460877543681
 20
66.606319972855545
 30
0.0
 11
-255.08460877543681
 21
56.606319972855779
 31
0.0
  0
LINE
  5
19B99
  8
KI
  6
CONTINUOUS
 62
     7
 10
-256.0846087754374
 20
66.606319972855545
 30
0.0
 11
-255.08460877543681
 21
66.606319972855545
 31
0.0
  0
LINE
  5
19B9A
  8
KI
  6
CONTINUOUS
 62
     7
 10
-260.08460877543712
 20
69.606319972855886
 30
0.0
 11
-258.084608775437
 21
69.606319972855886
 31
0.0
  0
LINE
  5
19B9B
  8
KI
  6
CONTINUOUS
 62
     7
 10
-213.08460877543729
 20
62.106319972855879
 30
0.0
 11
-215.0846087754372
 21
62.106319972855879
 31
0.0
  0
LINE
  5
19B9C
  8
KI
  6
CONTINUOUS
 62
     7
 10
-217.0846087754378
 20
57.106319972855637
 30
0.0
 11
-215.0846087754372
 21
57.106319972855637
 31
0.0
  0
LINE
  5
19B9D
  8
KI
  6
CONTINUOUS
 62
     7
 10
-211.08460877543681
 20
30.106319972855658
 30
0.0
 11
-211.08460877543681
 21
61.106319972855779
 31
0.0
  0
ARC
  5
19B9E
  8
KI
  6
CONTINUOUS
 62
     7
 10
-211.08460877543681
 20
36.006319972854712
 30
0.0
 40
2.600000000001045
 50
0.0
 51
90.0
  0
ARC
  5
19B9F
  8
KI
  6
CONTINUOUS
 62
     7
 10
-211.08460877543681
 20
34.206319972855681
 30
0.0
 40
2.6000000000001071
 50
270.0
 51
0.0
  0
LINE
  5
19BA0
  8
KI
  6
CONTINUOUS
 62
     7
 10
-211.58460877543681
 20
33.956319972855567
 30
0.0
 11
-211.58460877543681
 21
31.256319972854609
 31
0.0
  0
LINE
  5
19BA1
  8
KI
  6
CONTINUOUS
 62
     7
 10
-208.4846087754359
 20
36.006319972854712
 30
0.0
 11
-208.4846087754359
 21
34.206319972855681
 31
0.0
  0
LINE
  5
19BA2
  8
KI
  6
CONTINUOUS
 62
     7
 10
-211.75801515659441
 20
30.106319972855658
 30
0.0
 11
-211.08460877543681
 21
30.106319972855658
 31
0.0
  0
LINE
  5
19BA3
  8
KI
  6
CONTINUOUS
 62
     7
 10
-198.5846087754372
 20
38.606319972855772
 30
0.0
 11
-211.08460877543681
 21
38.606319972855772
 31
0.0
  0
LINE
  5
19BA4
  8
KI
  6
CONTINUOUS
 62
     7
 10
-208.08460877543709
 20
81.106319972855644
 30
0.0
 11
-206.76110877543721
 21
81.106319972855644
 31
0.0
  0
LINE
  5
19BA5
  8
KI
  6
CONTINUOUS
 62
     7
 10
-208.08460877543709
 20
80.429819972855626
 30
0.0
 11
-206.0846087754374
 21
80.429819972855626
 31
0.0
  0
LINE
  5
19BA6
  8
KI
  6
CONTINUOUS
 62
     7
 10
-208.08460877543709
 20
73.782819972855819
 30
0.0
 11
-206.0846087754374
 21
73.782819972855819
 31
0.0
  0
LINE
  5
19BA7
  8
KI
  6
CONTINUOUS
 62
     7
 10
-208.08460877543709
 20
73.106319972855772
 30
0.0
 11
-206.76110877543721
 21
73.106319972855772
 31
0.0
  0
LINE
  5
19BA8
  8
KI
  6
CONTINUOUS
 62
     7
 10
-206.76110877543721
 20
73.106319972855772
 30
0.0
 11
-206.0846087754374
 21
73.782819972855819
 31
0.0
  0
LINE
  5
19BA9
  8
KI
  6
CONTINUOUS
 62
     7
 10
-206.76110877543721
 20
81.106319972855644
 30
0.0
 11
-206.0846087754374
 21
80.429819972855626
 31
0.0
  0
LINE
  5
19BAA
  8
KI
  6
CONTINUOUS
 62
     7
 10
-206.76110877543721
 20
73.106319972855772
 30
0.0
 11
-206.76110877543721
 21
81.106319972855644
 31
0.0
  0
LINE
  5
19BAB
  8
KI
  6
CONTINUOUS
 62
     7
 10
-206.0846087754374
 20
73.782819972855819
 30
0.0
 11
-206.0846087754374
 21
80.429819972855626
 31
0.0
  0
LINE
  5
19BAC
  8
KI
  6
CONTINUOUS
 62
     7
 10
-217.0846087754378
 20
109.6063199728559
 30
0.0
 11
-198.5846087754372
 21
109.6063199728559
 31
0.0
  0
LINE
  5
19BAD
  8
KI
  6
CONTINUOUS
 62
     7
 10
-208.08460877543709
 20
93.106319972855644
 30
0.0
 11
-213.08460877543729
 21
93.106319972855644
 31
0.0
  0
LINE
  5
19BAE
  8
KI
  6
CONTINUOUS
 62
     7
 10
-245.0846087754374
 20
109.6063199728559
 30
0.0
 11
-217.0846087754378
 21
109.6063199728559
 31
0.0
  0
LINE
  5
19BAF
  8
KI
  6
CONTINUOUS
 62
     7
 10
-215.0846087754372
 20
92.106319972855545
 30
0.0
 11
-213.08460877543729
 21
92.106319972855545
 31
0.0
  0
LINE
  5
19BB0
  8
KI
  6
CONTINUOUS
 62
     7
 10
-215.0846087754372
 20
97.106319972855758
 30
0.0
 11
-217.0846087754378
 21
97.106319972855758
 31
0.0
  0
LINE
  5
19BB1
  8
KI
  6
CONTINUOUS
 62
     7
 10
-211.08460877543681
 20
93.106319972855644
 30
0.0
 11
-211.08460877543681
 21
109.6063199728559
 31
0.0
  0
LINE
  5
19BB2
  8
KI
  6
CONTINUOUS
 62
     7
 10
-169.58460877543729
 20
152.6063199728554
 30
0.0
 11
-189.5846087754384
 21
152.60631997285469
 31
0.0
  0
LINE
  5
19BB3
  8
KI
  6
CONTINUOUS
 62
     7
 10
-192.5846087754384
 20
135.10631997285461
 30
0.0
 11
-192.5846087754384
 21
152.60631997285469
 31
0.0
  0
LINE
  5
19BB4
  8
KI
  6
CONTINUOUS
 62
     7
 10
-195.08460877543831
 20
132.60631997285481
 30
0.0
 11
-192.5846087754384
 21
135.10631997285461
 31
0.0
  0
LINE
  5
19BB5
  8
KI
  6
CONTINUOUS
 62
     7
 10
-192.5846087754384
 20
152.60631997285469
 30
0.0
 11
-189.5846087754384
 21
152.60631997285469
 31
0.0
  0
LINE
  5
19BB6
  8
KI
  6
PHANTOM2
 62
     7
 10
12.436194433093441
 20
-125.9500124937594
 30
0.0
 11
258.43619443309279
 21
-125.9500124937594
 31
0.0
  0
LINE
  5
19BB7
  8
KI
  6
PHANTOM2
 62
     7
 10
33.936194433093668
 20
-105.950012493759
 30
0.0
 11
258.43619443309279
 21
-105.95001249375871
 31
0.0
  0
LINE
  5
19BB8
  8
OS
  6
CONTINUOUS
 62
     2
 10
-44.834430675122888
 20
50.049987506240889
 30
0.0
 11
162.4361944330935
 21
50.049987506240889
 31
0.0
  0
LINE
  5
19BB9
  8
OS
  6
CONTINUOUS
 62
     2
 10
36.436194433093767
 20
-35.450012493758088
 30
0.0
 11
162.43619443309339
 21
-35.45001249375774
 31
0.0
  0
LINE
  5
19BBA
  8
OS
  6
CONTINUOUS
 62
     2
 10
-44.834430675122888
 20
37.549964506245153
 30
0.0
 11
162.43619443309339
 21
37.549964506245153
 31
0.0
  0
LINE
  5
19BBB
  8
OS
  6
CONTINUOUS
 62
     2
 10
36.436194433093441
 20
-22.950012493758202
 30
0.0
 11
66.436194433092084
 21
37.549964506245487
 31
0.0
  0
LINE
  5
19BBC
  8
OS
  6
CONTINUOUS
 62
     2
 10
36.436194433093441
 20
-22.950012493758202
 30
0.0
 11
162.43619443309339
 21
-22.950012493757519
 31
0.0
  0
LINE
  5
19BBD
  8
KI
  6
PHANTOM2
 62
     7
 10
36.43619443309651
 20
-48.950012493757747
 30
0.0
 11
226.4361944330964
 21
-48.950012493759459
 31
0.0
  0
LINE
  5
19BBE
  8
KI
  6
PHANTOM2
 62
     7
 10
36.43619443309651
 20
-81.950012493757399
 30
0.0
 11
226.4361944330964
 21
-81.950012493757399
 31
0.0
  0
LINE
  5
19BBF
  8
OS
  6
CONTINUOUS
 62
     2
 10
2.436190523174246
 20
37.549964506245153
 30
0.0
 11
2.436190523174246
 21
-82.450035493754939
 31
0.0
  0
LINE
  5
19BC0
  8
OS
  6
CONTINUOUS
 62
     2
 10
12.436190523174011
 20
37.549964506245153
 30
0.0
 11
2.436190523174246
 21
-82.450035493754939
 31
0.0
  0
LINE
  5
19BC1
  8
OS
  6
CONTINUOUS
 62
     2
 10
2.436190523174246
 20
-82.450035493754939
 30
0.0
 11
-44.834430675122888
 21
-35.17941429545737
 31
0.0
  0
LINE
  5
19BC2
  8
KI
  6
CONTINUOUS
 62
     7
 10
12.436194433093441
 20
-105.950012493759
 30
0.0
 11
12.436194433093441
 21
37.549964506245153
 31
0.0
  0
LINE
  5
19BC3
  8
KI
  6
CONTINUOUS
 62
     7
 10
36.436194433093767
 20
37.549964506245153
 30
0.0
 11
36.436194433093767
 21
-103.4500124937594
 31
0.0
  0
LINE
  5
19BC4
  8
KI
  6
PHANTOM2
 62
     7
 10
12.436194433093441
 20
-125.9500124937594
 30
0.0
 11
12.436194433093441
 21
-105.950012493759
 31
0.0
  0
LINE
  5
19BC5
  8
OS
  6
CONTINUOUS
 62
     2
 10
12.436190523174011
 20
-82.450035493754527
 30
0.0
 11
-44.834430675122888
 21
-82.450035493754527
 31
0.0
  0
LINE
  5
19BC6
  8
OS
  6
CONTINUOUS
 62
     2
 10
12.436190523174011
 20
-94.950035493754044
 30
0.0
 11
-44.834430675122888
 21
-94.950035493754044
 31
0.0
  0
LINE
  5
19BC7
  8
KI
  6
PHANTOM2
 62
     7
 10
36.43619443309651
 20
-81.950012493757399
 30
0.0
 11
36.43619443309651
 21
-48.950012493757747
 31
0.0
  0
LINE
  5
19BC8
  8
KI
  6
CONTINUOUS
 62
     7
 10
12.436194433093441
 20
-105.950012493759
 30
0.0
 11
33.936194433093668
 21
-105.950012493759
 31
0.0
  0
LINE
  5
19BC9
  8
KI
  6
CONTINUOUS
 62
     7
 10
33.936194433093668
 20
-105.950012493759
 30
0.0
 11
36.436194433093767
 21
-103.4500124937594
 31
0.0
  0
LINE
  5
19BCA
  8
OS
  6
CONTINUOUS
 62
     2
 10
2.436190523174246
 20
37.549964506245153
 30
0.0
 11
-44.834430675122888
 21
-9.7206566920523301
 31
0.0
  0
LINE
  5
19BCB
  8
KI
  6
CONTINUOUS
 62
     7
 10
12.436194433093441
 20
37.549964506245153
 30
0.0
 11
36.436194433093767
 21
37.549964506245153
 31
0.0
  0
LINE
  5
19BCC
  8
KI
  6
PHANTOM2
 62
     7
 10
186.43619443309331
 20
58.04998750624214
 30
0.0
 11
258.43619443309279
 21
58.049987506241862
 31
0.0
  0
LINE
  5
19BCD
  8
KI
  6
CONTINUOUS
 62
     7
 10
162.4361944330924
 20
-81.950012493757399
 30
0.0
 11
258.43619443309279
 21
-81.950012493758194
 31
0.0
  0
LINE
  5
19BCE
  8
KI
  6
CONTINUOUS
 62
     7
 10
162.4361944330924
 20
-78.950012493759473
 30
0.0
 11
258.43619443309279
 21
-78.950012493759232
 31
0.0
  0
LINE
  5
19BCF
  8
KI
  6
CONTINUOUS
 62
     7
 10
356.43619443309422
 20
-51.950012493759118
 30
0.0
 11
260.43619443309279
 21
-51.950012493759118
 31
0.0
  0
LINE
  5
19BD0
  8
KI
  6
CONTINUOUS
 62
     7
 10
356.43619443309422
 20
-48.950012493759118
 30
0.0
 11
260.43619443309279
 21
-48.950012493759118
 31
0.0
  0
LINE
  5
19BD1
  8
KI
  6
CONTINUOUS
 62
     7
 10
173.23623825480939
 20
-40.083772493758339
 30
0.0
 11
173.23623825480939
 21
-49.05943249375877
 31
0.0
  0
LINE
  5
19BD2
  8
KI
  6
CONTINUOUS
 62
     7
 10
174.43619825480951
 20
-40.083772493758339
 30
0.0
 11
174.43619825480951
 21
-49.05943249375877
 31
0.0
  0
LINE
  5
19BD3
  8
KI
  6
CONTINUOUS
 62
     7
 10
175.59591624386499
 20
-40.083772493758339
 30
0.0
 11
175.59591624386499
 21
-49.05943249375877
 31
0.0
  0
LINE
  5
19BD4
  8
KI
  6
CONTINUOUS
 62
     7
 10
173.23623825480939
 20
-40.083772493758339
 30
0.0
 11
173.23623825480939
 21
-49.05943249375877
 31
0.0
  0
LINE
  5
19BD5
  8
KI
  6
CONTINUOUS
 62
     7
 10
175.01606107105269
 20
-40.083772493758339
 30
0.0
 11
175.01606107105269
 21
-49.05943249375877
 31
0.0
  0
LINE
  5
19BD6
  8
KI
  6
CONTINUOUS
 62
     7
 10
173.8362220765253
 20
-40.083772493758339
 30
0.0
 11
173.8362220765253
 21
-49.05943249375877
 31
0.0
  0
ARC
  5
19BD7
  8
KI
  6
CONTINUOUS
 62
     7
 10
52.403629985844219
 20
-40.999500756340922
 30
0.0
 40
120.2739601373348
 50
356.09948268866231
 51
0.4424136886590837
  0
ARC
  5
19BD8
  8
KI
  6
CONTINUOUS
 62
     7
 10
296.4288107221218
 20
-40.999512493758061
 30
0.0
 40
120.27426635933141
 50
179.5575717607208
 51
183.9005017607272
  0
LINE
  5
19BD9
  8
KI
  6
PHANTOM2
 62
     7
 10
198.4361944330964
 20
-48.950012493756716
 30
0.0
 11
198.4361944330964
 21
-44.366210980852642
 31
0.0
  0
LINE
  5
19BDA
  8
KI
  6
PHANTOM2
 62
     7
 10
204.43619443309669
 20
-48.950012493756716
 30
0.0
 11
204.43619443309669
 21
-44.366210980852642
 31
0.0
  0
LINE
  5
19BDB
  8
KI
  6
CONTINUOUS
 62
     7
 10
162.4361944330924
 20
-48.950012493759118
 30
0.0
 11
162.4361944330924
 21
-81.950012493757399
 31
0.0
  0
LINE
  5
19BDC
  8
KI
  6
PHANTOM2
 62
     7
 10
226.4361944330964
 20
-81.950012493757399
 30
0.0
 11
226.4361944330964
 21
-48.950012493759459
 31
0.0
  0
CIRCLE
  5
19BDD
  8
KI
  6
PHANTOM2
 62
     7
 10
201.4361944330968
 20
-93.950012493757399
 30
0.0
 40
7.999999999999714
  0
LINE
  5
19BDE
  8
KI
  6
PHANTOM2
 62
     7
 10
198.4361944330964
 20
-86.533814006661459
 30
0.0
 11
198.4361944330964
 21
-81.950012493757399
 31
0.0
  0
LINE
  5
19BDF
  8
KI
  6
PHANTOM2
 62
     7
 10
204.43619443309669
 20
-86.533814006661459
 30
0.0
 11
204.43619443309669
 21
-81.950012493757399
 31
0.0
  0
LINE
  5
19BE0
  8
OS
  6
CONTINUOUS
 62
     2
 10
132.43619443309441
 20
-22.950012493758202
 30
0.0
 11
162.43619443309339
 21
37.549964506245153
 31
0.0
  0
LINE
  5
19BE1
  8
OS
  6
CONTINUOUS
 62
     2
 10
66.436194433093107
 20
-22.950012493758202
 30
0.0
 11
66.436194433092084
 21
37.549964506245487
 31
0.0
  0
LINE
  5
19BE2
  8
OS
  6
CONTINUOUS
 62
     2
 10
132.43619443309441
 20
-22.950012493758202
 30
0.0
 11
132.43619443309311
 21
37.549964506245487
 31
0.0
  0
LINE
  5
19BE3
  8
KI
  6
CONTINUOUS
 62
     7
 10
186.43619443309359
 20
58.549987506241692
 30
0.0
 11
186.43619443309359
 21
-39.450012493757868
 31
0.0
  0
LINE
  5
19BE4
  8
KI
  6
CONTINUOUS
 62
     7
 10
162.4361944330935
 20
-39.450012493757868
 30
0.0
 11
162.4361944330935
 21
61.04998750624214
 31
0.0
  0
LINE
  5
19BE5
  8
KI
  6
CONTINUOUS
 62
     7
 10
186.43619443309359
 20
-39.450012493757868
 30
0.0
 11
162.4361944330935
 21
-39.450012493757868
 31
0.0
  0
LINE
  5
19BE6
  8
KI
  6
CONTINUOUS
 62
     7
 10
172.6739982548095
 20
-40.070832493758623
 30
0.0
 11
176.15815624386511
 21
-40.070832493758623
 31
0.0
  0
LINE
  5
19BE7
  8
KI
  6
CONTINUOUS
 62
     7
 10
172.6739982548095
 20
-39.45005249375879
 30
0.0
 11
172.6739982548095
 21
-40.070832493758623
 31
0.0
  0
LINE
  5
19BE8
  8
KI
  6
CONTINUOUS
 62
     7
 10
176.15815624386479
 20
-40.070792493758717
 30
0.0
 11
176.15815624386479
 21
-39.450012493757868
 31
0.0
  0
CIRCLE
  5
19BE9
  8
KI
  6
PHANTOM2
 62
     7
 10
201.4361944330968
 20
-36.950012493756731
 30
0.0
 40
7.999999999999714
  0
LINE
  5
19BEA
  8
KI
  6
CONTINUOUS
 62
     7
 10
186.43619443309359
 20
58.549987506241692
 30
0.0
 11
183.9361944330939
 21
61.049987506241123
 31
0.0
  0
LINE
  5
19BEB
  8
KI
  6
CONTINUOUS
 62
     7
 10
162.4361944330935
 20
61.04998750624214
 30
0.0
 11
183.9361944330939
 21
61.049987506241123
 31
0.0
  0
LINE
  5
19BEC
  8
KI
  6
CONTINUOUS
 62
     7
 10
328.43619443309478
 20
-48.950012493756716
 30
0.0
 11
328.43619443309478
 21
-44.366210980852642
 31
0.0
  0
LINE
  5
19BED
  8
KI
  6
CONTINUOUS
 62
     7
 10
334.43619443309461
 20
-48.950012493756716
 30
0.0
 11
334.43619443309461
 21
-44.366210980852642
 31
0.0
  0
CIRCLE
  5
19BEE
  8
KI
  6
CONTINUOUS
 62
     7
 10
331.43619443309501
 20
-93.950012493757399
 30
0.0
 40
8.0000000000003944
  0
LINE
  5
19BEF
  8
KI
  6
CONTINUOUS
 62
     7
 10
328.43619443309478
 20
-86.533814006661459
 30
0.0
 11
328.43619443309478
 21
-81.950012493757399
 31
0.0
  0
LINE
  5
19BF0
  8
KI
  6
CONTINUOUS
 62
     7
 10
334.43619443309461
 20
-86.533814006661459
 30
0.0
 11
334.43619443309461
 21
-81.950012493757399
 31
0.0
  0
CIRCLE
  5
19BF1
  8
KI
  6
CONTINUOUS
 62
     7
 10
331.43619443309501
 20
-36.950012493756731
 30
0.0
 40
8.0000000000003944
  0
LINE
  5
19BF2
  8
OS
  6
CONTINUOUS
 62
     2
 10
390.43619443309268
 20
-82.450035493754939
 30
0.0
 11
390.43619443309268
 21
37.54998750624064
 31
0.0
  0
LINE
  5
19BF3
  8
OS
  6
CONTINUOUS
 62
     2
 10
390.43619443309268
 20
37.54998750624064
 30
0.0
 11
380.43619443309268
 21
-82.450035493754527
 31
0.0
  0
LINE
  5
19BF4
  8
OS
  6
CONTINUOUS
 62
     2
 10
390.43619443309268
 20
-82.450035493754939
 30
0.0
 11
432.16556932487589
 21
-40.720652603843632
 31
0.0
  0
LINE
  5
19BF5
  8
KI
  6
CONTINUOUS
 62
     7
 10
380.43619443309268
 20
61.04998750624214
 30
0.0
 11
380.43619443309268
 21
-105.950012493759
 31
0.0
  0
LINE
  5
19BF6
  8
KI
  6
CONTINUOUS
 62
     7
 10
356.43619443309223
 20
-103.4500124937594
 30
0.0
 11
356.43619443309223
 21
58.549987506241692
 31
0.0
  0
LINE
  5
19BF7
  8
KI
  6
PHANTOM2
 62
     7
 10
380.43619443309268
 20
-125.9500124937594
 30
0.0
 11
380.43619443309268
 21
-105.950012493759
 31
0.0
  0
LINE
  5
19BF8
  8
OS
  6
CONTINUOUS
 62
     2
 10
432.16556932487538
 20
-82.450035493754939
 30
0.0
 11
380.43619443309268
 21
-82.450035493754527
 31
0.0
  0
LINE
  5
19BF9
  8
OS
  6
CONTINUOUS
 62
     2
 10
432.16556932487538
 20
-94.950012493759004
 30
0.0
 11
380.43619443309268
 21
-94.950012493759004
 31
0.0
  0
LINE
  5
19BFA
  8
KI
  6
CONTINUOUS
 62
     7
 10
356.43619443309422
 20
-48.950012493759118
 30
0.0
 11
356.43619443309223
 21
-81.950012493759019
 31
0.0
  0
LINE
  5
19BFB
  8
KI
  6
CONTINUOUS
 62
     7
 10
358.93619443309262
 20
-105.950012493759
 30
0.0
 11
380.43619443309268
 21
-105.950012493759
 31
0.0
  0
LINE
  5
19BFC
  8
KI
  6
CONTINUOUS
 62
     7
 10
356.43619443309223
 20
-103.4500124937594
 30
0.0
 11
358.93619443309262
 21
-105.950012493759
 31
0.0
  0
LINE
  5
19BFD
  8
OS
  6
CONTINUOUS
 62
     2
 10
432.16556932487589
 20
-4.179395383670566
 30
0.0
 11
390.43619443309268
 21
37.54998750624064
 31
0.0
  0
LINE
  5
19BFE
  8
OS
  6
CONTINUOUS
 62
     2
 10
432.16556932487538
 20
37.54998750624064
 30
0.0
 11
380.43619443309268
 21
37.54998750624064
 31
0.0
  0
LINE
  5
19BFF
  8
OS
  6
CONTINUOUS
 62
     2
 10
432.16556932487538
 20
50.049987506248392
 30
0.0
 11
380.43619443309268
 21
50.049987506248392
 31
0.0
  0
LINE
  5
19C00
  8
KI
  6
CONTINUOUS
 62
     7
 10
358.93619443309262
 20
61.04998750624214
 30
0.0
 11
380.43619443309268
 21
61.04998750624214
 31
0.0
  0
LINE
  5
19C01
  8
KI
  6
CONTINUOUS
 62
     7
 10
358.93619443309262
 20
61.04998750624214
 30
0.0
 11
356.43619443309223
 21
58.549987506241692
 31
0.0
  0
LINE
  5
19C02
  8
OS
  6
CONTINUOUS
 62
     2
 10
36.436194433093767
 20
-99.788274047297804
 30
0.0
 11
30.27445598663266
 21
-105.950012493759
 31
0.0
  0
LINE
  5
19C03
  8
OS
  6
CONTINUOUS
 62
     2
 10
36.436194433094002
 20
-89.888779110685846
 30
0.0
 11
20.374961050020669
 21
-105.950012493759
 31
0.0
  0
LINE
  5
19C04
  8
OS
  6
CONTINUOUS
 62
     2
 10
36.436194433093902
 20
-79.989284174073873
 30
0.0
 11
12.43619443309367
 21
-103.9892841740742
 31
0.0
  0
LINE
  5
19C05
  8
OS
  6
CONTINUOUS
 62
     2
 10
36.436194433093767
 20
-70.08978923746281
 30
0.0
 11
12.436194433093791
 21
-94.089789237462782
 31
0.0
  0
LINE
  5
19C06
  8
OS
  6
CONTINUOUS
 62
     2
 10
36.436194433093767
 20
-60.19029430085083
 30
0.0
 11
12.436194433093791
 21
-84.19029430085078
 31
0.0
  0
LINE
  5
19C07
  8
OS
  6
CONTINUOUS
 62
     2
 10
36.436194433093767
 20
-50.290799364239199
 30
0.0
 11
12.43619443309367
 21
-74.290799364239291
 31
0.0
  0
LINE
  5
19C08
  8
OS
  6
CONTINUOUS
 62
     2
 10
36.436194433093767
 20
-40.391304427627666
 30
0.0
 11
12.436194433093791
 21
-64.391304427627773
 31
0.0
  0
LINE
  5
19C09
  8
OS
  6
CONTINUOUS
 62
     2
 10
36.436194433093767
 20
-30.491809491015928
 30
0.0
 11
12.436194433093791
 21
-54.491809491015943
 31
0.0
  0
LINE
  5
19C0A
  8
OS
  6
CONTINUOUS
 62
     2
 10
36.436194433093767
 20
-20.59231455440419
 30
0.0
 11
12.43619443309367
 21
-44.59231455440419
 31
0.0
  0
LINE
  5
19C0B
  8
OS
  6
CONTINUOUS
 62
     2
 10
36.436194433093767
 20
-10.69281961779256
 30
0.0
 11
12.436194433093791
 21
-34.692819617792679
 31
0.0
  0
LINE
  5
19C0C
  8
OS
  6
CONTINUOUS
 62
     2
 10
36.436194433093902
 20
-0.7933246811809341
 30
0.0
 11
12.436194433093791
 21
-24.793324681181161
 31
0.0
  0
LINE
  5
19C0D
  8
OS
  6
CONTINUOUS
 62
     2
 10
36.436194433093767
 20
9.106170255430813
 30
0.0
 11
12.43619443309367
 21
-14.89382974456916
 31
0.0
  0
LINE
  5
19C0E
  8
OS
  6
CONTINUOUS
 62
     2
 10
36.436194433093767
 20
19.005665192042532
 30
0.0
 11
12.436194433093791
 21
-4.9943348079575571
 31
0.0
  0
LINE
  5
19C0F
  8
OS
  6
CONTINUOUS
 62
     2
 10
36.436194433093767
 20
28.905160128654082
 30
0.0
 11
12.436194433093791
 21
4.9051601286540709
 31
0.0
  0
LINE
  5
19C10
  8
OS
  6
CONTINUOUS
 62
     2
 10
35.181503874073108
 20
37.549964506245153
 30
0.0
 11
12.43619443309367
 21
14.80465506526582
 31
0.0
  0
LINE
  5
19C11
  8
OS
  6
CONTINUOUS
 62
     2
 10
25.28200893746148
 20
37.549964506245153
 30
0.0
 11
12.436194433093901
 21
24.704150001877561
 31
0.0
  0
LINE
  5
19C12
  8
OS
  6
CONTINUOUS
 62
     2
 10
15.3825140008499
 20
37.549964506245253
 30
0.0
 11
12.436194433093791
 21
34.60364493848909
 31
0.0
  0
LINE
  5
19C13
  8
OS
  6
CONTINUOUS
 62
     2
 10
380.43619443309268
 20
58.60364493848909
 30
0.0
 11
356.43619443309262
 21
34.60364493848909
 31
0.0
  0
LINE
  5
19C14
  8
OS
  6
CONTINUOUS
 62
     2
 10
380.43619443309268
 20
-99.788274047297804
 30
0.0
 11
374.27445598663161
 21
-105.950012493759
 31
0.0
  0
LINE
  5
19C15
  8
OS
  6
CONTINUOUS
 62
     2
 10
380.43619443309291
 20
-89.888779110685846
 30
0.0
 11
364.37496105001969
 21
-105.950012493759
 31
0.0
  0
LINE
  5
19C16
  8
OS
  6
CONTINUOUS
 62
     2
 10
380.43619443309279
 20
-79.989284174073873
 30
0.0
 11
356.7058302732496
 21
-103.71964833391711
 31
0.0
  0
LINE
  5
19C17
  8
OS
  6
CONTINUOUS
 62
     2
 10
380.43619443309279
 20
-0.7933246811809341
 30
0.0
 11
356.43619443309262
 21
-24.793324681181161
 31
0.0
  0
LINE
  5
19C18
  8
OS
  6
CONTINUOUS
 62
     2
 10
380.43619443309268
 20
9.106170255430813
 30
0.0
 11
356.43619443309262
 21
-14.89382974456916
 31
0.0
  0
LINE
  5
19C19
  8
OS
  6
CONTINUOUS
 62
     2
 10
380.43619443309268
 20
-50.290799364239199
 30
0.0
 11
356.43619443309262
 21
-74.290799364239291
 31
0.0
  0
LINE
  5
19C1A
  8
OS
  6
CONTINUOUS
 62
     2
 10
380.43619443309268
 20
-40.391304427627666
 30
0.0
 11
356.43619443309262
 21
-64.391304427627773
 31
0.0
  0
LINE
  5
19C1B
  8
OS
  6
CONTINUOUS
 62
     2
 10
380.43619443309268
 20
-30.491809491015928
 30
0.0
 11
356.43619443309262
 21
-54.491809491015943
 31
0.0
  0
LINE
  5
19C1C
  8
OS
  6
CONTINUOUS
 62
     2
 10
380.43619443309268
 20
-60.19029430085083
 30
0.0
 11
356.43619443309262
 21
-84.19029430085078
 31
0.0
  0
LINE
  5
19C1D
  8
OS
  6
CONTINUOUS
 62
     2
 10
380.43619443309268
 20
-70.08978923746281
 30
0.0
 11
356.43619443309262
 21
-94.089789237462782
 31
0.0
  0
LINE
  5
19C1E
  8
OS
  6
CONTINUOUS
 62
     2
 10
380.43619443309268
 20
-10.69281961779256
 30
0.0
 11
356.43619443309262
 21
-34.692819617792679
 31
0.0
  0
LINE
  5
19C1F
  8
OS
  6
CONTINUOUS
 62
     2
 10
380.43619443309268
 20
-20.59231455440419
 30
0.0
 11
356.43619443309262
 21
-44.59231455440419
 31
0.0
  0
LINE
  5
19C20
  8
OS
  6
CONTINUOUS
 62
     2
 10
380.43619443309268
 20
38.804655065265827
 30
0.0
 11
356.43619443309262
 21
14.80465506526582
 31
0.0
  0
LINE
  5
19C21
  8
OS
  6
CONTINUOUS
 62
     2
 10
380.43619443309268
 20
48.704150001877572
 30
0.0
 11
356.43619443309279
 21
24.704150001877561
 31
0.0
  0
LINE
  5
19C22
  8
OS
  6
CONTINUOUS
 62
     2
 10
380.43619443309268
 20
28.905160128654082
 30
0.0
 11
356.43619443309262
 21
4.9051601286540709
 31
0.0
  0
LINE
  5
19C23
  8
OS
  6
CONTINUOUS
 62
     2
 10
380.43619443309268
 20
19.005665192042532
 30
0.0
 11
356.43619443309262
 21
-4.9943348079575571
 31
0.0
  0
LINE
  5
19C24
  8
OS
  6
CONTINUOUS
 62
     2
 10
372.9830420642341
 20
61.04998750624214
 30
0.0
 11
356.43619443309262
 21
44.503139875100587
 31
0.0
  0
LINE
  5
19C25
  8
OS
  6
CONTINUOUS
 62
     2
 10
363.08354712762252
 20
61.04998750624214
 30
0.0
 11
356.43619443309251
 21
54.402634811712112
 31
0.0
  0
LINE
  5
19C26
  8
OS
  6
CONTINUOUS
 62
     2
 10
169.08354712762369
 20
61.04998750624214
 30
0.0
 11
162.4361944330935
 21
54.402634811712112
 31
0.0
  0
LINE
  5
19C27
  8
OS
  6
CONTINUOUS
 62
     2
 10
186.43619443309359
 20
9.106170255430813
 30
0.0
 11
162.4361944330935
 21
-14.89382974456916
 31
0.0
  0
LINE
  5
19C28
  8
OS
  6
CONTINUOUS
 62
     2
 10
186.43619443309359
 20
-0.7933246811809341
 30
0.0
 11
162.4361944330935
 21
-24.793324681181161
 31
0.0
  0
LINE
  5
19C29
  8
OS
  6
CONTINUOUS
 62
     2
 10
186.43619443309359
 20
-30.491809491015928
 30
0.0
 11
177.47799143035181
 21
-39.450012493757981
 31
0.0
  0
LINE
  5
19C2A
  8
OS
  6
CONTINUOUS
 62
     2
 10
186.43619443309359
 20
-20.59231455440419
 30
0.0
 11
167.57849649373981
 21
-39.450012493757981
 31
0.0
  0
LINE
  5
19C2B
  8
OS
  6
CONTINUOUS
 62
     2
 10
186.43619443309359
 20
-10.69281961779256
 30
0.0
 11
162.4361944330935
 21
-34.692819617792679
 31
0.0
  0
LINE
  5
19C2C
  8
OS
  6
CONTINUOUS
 62
     2
 10
186.43619443309359
 20
48.704150001877572
 30
0.0
 11
162.4361944330939
 21
24.704150001877561
 31
0.0
  0
LINE
  5
19C2D
  8
OS
  6
CONTINUOUS
 62
     2
 10
186.43619443309359
 20
38.804655065265827
 30
0.0
 11
162.4361944330935
 21
14.80465506526582
 31
0.0
  0
LINE
  5
19C2E
  8
OS
  6
CONTINUOUS
 62
     2
 10
186.43619443309359
 20
19.005665192042532
 30
0.0
 11
162.4361944330935
 21
-4.9943348079575571
 31
0.0
  0
LINE
  5
19C2F
  8
OS
  6
CONTINUOUS
 62
     2
 10
186.43619443309359
 20
28.905160128654082
 30
0.0
 11
162.4361944330935
 21
4.9051601286540709
 31
0.0
  0
LINE
  5
19C30
  8
OS
  6
CONTINUOUS
 62
     2
 10
178.98304206423501
 20
61.04998750624214
 30
0.0
 11
162.4361944330935
 21
44.503139875100587
 31
0.0
  0
LINE
  5
19C31
  8
OS
  6
CONTINUOUS
 62
     2
 10
186.40936571697009
 20
58.576816222365331
 30
0.0
 11
162.4361944330935
 21
34.60364493848909
 31
0.0
  0
LINE
  5
19C32
  8
OS
  6
CONTINUOUS
 62
     2
 10
-186.63828920768501
 20
152.606319972855
 30
0.0
 11
-189.58460877544101
 21
149.66000040509911
 31
0.0
  0
LINE
  5
19C33
  8
OS
  6
CONTINUOUS
 62
     2
 10
-169.58460877543729
 20
11.26808141931564
 30
0.0
 11
-176.2463702218985
 21
4.6063199728546351
 31
0.0
  0
LINE
  5
19C34
  8
OS
  6
CONTINUOUS
 62
     2
 10
-169.58460877543729
 20
130.06202065865611
 30
0.0
 11
-189.58460877544101
 21
110.0620206586524
 31
0.0
  0
LINE
  5
19C35
  8
OS
  6
CONTINUOUS
 62
     2
 10
-169.58460877543729
 20
120.16252572204419
 30
0.0
 11
-189.5846087754413
 21
100.1625257220408
 31
0.0
  0
LINE
  5
19C36
  8
OS
  6
CONTINUOUS
 62
     2
 10
-169.58460877543729
 20
60.765556102374383
 30
0.0
 11
-189.5846087754413
 21
40.765556102370709
 31
0.0
  0
LINE
  5
19C37
  8
OS
  6
CONTINUOUS
 62
     2
 10
-169.58460877543729
 20
70.665051038985894
 30
0.0
 11
-189.58460877544101
 21
50.665051038982263
 31
0.0
  0
LINE
  5
19C38
  8
OS
  6
CONTINUOUS
 62
     2
 10
-169.58460877543729
 20
80.564545975597625
 30
0.0
 11
-189.58460877544101
 21
60.564545975594122
 31
0.0
  0
LINE
  5
19C39
  8
OS
  6
CONTINUOUS
 62
     2
 10
-169.58460877543729
 20
50.86606116576273
 30
0.0
 11
-189.58460877544101
 21
30.866061165759209
 31
0.0
  0
LINE
  5
19C3A
  8
OS
  6
CONTINUOUS
 62
     2
 10
-169.58460877543729
 20
40.966566229150772
 30
0.0
 11
-189.58460877544101
 21
20.96656622914724
 31
0.0
  0
LINE
  5
19C3B
  8
OS
  6
CONTINUOUS
 62
     2
 10
-169.58460877543729
 20
21.167576355927611
 30
0.0
 11
-186.14586515851039
 21
4.6063199728546351
 31
0.0
  0
LINE
  5
19C3C
  8
OS
  6
CONTINUOUS
 62
     2
 10
-169.58460877543729
 20
31.067071292539591
 30
0.0
 11
-189.5846087754413
 21
11.06707129253572
 31
0.0
  0
LINE
  5
19C3D
  8
OS
  6
CONTINUOUS
 62
     2
 10
-169.58460877543729
 20
100.3635358488209
 30
0.0
 11
-189.58460877544101
 21
80.363535848817364
 31
0.0
  0
LINE
  5
19C3E
  8
OS
  6
CONTINUOUS
 62
     2
 10
-169.58460877543729
 20
90.464040912209384
 30
0.0
 11
-189.5846087754413
 21
70.46404091220586
 31
0.0
  0
LINE
  5
19C3F
  8
OS
  6
CONTINUOUS
 62
     2
 10
-169.58460877543729
 20
110.26303078543251
 30
0.0
 11
-189.58460877544101
 21
90.263030785428853
 31
0.0
  0
LINE
  5
19C40
  8
OS
  6
CONTINUOUS
 62
     2
 10
-169.58460877543729
 20
139.96151559526751
 30
0.0
 11
-189.58460877544101
 21
119.961515595264
 31
0.0
  0
LINE
  5
19C41
  8
OS
  6
CONTINUOUS
 62
     2
 10
-169.58460877543729
 20
149.8610105318794
 30
0.0
 11
-189.5846087754413
 21
129.86101053187571
 31
0.0
  0
LINE
  5
19C42
  8
OS
  6
CONTINUOUS
 62
     2
 10
-176.7387942710734
 20
152.606319972855
 30
0.0
 11
-189.58460877544101
 21
139.76050546848751
 31
0.0
  0
LINE
  5
19C43
  8
OS
  6
CONTINUOUS
 62
     2
 10
-192.5846087754384
 20
135.55263954061101
 30
0.0
 11
-195.53092834319429
 21
132.60631997285481
 31
0.0
  0
LINE
  5
19C44
  8
OS
  6
CONTINUOUS
 62
     2
 10
-215.1289080896376
 20
152.60631997285799
 30
0.0
 11
-235.1289080896413
 21
132.60631997285481
 31
0.0
  0
LINE
  5
19C45
  8
OS
  6
CONTINUOUS
 62
     2
 10
-205.2294131530258
 20
152.60631997285799
 30
0.0
 11
-225.22941315302961
 21
132.60631997285481
 31
0.0
  0
LINE
  5
19C46
  8
OS
  6
CONTINUOUS
 62
     2
 10
-264.62638277269599
 20
152.60631997285799
 30
0.0
 11
-272.58460877543803
 21
144.64809397011641
 31
0.0
  0
LINE
  5
19C47
  8
OS
  6
CONTINUOUS
 62
     2
 10
-254.72688783608439
 20
152.60631997285799
 30
0.0
 11
-272.58460877543803
 21
134.7485990335046
 31
0.0
  0
LINE
  5
19C48
  8
OS
  6
CONTINUOUS
 62
     2
 10
-244.8273928994725
 20
152.60631997285799
 30
0.0
 11
-264.82739289947642
 21
132.60631997285481
 31
0.0
  0
LINE
  5
19C49
  8
OS
  6
CONTINUOUS
 62
     2
 10
-234.9278979628611
 20
152.60631997285799
 30
0.0
 11
-254.9278979628649
 21
132.60631997285481
 31
0.0
  0
LINE
  5
19C4A
  8
OS
  6
CONTINUOUS
 62
     2
 10
-225.02840302624941
 20
152.60631997285799
 30
0.0
 11
-245.0284030262529
 21
132.60631997285469
 31
0.0
  0
LINE
  5
19C4B
  8
OS
  6
CONTINUOUS
 62
     2
 10
-195.3299182164144
 20
152.60631997285799
 30
0.0
 11
-215.32991821641781
 21
132.60631997285469
 31
0.0
  0
LINE
  5
19C4C
  8
OS
  6
CONTINUOUS
 62
     2
 10
-192.5846087754384
 20
145.45213447722239
 30
0.0
 11
-205.43042327980581
 21
132.60631997285489
 31
0.0
  0
LINE
  5
19C4D
  8
OS
  6
CONTINUOUS
 62
     2
 10
-328.12638277269627
 20
24.6063199728585
 30
0.0
 11
-348.12638277270031
 21
4.6063199728546351
 31
0.0
  0
LINE
  5
19C4E
  8
OS
  6
CONTINUOUS
 62
     2
 10
-256.08460877543871
 20
7.5526395406111533
 30
0.0
 11
-259.03092834319477
 21
4.6063199728549762
 31
0.0
  0
LINE
  5
19C4F
  8
OS
  6
CONTINUOUS
 62
     2
 10
-268.72941315302631
 20
24.6063199728585
 30
0.0
 11
-288.72941315302961
 21
4.6063199728549762
 31
0.0
  0
LINE
  5
19C50
  8
OS
  6
CONTINUOUS
 62
     2
 10
-278.6289080896376
 20
24.6063199728585
 30
0.0
 11
-298.62890808964153
 21
4.6063199728549762
 31
0.0
  0
LINE
  5
19C51
  8
OS
  6
CONTINUOUS
 62
     2
 10
-318.22688783608447
 20
24.6063199728585
 30
0.0
 11
-338.22688783608851
 21
4.6063199728545214
 31
0.0
  0
LINE
  5
19C52
  8
OS
  6
CONTINUOUS
 62
     2
 10
-308.32739289947301
 20
24.6063199728585
 30
0.0
 11
-328.32739289947648
 21
4.6063199728549762
 31
0.0
  0
LINE
  5
19C53
  8
OS
  6
CONTINUOUS
 62
     2
 10
-298.42789796286138
 20
24.6063199728585
 30
0.0
 11
-318.42789796286507
 21
4.6063199728549762
 31
0.0
  0
LINE
  5
19C54
  8
OS
  6
CONTINUOUS
 62
     2
 10
-288.52840302624958
 20
24.6063199728585
 30
0.0
 11
-308.5284030262531
 21
4.6063199728548589
 31
0.0
  0
LINE
  5
19C55
  8
OS
  6
CONTINUOUS
 62
     2
 10
-258.82991821641463
 20
24.6063199728585
 30
0.0
 11
-278.82991821641798
 21
4.6063199728548589
 31
0.0
  0
LINE
  5
19C56
  8
OS
  6
CONTINUOUS
 62
     2
 10
-256.08460877543882
 20
17.452134477222671
 30
0.0
 11
-268.9304232798064
 21
4.6063199728550881
 31
0.0
  0
LINE
  5
19C57
  8
OS
  6
CONTINUOUS
 62
     2
 10
-338.02587770930802
 20
24.6063199728585
 30
0.0
 11
-353.58460877543843
 21
9.0475889067281514
 31
0.0
  0
LINE
  5
19C58
  8
OS
  6
CONTINUOUS
 62
     2
 10
-347.92537264591982
 20
24.6063199728585
 30
0.0
 11
-353.58460877543843
 21
18.94708384334001
 31
0.0
  0
LINE
  5
19C59
  8
SU
  6
CONTINUOUS
 62
     3
 10
-193.91577576229341
 20
-272.06251298977298
 30
0.0
 11
-220.5846087754374
 21
-245.39368002714471
 31
0.0
  0
LINE
  5
19C5A
  8
SU
  6
CONTINUOUS
 62
     3
 10
-193.91577576229341
 20
-272.06251298977298
 30
0.0
 11
-157.6685938976124
 21
-272.06251298977298
 31
0.0
  0
LINE
  5
19C5B
  8
SU
  6
CONTINUOUS
 62
     3
 10
-153.6917595367031
 20
179.2751529354835
 30
0.0
 11
-107.9379408212133
 21
179.2751529354835
 31
0.0
  0
LINE
  5
19C5C
  8
SU
  6
CONTINUOUS
 62
     3
 10
-153.6917595367031
 20
179.2751529354835
 30
0.0
 11
-180.3605925498471
 21
152.606319972855
 31
0.0
  0
LINE
  5
19C5D
  8
OS
  6
CONTINUOUS
 62
     2
 10
-343.58460877543882
 20
222.60631606293549
 30
0.0
 11
-343.5846087754386
 21
24.606319972854848
 31
0.0
  0
LINE
  5
19C5E
  8
OS
  6
CONTINUOUS
 62
     2
 10
-335.08460877543803
 20
222.60631606293549
 30
0.0
 11
-335.08460877543803
 21
24.606319972854511
 31
0.0
  0
LINE
  5
19C5F
  8
OS
  6
CONTINUOUS
 62
     2
 10
-202.5846087754378
 20
222.60631606293549
 30
0.0
 11
-202.5846087754378
 21
152.60631997285469
 31
0.0
  0
LINE
  5
19C60
  8
OS
  6
CONTINUOUS
 62
     2
 10
-211.08460877543871
 20
222.60631606293549
 30
0.0
 11
-211.0846087754384
 21
152.60631997285469
 31
0.0
  0
LINE
  5
19C61
  8
OS
  6
CONTINUOUS
 62
     2
 10
-333.08460877543803
 20
212.60631997285441
 30
0.0
 11
-213.08460877543871
 21
212.60631997285441
 31
0.0
  0
LINE
  5
19C62
  8
OS
  6
CONTINUOUS
 62
     2
 10
-270.58460877543803
 20
132.60631997285481
 30
0.0
 11
-270.58460877543803
 21
24.606319972854848
 31
0.0
  0
LINE
  5
19C63
  8
OS
  6
CONTINUOUS
 62
     2
 10
-262.08460877543718
 20
24.606319972854848
 30
0.0
 11
-262.08460877543791
 21
132.60631997285481
 31
0.0
  0
LINE
  5
19C64
  8
OS
  6
CONTINUOUS
 62
     2
 10
12.436190523174011
 20
-92.950035493754044
 30
0.0
 11
-44.834430675122888
 21
-92.950035493754044
 31
0.0
  0
LINE
  5
19C65
  8
OS
  6
CONTINUOUS
 62
     2
 10
432.16556932487538
 20
-92.950012493759004
 30
0.0
 11
380.43619443309268
 21
-92.950012493759004
 31
0.0
  0
LINE
  5
19C66
  8
OS
  6
CONTINUOUS
 62
     2
 10
432.16556932487538
 20
-84.450035493754939
 30
0.0
 11
380.43619443309268
 21
-84.450035493754513
 31
0.0
  0
LINE
  5
19C67
  8
OS
  6
CONTINUOUS
 62
     2
 10
12.436190523174011
 20
-84.450035493754513
 30
0.0
 11
-44.834430675122888
 21
-84.450035493754513
 31
0.0
  0
LINE
  5
19C68
  8
OS
  6
CONTINUOUS
 62
     2
 10
36.436194433093767
 20
-33.450012493758088
 30
0.0
 11
162.43619443309339
 21
-33.450012493757747
 31
0.0
  0
LINE
  5
19C69
  8
OS
  6
CONTINUOUS
 62
     2
 10
36.436194433093441
 20
-24.950012493758209
 30
0.0
 11
162.43619443309339
 21
-24.950012493757519
 31
0.0
  0
LINE
  5
19C6A
  8
OS
  6
CONTINUOUS
 62
     2
 10
-44.834430675122888
 20
39.549964506245153
 30
0.0
 11
162.43619443309339
 21
39.549964506245153
 31
0.0
  0
LINE
  5
19C6B
  8
OS
  6
CONTINUOUS
 62
     2
 10
-44.834430675122888
 20
48.049987506240889
 30
0.0
 11
162.4361944330935
 21
48.049987506240889
 31
0.0
  0
LINE
  5
19C6C
  8
OS
  6
CONTINUOUS
 62
     2
 10
432.16556932487538
 20
48.049987506248392
 30
0.0
 11
380.43619443309268
 21
48.049987506248392
 31
0.0
  0
LINE
  5
19C6D
  8
OS
  6
CONTINUOUS
 62
     2
 10
432.16556932487538
 20
39.54998750624064
 30
0.0
 11
380.43619443309268
 21
39.54998750624064
 31
0.0
  0
LINE
  5
19C6E
  8
KI
  6
PHANTOM2
 62
     7
 10
260.43619443309279
 20
58.049987506241862
 30
0.0
 11
356.43619443309223
 21
58.049987506241472
 31
0.0
  0
LINE
  5
19C6F
  8
KI
  6
CONTINUOUS
 62
     7
 10
258.43619443309279
 20
-48.950012493759118
 30
0.0
 11
162.4361944330924
 21
-48.950012493759118
 31
0.0
  0
LINE
  5
19C70
  8
KI
  6
CONTINUOUS
 62
     7
 10
258.43619443309279
 20
-51.950012493759118
 30
0.0
 11
162.4361944330924
 21
-51.950012493759118
 31
0.0
  0
LINE
  5
19C71
  8
KI
  6
CONTINUOUS
 62
     7
 10
260.43619443309279
 20
-78.950012493759232
 30
0.0
 11
356.43619443309223
 21
-78.950012493759004
 31
0.0
  0
LINE
  5
19C72
  8
KI
  6
CONTINUOUS
 62
     7
 10
260.43619443309279
 20
-81.950012493758223
 30
0.0
 11
356.43619443309223
 21
-81.950012493759019
 31
0.0
  0
LINE
  5
19C73
  8
KI
  6
PHANTOM2
 62
     7
 10
260.43619443309279
 20
-105.95001249375871
 30
0.0
 11
358.93619443309262
 21
-105.950012493759
 31
0.0
  0
LINE
  5
19C74
  8
KI
  6
PHANTOM2
 62
     7
 10
260.43619443309279
 20
-125.9500124937594
 30
0.0
 11
380.43619443309268
 21
-125.9500124937594
 31
0.0
  0
LINE
  5
19C75
  8
KI
  6
CONTINUOUS
 62
     7
 10
-189.58460877543831
 20
-119.393680027145
 30
0.0
 11
-189.5846087754384
 21
152.60631997285469
 31
0.0
  0
LINE
  5
19C76
  8
KI
  6
CONTINUOUS
 62
     7
 10
-213.58460877543729
 20
-121.39368002714529
 30
0.0
 11
-213.58460877543729
 21
-235.3936800271446
 31
0.0
  0
LINE
  5
19C77
  8
KI
  6
CONTINUOUS
 62
     7
 10
-216.5846087754374
 20
-121.39368002714529
 30
0.0
 11
-216.5846087754374
 21
-235.39368002714551
 31
0.0
  0
LINE
  5
19C78
  8
KI
  6
CONTINUOUS
 62
     7
 10
-243.5846087754374
 20
-119.393680027145
 30
0.0
 11
-243.5846087754374
 21
14.60631997285577
 31
0.0
  0
LINE
  5
19C79
  8
KI
  6
CONTINUOUS
 62
     7
 10
-246.5846087754372
 20
-119.393680027145
 30
0.0
 11
-246.5846087754372
 21
14.60631997285577
 31
0.0
  0
LINE
  5
19C7A
  8
KI
  6
CONTINUOUS
 62
     7
 10
-256.08460877543843
 20
-121.39368002714529
 30
0.0
 11
-256.08460877543882
 21
-245.39368002714511
 31
0.0
  0
LINE
  5
19C7B
  8
KI
  6
CONTINUOUS
 62
     7
 10
-356.58460877543843
 20
-121.39368002714529
 30
0.0
 11
-356.58460877543843
 21
-245.39368002714511
 31
0.0
  0
LINE
  5
19C7C
  8
SU
  6
CONTINUOUS
 62
     3
 10
-125.5846049754384
 20
-235.39368002714511
 30
0.0
 11
-113.5846087754385
 21
-235.39368002714511
 31
0.0
  0
LINE
  5
19C7D
  8
SU
  6
CONTINUOUS
 62
     3
 10
-125.4646050754385
 20
-235.593679827145
 30
0.0
 11
-113.70460867543839
 21
-235.593679827145
 31
0.0
  0
LINE
  5
19C7E
  8
SU
  6
CONTINUOUS
 62
     3
 10
-125.3446051754385
 20
-235.79367962714511
 30
0.0
 11
-113.8246085754385
 21
-235.79367962714511
 31
0.0
  0
LINE
  5
19C7F
  8
SU
  6
CONTINUOUS
 62
     3
 10
-125.22460527543851
 20
-235.99367942714511
 30
0.0
 11
-113.9446084754385
 21
-235.99367942714511
 31
0.0
  0
LINE
  5
19C80
  8
SU
  6
CONTINUOUS
 62
     3
 10
-125.1046053754385
 20
-236.1936792271452
 30
0.0
 11
-114.0646082754384
 21
-236.1936792271452
 31
0.0
  0
LINE
  5
19C81
  8
SU
  6
CONTINUOUS
 62
     3
 10
-124.98460557543859
 20
-236.3936790271452
 30
0.0
 11
-114.1846081754386
 21
-236.3936790271452
 31
0.0
  0
LINE
  5
19C82
  8
SU
  6
CONTINUOUS
 62
     3
 10
-124.8646056754386
 20
-236.59367892714499
 30
0.0
 11
-114.30460807543859
 21
-236.59367892714499
 31
0.0
  0
LINE
  5
19C83
  8
SU
  6
CONTINUOUS
 62
     3
 10
-124.7446066754384
 20
-236.79367872714499
 30
0.0
 11
-114.42460797543851
 21
-236.79367872714499
 31
0.0
  0
LINE
  5
19C84
  8
SU
  6
CONTINUOUS
 62
     3
 10
-124.6246068754386
 20
-236.99367852714511
 30
0.0
 11
-114.5446078754386
 21
-236.99367852714511
 31
0.0
  0
LINE
  5
19C85
  8
SU
  6
CONTINUOUS
 62
     3
 10
-124.50460697543851
 20
-237.19367832714511
 30
0.0
 11
-114.6646077754386
 21
-237.19367832714511
 31
0.0
  0
LINE
  5
19C86
  8
SU
  6
CONTINUOUS
 62
     3
 10
-124.3846070754385
 20
-237.39367812714519
 30
0.0
 11
-114.78460767543839
 21
-237.39367812714519
 31
0.0
  0
LINE
  5
19C87
  8
SU
  6
CONTINUOUS
 62
     3
 10
-124.2646071754385
 20
-237.59367792714519
 30
0.0
 11
-114.9046074754386
 21
-237.59367792714519
 31
0.0
  0
LINE
  5
19C88
  8
SU
  6
CONTINUOUS
 62
     3
 10
-124.1446072754385
 20
-237.79367772714531
 30
0.0
 11
-115.02460737543861
 21
-237.79367772714531
 31
0.0
  0
LINE
  5
19C89
  8
SU
  6
CONTINUOUS
 62
     3
 10
-124.02460737543851
 20
-237.99367752714519
 30
0.0
 11
-115.1446072754385
 21
-237.99367752714519
 31
0.0
  0
LINE
  5
19C8A
  8
SU
  6
CONTINUOUS
 62
     3
 10
-123.78460767543839
 20
-238.393677127145
 30
0.0
 11
-115.38460707543859
 21
-238.393677127145
 31
0.0
  0
LINE
  5
19C8B
  8
SU
  6
CONTINUOUS
 62
     3
 10
-123.9046074754384
 20
-238.19367732714511
 30
0.0
 11
-115.2646071754386
 21
-238.19367732714511
 31
0.0
  0
LINE
  5
19C8C
  8
SU
  6
CONTINUOUS
 62
     3
 10
-123.0646082754385
 20
-239.59367602714499
 30
0.0
 11
-116.10460637543861
 21
-239.59367602714499
 31
0.0
  0
LINE
  5
19C8D
  8
SU
  6
CONTINUOUS
 62
     3
 10
-122.9446093754384
 20
-239.79367582714511
 30
0.0
 11
-116.2246062754386
 21
-239.79367582714511
 31
0.0
  0
LINE
  5
19C8E
  8
SU
  6
CONTINUOUS
 62
     3
 10
-122.82460947543851
 20
-239.99367562714511
 30
0.0
 11
-116.3446061754386
 21
-239.99367562714511
 31
0.0
  0
LINE
  5
19C8F
  8
SU
  6
CONTINUOUS
 62
     3
 10
-122.7046095754384
 20
-240.19367542714519
 30
0.0
 11
-116.4646060754386
 21
-240.19367542714519
 31
0.0
  0
LINE
  5
19C90
  8
SU
  6
CONTINUOUS
 62
     3
 10
-122.58460977543839
 20
-240.3936752271452
 30
0.0
 11
-116.5846058754385
 21
-240.3936752271452
 31
0.0
  0
LINE
  5
19C91
  8
SU
  6
CONTINUOUS
 62
     3
 10
-122.4646098754385
 20
-240.59367502714531
 30
0.0
 11
-116.7046057754384
 21
-240.59367502714531
 31
0.0
  0
LINE
  5
19C92
  8
SU
  6
CONTINUOUS
 62
     3
 10
-122.3446099754386
 20
-240.7936749271453
 30
0.0
 11
-116.82460567543851
 21
-240.7936749271453
 31
0.0
  0
LINE
  5
19C93
  8
SU
  6
CONTINUOUS
 62
     3
 10
-122.22461007543851
 20
-240.9936747271453
 30
0.0
 11
-116.9446055754385
 21
-240.9936747271453
 31
0.0
  0
LINE
  5
19C94
  8
SU
  6
CONTINUOUS
 62
     3
 10
-122.1046101754384
 20
-241.1936745271453
 30
0.0
 11
-117.0646054754385
 21
-241.1936745271453
 31
0.0
  0
LINE
  5
19C95
  8
SU
  6
CONTINUOUS
 62
     3
 10
-121.9846102754386
 20
-241.39367432714519
 30
0.0
 11
-117.18460537543839
 21
-241.39367432714519
 31
0.0
  0
LINE
  5
19C96
  8
SU
  6
CONTINUOUS
 62
     3
 10
-121.8646103754386
 20
-241.59367412714519
 30
0.0
 11
-117.3046052754386
 21
-241.59367412714519
 31
0.0
  0
LINE
  5
19C97
  8
SU
  6
CONTINUOUS
 62
     3
 10
-121.7446114754385
 20
-241.79367392714531
 30
0.0
 11
-117.42460507543851
 21
-241.79367392714531
 31
0.0
  0
LINE
  5
19C98
  8
SU
  6
CONTINUOUS
 62
     3
 10
-121.62461157543861
 20
-241.99367372714519
 30
0.0
 11
-117.5446049754385
 21
-241.99367372714519
 31
0.0
  0
LINE
  5
19C99
  8
SU
  6
CONTINUOUS
 62
     3
 10
-121.5046116754386
 20
-242.19367352714499
 30
0.0
 11
-117.6646048754385
 21
-242.19367352714499
 31
0.0
  0
LINE
  5
19C9A
  8
SU
  6
CONTINUOUS
 62
     3
 10
-121.3846118754384
 20
-242.393673327145
 30
0.0
 11
-117.7846047754385
 21
-242.393673327145
 31
0.0
  0
LINE
  5
19C9B
  8
SU
  6
CONTINUOUS
 62
     3
 10
-121.2646119754386
 20
-242.59367312714511
 30
0.0
 11
-117.90460467543851
 21
-242.59367312714511
 31
0.0
  0
LINE
  5
19C9C
  8
SU
  6
CONTINUOUS
 62
     3
 10
-121.1446120754384
 20
-242.79367292714511
 30
0.0
 11
-118.0246045754385
 21
-242.79367292714511
 31
0.0
  0
LINE
  5
19C9D
  8
SU
  6
CONTINUOUS
 62
     3
 10
-121.02461217543851
 20
-242.9936728271453
 30
0.0
 11
-118.1446044754385
 21
-242.9936728271453
 31
0.0
  0
LINE
  5
19C9E
  8
SU
  6
CONTINUOUS
 62
     3
 10
-120.7846123754384
 20
-243.3936724271453
 30
0.0
 11
-118.3846041754385
 21
-243.3936724271453
 31
0.0
  0
LINE
  5
19C9F
  8
SU
  6
CONTINUOUS
 62
     3
 10
-120.90461227543859
 20
-243.1936726271453
 30
0.0
 11
-118.2646042754386
 21
-243.1936726271453
 31
0.0
  0
LINE
  5
19CA0
  8
SU
  6
CONTINUOUS
 62
     3
 10
-120.6646124754385
 20
-243.5936722271453
 30
0.0
 11
-118.50460407543839
 21
-243.5936722271453
 31
0.0
  0
LINE
  5
19CA1
  8
SU
  6
CONTINUOUS
 62
     3
 10
-120.5446126254384
 20
-243.79367202714511
 30
0.0
 11
-118.6246039654385
 21
-243.79367202714511
 31
0.0
  0
LINE
  5
19CA2
  8
SU
  6
CONTINUOUS
 62
     3
 10
-120.4246127454384
 20
-243.99367182714511
 30
0.0
 11
-118.7446038554385
 21
-243.99367182714511
 31
0.0
  0
LINE
  5
19CA3
  8
SU
  6
CONTINUOUS
 62
     3
 10
-120.3046138154385
 20
-244.19367162714519
 30
0.0
 11
-118.86460373543839
 21
-244.19367162714519
 31
0.0
  0
LINE
  5
19CA4
  8
SU
  6
CONTINUOUS
 62
     3
 10
-120.1846139254385
 20
-244.39367142714519
 30
0.0
 11
-118.9846036254385
 21
-244.39367142714519
 31
0.0
  0
LINE
  5
19CA5
  8
SU
  6
CONTINUOUS
 62
     3
 10
-119.94461129543851
 20
-244.7936710671452
 30
0.0
 11
-119.22460339543851
 21
-244.7936710671452
 31
0.0
  0
LINE
  5
19CA6
  8
SU
  6
CONTINUOUS
 62
     3
 10
-120.0646140354384
 20
-244.5936712571453
 30
0.0
 11
-119.1046035154385
 21
-244.5936712571453
 31
0.0
  0
LINE
  5
19CA7
  8
SU
  6
CONTINUOUS
 62
     3
 10
-119.8246114054384
 20
-244.993670867145
 30
0.0
 11
-119.3446032854384
 21
-244.993670867145
 31
0.0
  0
LINE
  5
19CA8
  8
SU
  6
CONTINUOUS
 62
     3
 10
-119.5846107979277
 20
-245.3936842081188
 30
0.0
 11
-113.58460887543851
 21
-235.39368042714531
 31
0.0
  0
LINE
  5
19CA9
  8
SU
  6
CONTINUOUS
 62
     3
 10
-119.7046162854386
 20
-245.1936678171453
 30
0.0
 11
-119.4646012654384
 21
-245.1936678171453
 31
0.0
  0
LINE
  5
19CAA
  8
SU
  6
CONTINUOUS
 62
     3
 10
-119.5846087136306
 20
-245.39368020729609
 30
0.0
 11
-125.5846044754384
 21
-235.3936801271453
 31
0.0
  0
LINE
  5
19CAB
  8
SU
  6
CONTINUOUS
 62
     3
 10
-123.1846091754386
 20
-239.39367622714499
 30
0.0
 11
-115.9846064754386
 21
-239.39367622714499
 31
0.0
  0
LINE
  5
19CAC
  8
SU
  6
CONTINUOUS
 62
     3
 10
-123.30460907543851
 20
-239.19367642714519
 30
0.0
 11
-115.8646065754386
 21
-239.19367642714519
 31
0.0
  0
LINE
  5
19CAD
  8
SU
  6
CONTINUOUS
 62
     3
 10
-123.42460797543851
 20
-238.99367662714531
 30
0.0
 11
-115.7446066754385
 21
-238.99367662714531
 31
0.0
  0
LINE
  5
19CAE
  8
SU
  6
CONTINUOUS
 62
     3
 10
-123.5446078754385
 20
-238.79367682714519
 30
0.0
 11
-115.6246068754386
 21
-238.79367682714519
 31
0.0
  0
LINE
  5
19CAF
  8
SU
  6
CONTINUOUS
 62
     3
 10
-123.6646077754385
 20
-238.59367692714511
 30
0.0
 11
-115.50460697543851
 21
-238.59367692714511
 31
0.0
  0
LINE
  5
19CB0
  8
SU
  6
CONTINUOUS
 62
     3
 10
-113.5846125754381
 20
-5.3936800271453631
 30
0.0
 11
-125.5846087754382
 21
-5.3936800271453631
 31
0.0
  0
LINE
  5
19CB1
  8
SU
  6
CONTINUOUS
 62
     3
 10
-113.7046124754384
 20
-5.1936802271453661
 30
0.0
 11
-125.4646088754381
 21
-5.193680227145359
 31
0.0
  0
LINE
  5
19CB2
  8
SU
  6
CONTINUOUS
 62
     3
 10
-113.82461237543841
 20
-4.9936804271453621
 30
0.0
 11
-125.34460897543831
 21
-4.9936804271453612
 31
0.0
  0
LINE
  5
19CB3
  8
SU
  6
CONTINUOUS
 62
     3
 10
-113.9446122754381
 20
-4.7936806271453651
 30
0.0
 11
-125.22460907543839
 21
-4.793680627145358
 31
0.0
  0
LINE
  5
19CB4
  8
SU
  6
CONTINUOUS
 62
     3
 10
-114.0646121754381
 20
-4.5936808271453611
 30
0.0
 11
-125.10460927543841
 21
-4.5936808271453611
 31
0.0
  0
LINE
  5
19CB5
  8
SU
  6
CONTINUOUS
 62
     3
 10
-114.184611975438
 20
-4.3936810271453641
 30
0.0
 11
-124.9846093754384
 21
-4.393681027145357
 31
0.0
  0
LINE
  5
19CB6
  8
SU
  6
CONTINUOUS
 62
     3
 10
-114.3046118754384
 20
-4.193681127145366
 30
0.0
 11
-124.8646094754382
 21
-4.193681127145366
 31
0.0
  0
LINE
  5
19CB7
  8
SU
  6
CONTINUOUS
 62
     3
 10
-114.4246108754384
 20
-3.9936813271453682
 30
0.0
 11
-124.7446095754384
 21
-3.9936813271453642
 31
0.0
  0
LINE
  5
19CB8
  8
SU
  6
CONTINUOUS
 62
     3
 10
-114.54461067543831
 20
-3.7936815271453681
 30
0.0
 11
-124.62460967543841
 21
-3.7936815271453641
 31
0.0
  0
LINE
  5
19CB9
  8
SU
  6
CONTINUOUS
 62
     3
 10
-114.6646105754381
 20
-3.593681727145368
 30
0.0
 11
-124.5046097754382
 21
-3.5936817271453632
 31
0.0
  0
LINE
  5
19CBA
  8
SU
  6
CONTINUOUS
 62
     3
 10
-114.7846104754381
 20
-3.3936819271453631
 30
0.0
 11
-124.3846098754384
 21
-3.3936819271453631
 31
0.0
  0
LINE
  5
19CBB
  8
SU
  6
CONTINUOUS
 62
     3
 10
-114.9046103754381
 20
-3.1936821271453661
 30
0.0
 11
-124.2646100754382
 21
-3.193682127145363
 31
0.0
  0
LINE
  5
19CBC
  8
SU
  6
CONTINUOUS
 62
     3
 10
-115.02461027543831
 20
-2.9936823271453621
 30
0.0
 11
-124.1446101754384
 21
-2.9936823271453621
 31
0.0
  0
LINE
  5
19CBD
  8
SU
  6
CONTINUOUS
 62
     3
 10
-115.1446101754382
 20
-2.793682527145362
 30
0.0
 11
-124.02461027543841
 21
-2.793682527145362
 31
0.0
  0
LINE
  5
19CBE
  8
SU
  6
CONTINUOUS
 62
     3
 10
-115.3846098754381
 20
-2.3936829271453641
 30
0.0
 11
-123.7846104754384
 21
-2.3936829271453601
 31
0.0
  0
LINE
  5
19CBF
  8
SU
  6
CONTINUOUS
 62
     3
 10
-115.2646100754382
 20
-2.5936827271453642
 30
0.0
 11
-123.9046103754382
 21
-2.5936827271453602
 31
0.0
  0
LINE
  5
19CC0
  8
SU
  6
CONTINUOUS
 62
     3
 10
-116.10460927543841
 20
-1.193684027145367
 30
0.0
 11
-123.0646111754384
 21
-1.193684027145365
 31
0.0
  0
LINE
  5
19CC1
  8
SU
  6
CONTINUOUS
 62
     3
 10
-116.22460817543841
 20
-0.9936842271453663
 30
0.0
 11
-122.94461127543811
 21
-0.9936842271453648
 31
0.0
  0
LINE
  5
19CC2
  8
SU
  6
CONTINUOUS
 62
     3
 10
-116.3446080754384
 20
-0.7936844271453662
 30
0.0
 11
-122.82461137543839
 21
-0.7936844271453643
 31
0.0
  0
LINE
  5
19CC3
  8
SU
  6
CONTINUOUS
 62
     3
 10
-116.4646079754384
 20
-0.5936846271453656
 30
0.0
 11
-122.7046114754384
 21
-0.5936846271453639
 31
0.0
  0
LINE
  5
19CC4
  8
SU
  6
CONTINUOUS
 62
     3
 10
-116.5846077754381
 20
-0.393684827145365
 30
0.0
 11
-122.5846116754384
 21
-0.3936848271453632
 31
0.0
  0
LINE
  5
19CC5
  8
SU
  6
CONTINUOUS
 62
     3
 10
-116.7046076754384
 20
-0.1936850271453645
 30
0.0
 11
-122.4646117754381
 21
-0.1936850271453627
 31
0.0
  0
LINE
  5
19CC6
  8
SU
  6
CONTINUOUS
 62
     3
 10
-116.82460757543831
 20
0.0063148728546301
 30
0.0
 11
-122.3446118754383
 21
0.0063148728546318
 31
0.0
  0
LINE
  5
19CC7
  8
SU
  6
CONTINUOUS
 62
     3
 10
-116.9446074754384
 20
0.2063146728546306
 30
0.0
 11
-122.22461197543841
 21
0.2063146728546323
 31
0.0
  0
LINE
  5
19CC8
  8
SU
  6
CONTINUOUS
 62
     3
 10
-117.0646073754384
 20
0.4063144728546312
 30
0.0
 11
-122.1046120754384
 21
0.406314472854633
 31
0.0
  0
LINE
  5
19CC9
  8
SU
  6
CONTINUOUS
 62
     3
 10
-117.1846072754384
 20
0.6063142728546325
 30
0.0
 11
-121.9846121754382
 21
0.6063142728546325
 31
0.0
  0
LINE
  5
19CCA
  8
SU
  6
CONTINUOUS
 62
     3
 10
-117.30460717543841
 20
0.8063140728546326
 30
0.0
 11
-121.8646122754384
 21
0.8063140728546333
 31
0.0
  0
LINE
  5
19CCB
  8
SU
  6
CONTINUOUS
 62
     3
 10
-117.4246060754384
 20
1.006313872854631
 30
0.0
 11
-121.7446124754381
 21
1.006313872854631
 31
0.0
  0
LINE
  5
19CCC
  8
SU
  6
CONTINUOUS
 62
     3
 10
-117.5446059754384
 20
1.2063136728546331
 30
0.0
 11
-121.62461257543841
 21
1.2063136728546331
 31
0.0
  0
LINE
  5
19CCD
  8
SU
  6
CONTINUOUS
 62
     3
 10
-117.6646058754384
 20
1.4063134728546309
 30
0.0
 11
-121.50461267543839
 21
1.4063134728546309
 31
0.0
  0
LINE
  5
19CCE
  8
SU
  6
CONTINUOUS
 62
     3
 10
-117.7846056754384
 20
1.6063132728546341
 30
0.0
 11
-121.3846127754381
 21
1.606313272854635
 31
0.0
  0
LINE
  5
19CCF
  8
SU
  6
CONTINUOUS
 62
     3
 10
-117.9046055754384
 20
1.806313072854635
 30
0.0
 11
-121.2646128754384
 21
1.806313072854635
 31
0.0
  0
LINE
  5
19CD0
  8
SU
  6
CONTINUOUS
 62
     3
 10
-118.02460547543841
 20
2.0063128728546351
 30
0.0
 11
-121.14461297543841
 21
2.0063128728546351
 31
0.0
  0
LINE
  5
19CD1
  8
SU
  6
CONTINUOUS
 62
     3
 10
-118.1446053754384
 20
2.2063127728546301
 30
0.0
 11
-121.0246130754384
 21
2.206312772854631
 31
0.0
  0
LINE
  5
19CD2
  8
SU
  6
CONTINUOUS
 62
     3
 10
-118.3846051754384
 20
2.6063123728546311
 30
0.0
 11
-120.7846133754381
 21
2.6063123728546311
 31
0.0
  0
LINE
  5
19CD3
  8
SU
  6
CONTINUOUS
 62
     3
 10
-118.2646052754384
 20
2.4063125728546302
 30
0.0
 11
-120.904613275438
 21
2.4063125728546311
 31
0.0
  0
LINE
  5
19CD4
  8
SU
  6
CONTINUOUS
 62
     3
 10
-118.50460507543841
 20
2.8063121728546321
 30
0.0
 11
-120.6646134754381
 21
2.8063121728546321
 31
0.0
  0
LINE
  5
19CD5
  8
SU
  6
CONTINUOUS
 62
     3
 10
-118.6246049254384
 20
3.0063119728546321
 30
0.0
 11
-120.5446135854381
 21
3.0063119728546321
 31
0.0
  0
LINE
  5
19CD6
  8
SU
  6
CONTINUOUS
 62
     3
 10
-118.7446048054384
 20
3.2063117728546322
 30
0.0
 11
-120.4246136954383
 21
3.2063117728546322
 31
0.0
  0
LINE
  5
19CD7
  8
SU
  6
CONTINUOUS
 62
     3
 10
-118.86460373543829
 20
3.40631157285463
 30
0.0
 11
-120.3046138154381
 21
3.40631157285463
 31
0.0
  0
LINE
  5
19CD8
  8
SU
  6
CONTINUOUS
 62
     3
 10
-118.9846036254384
 20
3.606311372854631
 30
0.0
 11
-120.1846139254381
 21
3.606311372854631
 31
0.0
  0
LINE
  5
19CD9
  8
SU
  6
CONTINUOUS
 62
     3
 10
-119.2246062554384
 20
4.0063110128546384
 30
0.0
 11
-119.9446141554384
 21
4.0063110128546384
 31
0.0
  0
LINE
  5
19CDA
  8
SU
  6
CONTINUOUS
 62
     3
 10
-119.1046035154384
 20
3.8063112028546282
 30
0.0
 11
-120.0646140354384
 21
3.8063112028546282
 31
0.0
  0
LINE
  5
19CDB
  8
SU
  6
CONTINUOUS
 62
     3
 10
-119.34460614543831
 20
4.206310812854638
 30
0.0
 11
-119.8246142654384
 21
4.206310812854638
 31
0.0
  0
LINE
  5
19CDC
  8
SU
  6
CONTINUOUS
 62
     3
 10
-119.584606752949
 20
4.6063241538281261
 30
0.0
 11
-125.5846086754384
 21
-5.3936796271453584
 31
0.0
  0
LINE
  5
19CDD
  8
SU
  6
CONTINUOUS
 62
     3
 10
-119.46460126543811
 20
4.406307762854623
 30
0.0
 11
-119.70461628543841
 21
4.4063077628546523
 31
0.0
  0
LINE
  5
19CDE
  8
SU
  6
CONTINUOUS
 62
     3
 10
-119.58460883724619
 20
4.606320153005468
 30
0.0
 11
-113.5846130754382
 21
-5.393679927145369
 31
0.0
  0
LINE
  5
19CDF
  8
SU
  6
CONTINUOUS
 62
     3
 10
-115.9846083754384
 20
-1.3936838271453671
 30
0.0
 11
-123.1846110754384
 21
-1.3936838271453651
 31
0.0
  0
LINE
  5
19CE0
  8
SU
  6
CONTINUOUS
 62
     3
 10
-115.8646084754382
 20
-1.593683627145368
 30
0.0
 11
-123.30461097543829
 21
-1.593683627145366
 31
0.0
  0
LINE
  5
19CE1
  8
SU
  6
CONTINUOUS
 62
     3
 10
-115.7446095754381
 20
-1.7936834271453681
 30
0.0
 11
-123.4246108754384
 21
-1.7936834271453661
 31
0.0
  0
LINE
  5
19CE2
  8
SU
  6
CONTINUOUS
 62
     3
 10
-115.62460967543841
 20
-1.9936832271453671
 30
0.0
 11
-123.54461067543831
 21
-1.9936832271453671
 31
0.0
  0
LINE
  5
19CE3
  8
SU
  6
CONTINUOUS
 62
     3
 10
-115.5046097754381
 20
-2.1936831271453632
 30
0.0
 11
-123.6646105754384
 21
-2.1936831271453601
 31
0.0
  0
LINE
  5
19CE4
  8
SU
  6
CONTINUOUS
 62
     3
 10
-168.5846087754374
 20
4.6063199728546351
 30
0.0
 11
-116.5846087754385
 21
4.60631997285462
 31
0.0
  0
LINE
  5
19CE5
  8
SU
  6
CONTINUOUS
 62
     3
 10
-148.58460877543729
 20
-245.39368002714511
 30
0.0
 11
-116.5846087754385
 21
-245.39368002714511
 31
0.0
  0
LINE
  5
19CE6
  8
SU
  6
CONTINUOUS
 62
     3
 10
-119.5846087754385
 20
4.60631997285462
 30
0.0
 11
-119.5846087754385
 21
-245.39368002714511
 31
0.0
  0
LINE
  5
19CE7
  8
SU
  6
CONTINUOUS
 62
     3
 10
-189.5846087754382
 20
3.6063199728546351
 30
0.0
 11
-189.5846087754382
 21
-48.393680027145358
 31
0.0
  0
LINE
  5
19CE8
  8
SU
  6
CONTINUOUS
 62
     3
 10
-356.58460877543843
 20
3.6063199728546351
 30
0.0
 11
-356.58460877543843
 21
-48.393680027145358
 31
0.0
  0
LINE
  5
19CE9
  8
SU
  6
CONTINUOUS
 62
     3
 10
-189.5846087754382
 20
-45.393680027145336
 30
0.0
 11
-356.58460877543843
 21
-45.393680027145336
 31
0.0
  0
LINE
  5
19CEA
  8
SU
  6
CONTINUOUS
 62
     3
 10
-169.58460877543729
 20
3.6063199728546351
 30
0.0
 11
-169.58460877543729
 21
-48.393680027145358
 31
0.0
  0
LINE
  5
19CEB
  8
SU
  6
CONTINUOUS
 62
     3
 10
-189.5846087754382
 20
3.6063199728546351
 30
0.0
 11
-189.5846087754382
 21
-48.393680027145358
 31
0.0
  0
LINE
  5
19CEC
  8
SU
  6
CONTINUOUS
 62
     3
 10
-169.58460877543729
 20
-45.393680027145336
 30
0.0
 11
-189.5846087754382
 21
-45.393680027145336
 31
0.0
  0
LINE
  5
19CED
  8
SU
  6
CONTINUOUS
 62
     3
 10
-260.08460877543712
 20
23.606319972854848
 30
0.0
 11
-260.08460877543712
 21
-18.39368002714502
 31
0.0
  0
LINE
  5
19CEE
  8
SU
  6
CONTINUOUS
 62
     3
 10
-256.08460877543803
 20
3.6063199728546351
 30
0.0
 11
-256.08460877543803
 21
-18.39368002714502
 31
0.0
  0
LINE
  5
19CEF
  8
SU
  6
CONTINUOUS
 62
     3
 10
-260.08460877543712
 20
-15.39368002714502
 30
0.0
 11
-256.08460877543803
 21
-15.39368002714502
 31
0.0
  0
LINE
  5
19CF0
  8
SU
  6
CONTINUOUS
 62
     3
 10
-256.08460877543803
 20
-15.39368002714502
 30
0.0
 11
-248.7131802040094
 21
-15.39368002714502
 31
0.0
  0
LINE
  5
19CF1
  8
SU
  6
CONTINUOUS
 62
     3
 10
-213.58460877543729
 20
13.60631997285577
 30
0.0
 11
-213.58460877543729
 21
-33.39368002714491
 31
0.0
  0
LINE
  5
19CF2
  8
SU
  6
CONTINUOUS
 62
     3
 10
-192.5846087754384
 20
131.60631997285481
 30
0.0
 11
-192.5846087754384
 21
-33.39368002714491
 31
0.0
  0
LINE
  5
19CF3
  8
SU
  6
CONTINUOUS
 62
     3
 10
-213.58460877543729
 20
-30.39368002714491
 30
0.0
 11
-192.5846087754384
 21
-30.39368002714491
 31
0.0
  0
LINE
  5
19CF4
  8
SU
  6
CONTINUOUS
 62
     3
 10
-192.5846087754384
 20
131.60631997285481
 30
0.0
 11
-192.5846087754384
 21
-33.39368002714491
 31
0.0
  0
LINE
  5
19CF5
  8
SU
  6
CONTINUOUS
 62
     3
 10
-189.5846087754382
 20
3.6063199728546351
 30
0.0
 11
-189.5846087754382
 21
-33.39368002714491
 31
0.0
  0
LINE
  5
19CF6
  8
SU
  6
CONTINUOUS
 62
     3
 10
-194.9846087754384
 20
-30.39368002714491
 30
0.0
 11
-197.38460877543841
 21
-30.39368002714491
 31
0.0
  0
LINE
  5
19CF7
  8
SU
  6
CONTINUOUS
 62
     3
 10
-189.5846087754382
 20
-30.39368002714491
 30
0.0
 11
-179.97127544210491
 21
-30.39368002714491
 31
0.0
  0
LINE
  5
19CF8
  8
SU
  6
CONTINUOUS
 62
     3
 10
-192.5846087754384
 20
-30.39368002714491
 30
0.0
 11
-189.5846087754382
 21
-30.39368002714491
 31
0.0
  0
LINE
  5
19CF9
  8
SU
  6
CONTINUOUS
 62
     3
 10
-246.5846087754372
 20
13.60631997285577
 30
0.0
 11
-246.5846087754372
 21
-33.39368002714513
 31
0.0
  0
LINE
  5
19CFA
  8
SU
  6
CONTINUOUS
 62
     3
 10
-213.58460877543729
 20
13.60631997285577
 30
0.0
 11
-213.58460877543729
 21
-33.39368002714513
 31
0.0
  0
LINE
  5
19CFB
  8
SU
  6
CONTINUOUS
 62
     3
 10
-246.5846087754372
 20
-30.393680027145141
 30
0.0
 11
-213.58460877543729
 21
-30.393680027145141
 31
0.0
  0
LINE
  5
19CFC
  8
SU
  6
CONTINUOUS
 62
     3
 10
-256.08460877543803
 20
3.6063199728546351
 30
0.0
 11
-256.08460877543803
 21
-33.393680027145358
 31
0.0
  0
LINE
  5
19CFD
  8
SU
  6
CONTINUOUS
 62
     3
 10
-246.5846087754372
 20
13.60631997285577
 30
0.0
 11
-246.5846087754372
 21
-33.393680027145358
 31
0.0
  0
LINE
  5
19CFE
  8
SU
  6
CONTINUOUS
 62
     3
 10
-256.08460877543803
 20
-30.393680027145351
 30
0.0
 11
-246.5846087754372
 21
-30.393680027145351
 31
0.0
  0
LINE
  5
19CFF
  8
SU
  6
CONTINUOUS
 62
     3
 10
-251.3346087754374
 20
-30.393680027145351
 30
0.0
 11
-241.22393510752551
 21
-15.39368002714502
 31
0.0
  0
LINE
  5
19D00
  8
SU
  6
CONTINUOUS
 62
     3
 10
-241.22393510752551
 20
-15.39368002714502
 30
0.0
 11
-231.6677446313351
 21
-15.39368002714502
 31
0.0
  0
LINE
  5
19D01
  8
SU
  6
CONTINUOUS
 62
     3
 10
-353.58460877543843
 20
3.6063199728546351
 30
0.0
 11
-353.58460877543843
 21
-33.393680027145358
 31
0.0
  0
LINE
  5
19D02
  8
SU
  6
CONTINUOUS
 62
     3
 10
-256.08460877543803
 20
3.6063199728546351
 30
0.0
 11
-256.08460877543803
 21
-33.393680027145358
 31
0.0
  0
LINE
  5
19D03
  8
SU
  6
CONTINUOUS
 62
     3
 10
-351.18460877543851
 20
-30.393680027145351
 30
0.0
 11
-256.08460877543803
 21
-30.393680027145351
 31
0.0
  0
LINE
  5
19D04
  8
SU
  6
CONTINUOUS
 62
     3
 10
-356.58460877543843
 20
3.6063199728546351
 30
0.0
 11
-356.58460877543843
 21
-33.393680027145358
 31
0.0
  0
LINE
  5
19D05
  8
SU
  6
CONTINUOUS
 62
     3
 10
-353.58460877543843
 20
3.6063199728546351
 30
0.0
 11
-353.58460877543843
 21
-33.393680027145358
 31
0.0
  0
LINE
  5
19D06
  8
SU
  6
CONTINUOUS
 62
     3
 10
-356.58460877543843
 20
-30.393680027145351
 30
0.0
 11
-366.19794210877137
 21
-30.393680027145351
 31
0.0
  0
LINE
  5
19D07
  8
SU
  6
CONTINUOUS
 62
     3
 10
-353.58460877543843
 20
-30.393680027145351
 30
0.0
 11
-356.58460877543843
 21
-30.393680027145351
 31
0.0
  0
LINE
  5
19D08
  8
SU
  6
CONTINUOUS
 62
     3
 10
-357.58460877543843
 20
24.606319972854848
 30
0.0
 11
-376.58460877543831
 21
24.60631997285487
 31
0.0
  0
LINE
  5
19D09
  8
SU
  6
CONTINUOUS
 62
     3
 10
-354.58460877543843
 20
4.606319972854636
 30
0.0
 11
-376.58460877543831
 21
4.6063199728546387
 31
0.0
  0
LINE
  5
19D0A
  8
SU
  6
CONTINUOUS
 62
     3
 10
-373.58460877543848
 20
24.606319972854848
 30
0.0
 11
-373.58460877543848
 21
4.6063199728546387
 31
0.0
  0
LINE
  5
19D0B
  8
SU
  6
CONTINUOUS
 62
     3
 10
-334.08460877543808
 20
152.60631997285469
 30
0.0
 11
-376.58460877543831
 21
152.60631997285469
 31
0.0
  0
LINE
  5
19D0C
  8
SU
  6
CONTINUOUS
 62
     3
 10
-357.58460877543843
 20
24.606319972854848
 30
0.0
 11
-376.58460877543831
 21
24.60631997285487
 31
0.0
  0
LINE
  5
19D0D
  8
SU
  6
CONTINUOUS
 62
     3
 10
-373.58460877543831
 20
152.60631997285469
 30
0.0
 11
-373.58460877543848
 21
24.606319972854848
 31
0.0
  0
LINE
  5
19D0E
  8
SU
  6
CONTINUOUS
 62
     3
 10
-230.08460877543729
 20
119.1746189792899
 30
0.0
 11
-230.08460877543729
 21
123.9527299248138
 31
0.0
  0
LINE
  5
19D0F
  8
SU
  6
CONTINUOUS
 62
     3
 10
-260.0846087754378
 20
119.1746189792897
 30
0.0
 11
-260.0846087754378
 21
123.9527299248138
 31
0.0
  0
LINE
  5
19D10
  8
SU
  6
CONTINUOUS
 62
     3
 10
-230.08460877543729
 20
120.9527299248138
 30
0.0
 11
-260.0846087754378
 21
120.9527299248138
 31
0.0
  0
LINE
  5
19D11
  8
SU
  6
CONTINUOUS
 62
     3
 10
-260.08460877543791
 20
133.60631997285481
 30
0.0
 11
-260.08460877543791
 21
185.60631997285481
 31
0.0
  0
LINE
  5
19D12
  8
SU
  6
CONTINUOUS
 62
     3
 10
-272.58460877543803
 20
133.60631997285481
 30
0.0
 11
-272.58460877543803
 21
185.60631997285481
 31
0.0
  0
LINE
  5
19D13
  8
SU
  6
CONTINUOUS
 62
     3
 10
-260.08460877543791
 20
182.60631997285481
 30
0.0
 11
-272.58460877543803
 21
182.60631997285481
 31
0.0
  0
LINE
  5
19D14
  8
SU
  6
CONTINUOUS
 62
     3
 10
-192.5846087754384
 20
153.60631997285461
 30
0.0
 11
-192.5846087754384
 21
185.60631997285481
 31
0.0
  0
LINE
  5
19D15
  8
SU
  6
CONTINUOUS
 62
     3
 10
-260.08460877543791
 20
133.60631997285481
 30
0.0
 11
-260.08460877543791
 21
185.60631997285481
 31
0.0
  0
LINE
  5
19D16
  8
SU
  6
CONTINUOUS
 62
     3
 10
-192.5846087754384
 20
182.60631997285481
 30
0.0
 11
-260.08460877543791
 21
182.60631997285481
 31
0.0
  0
LINE
  5
19D17
  8
SU
  6
CONTINUOUS
 62
     3
 10
-272.58460877543803
 20
153.60631997285461
 30
0.0
 11
-272.58460877543803
 21
200.60631997285481
 31
0.0
  0
LINE
  5
19D18
  8
SU
  6
CONTINUOUS
 62
     3
 10
-333.08460877543803
 20
153.60631997285461
 30
0.0
 11
-333.08460877543803
 21
200.60631997285481
 31
0.0
  0
LINE
  5
19D19
  8
SU
  6
CONTINUOUS
 62
     3
 10
-272.58460877543803
 20
197.60631997285481
 30
0.0
 11
-333.08460877543803
 21
197.60631997285481
 31
0.0
  0
LINE
  5
19D1A
  8
SU
  6
CONTINUOUS
 62
     3
 10
-192.5846087754384
 20
153.60631997285461
 30
0.0
 11
-192.5846087754384
 21
200.60631997285481
 31
0.0
  0
LINE
  5
19D1B
  8
SU
  6
CONTINUOUS
 62
     3
 10
-272.58460877543803
 20
153.60631997285461
 30
0.0
 11
-272.58460877543803
 21
200.60631997285481
 31
0.0
  0
LINE
  5
19D1C
  8
SU
  6
CONTINUOUS
 62
     3
 10
-192.5846087754384
 20
197.60631997285481
 30
0.0
 11
-272.58460877543803
 21
197.60631997285481
 31
0.0
  0
LINE
  5
19D1D
  8
SU
  6
CONTINUOUS
 62
     3
 10
-333.08460877543803
 20
223.60631606293569
 30
0.0
 11
-333.08460877543803
 21
245.6063160629358
 31
0.0
  0
LINE
  5
19D1E
  8
SU
  6
CONTINUOUS
 62
     3
 10
-345.58460877543882
 20
223.60631606293569
 30
0.0
 11
-345.58460877543882
 21
245.6063160629358
 31
0.0
  0
LINE
  5
19D1F
  8
SU
  6
CONTINUOUS
 62
     3
 10
-333.08460877543803
 20
242.6063160629358
 30
0.0
 11
-345.58460877543882
 21
242.6063160629358
 31
0.0
  0
LINE
  5
19D20
  8
SU
  6
CONTINUOUS
 62
     3
 10
-213.08460877543871
 20
223.60631606293569
 30
0.0
 11
-213.08460877543871
 21
245.60631606293549
 31
0.0
  0
LINE
  5
19D21
  8
SU
  6
CONTINUOUS
 62
     3
 10
-333.08460877543803
 20
223.60631606293569
 30
0.0
 11
-333.08460877543803
 21
245.60631606293549
 31
0.0
  0
LINE
  5
19D22
  8
SU
  6
CONTINUOUS
 62
     3
 10
-213.08460877543871
 20
242.60631606293569
 30
0.0
 11
-333.08460877543803
 21
242.60631606293569
 31
0.0
  0
LINE
  5
19D23
  8
SU
  6
CONTINUOUS
 62
     3
 10
-200.5846087754384
 20
223.60631606293569
 30
0.0
 11
-200.5846087754384
 21
245.60631606293549
 31
0.0
  0
LINE
  5
19D24
  8
SU
  6
CONTINUOUS
 62
     3
 10
-213.08460877543871
 20
223.60631606293569
 30
0.0
 11
-213.08460877543871
 21
245.60631606293549
 31
0.0
  0
LINE
  5
19D25
  8
SU
  6
CONTINUOUS
 62
     3
 10
-200.5846087754384
 20
242.6063160629356
 30
0.0
 11
-213.08460877543871
 21
242.6063160629356
 31
0.0
  0
LINE
  5
19D26
  8
SU
  6
CONTINUOUS
 62
     3
 10
-345.58460877543882
 20
223.60631606293569
 30
0.0
 11
-345.58460877543882
 21
260.6063160629356
 31
0.0
  0
LINE
  5
19D27
  8
SU
  6
CONTINUOUS
 62
     3
 10
-353.58460877543843
 20
25.606319972854859
 30
0.0
 11
-353.58460877543843
 21
260.6063160629356
 31
0.0
  0
LINE
  5
19D28
  8
SU
  6
CONTINUOUS
 62
     3
 10
-345.58460877543882
 20
257.6063160629356
 30
0.0
 11
-353.58460877543843
 21
257.6063160629356
 31
0.0
  0
LINE
  5
19D29
  8
SU
  6
CONTINUOUS
 62
     3
 10
-200.5846087754384
 20
223.60631606293569
 30
0.0
 11
-200.5846087754384
 21
260.6063160629356
 31
0.0
  0
LINE
  5
19D2A
  8
SU
  6
CONTINUOUS
 62
     3
 10
-345.58460877543882
 20
223.60631606293569
 30
0.0
 11
-345.58460877543882
 21
260.6063160629356
 31
0.0
  0
LINE
  5
19D2B
  8
SU
  6
CONTINUOUS
 62
     3
 10
-200.5846087754384
 20
257.6063160629356
 30
0.0
 11
-345.58460877543882
 21
257.6063160629356
 31
0.0
  0
LINE
  5
19D2C
  8
SU
  6
CONTINUOUS
 62
     3
 10
-192.5846087754384
 20
153.60631997285461
 30
0.0
 11
-192.5846087754384
 21
260.6063160629356
 31
0.0
  0
LINE
  5
19D2D
  8
SU
  6
CONTINUOUS
 62
     3
 10
-200.5846087754384
 20
223.60631606293569
 30
0.0
 11
-200.5846087754384
 21
260.6063160629356
 31
0.0
  0
LINE
  5
19D2E
  8
SU
  6
CONTINUOUS
 62
     3
 10
-192.5846087754384
 20
257.6063160629356
 30
0.0
 11
-200.5846087754384
 21
257.6063160629356
 31
0.0
  0
LINE
  5
19D2F
  8
SU
  6
CONTINUOUS
 62
     3
 10
-212.5846087754374
 20
-235.3936800271446
 30
0.0
 11
-131.5846087754382
 21
-235.39368002714471
 31
0.0
  0
LINE
  5
19D30
  8
SU
  6
CONTINUOUS
 62
     3
 10
-148.58460877543729
 20
-245.39368002714511
 30
0.0
 11
-131.5846087754382
 21
-245.39368002714511
 31
0.0
  0
LINE
  5
19D31
  8
SU
  6
CONTINUOUS
 62
     3
 10
-134.5846087754382
 20
-235.39368002714471
 30
0.0
 11
-134.5846087754382
 21
-245.39368002714511
 31
0.0
  0
LINE
  5
19D32
  8
SU
  6
CONTINUOUS
 62
     3
 10
-212.5846087754374
 20
14.60631997285577
 30
0.0
 11
-146.5846087754376
 21
14.606319972855751
 31
0.0
  0
LINE
  5
19D33
  8
SU
  6
CONTINUOUS
 62
     3
 10
-168.5846087754374
 20
4.6063199728546351
 30
0.0
 11
-146.5846087754376
 21
4.606319972854628
 31
0.0
  0
LINE
  5
19D34
  8
SU
  6
CONTINUOUS
 62
     3
 10
-149.58460877543729
 20
14.606319972855751
 30
0.0
 11
-149.58460877543729
 21
4.606319972854628
 31
0.0
  0
LINE
  5
19D35
  8
SU
  6
CONTINUOUS
 62
     3
 10
-212.5846087754374
 20
14.60631997285577
 30
0.0
 11
-131.5846087754374
 21
14.60631997285574
 31
0.0
  0
LINE
  5
19D36
  8
SU
  6
CONTINUOUS
 62
     3
 10
-212.5846087754374
 20
-235.3936800271446
 30
0.0
 11
-131.5846087754374
 21
-235.39368002714471
 31
0.0
  0
LINE
  5
19D37
  8
SU
  6
CONTINUOUS
 62
     3
 10
-134.5846087754374
 20
14.606319972855751
 30
0.0
 11
-134.5846087754374
 21
-235.39368002714471
 31
0.0
  0
LINE
  5
19D38
  8
SU
  6
CONTINUOUS
 62
     3
 10
-168.5846087754374
 20
152.6063199728554
 30
0.0
 11
-116.5846087754381
 21
152.6063199728554
 31
0.0
  0
LINE
  5
19D39
  8
SU
  6
CONTINUOUS
 62
     3
 10
-168.5846087754374
 20
4.6063199728546351
 30
0.0
 11
-116.5846087754381
 21
4.60631997285462
 31
0.0
  0
LINE
  5
19D3A
  8
SU
  6
CONTINUOUS
 62
     3
 10
-119.5846087754381
 20
152.6063199728554
 30
0.0
 11
-119.5846087754381
 21
4.60631997285462
 31
0.0
  0
LINE
  5
19D3B
  8
SU
  6
CONTINUOUS
 62
     3
 10
-168.5846087754374
 20
152.6063199728554
 30
0.0
 11
-131.5846087754376
 21
152.6063199728554
 31
0.0
  0
LINE
  5
19D3C
  8
SU
  6
CONTINUOUS
 62
     3
 10
-191.5846087754384
 20
132.60631997285481
 30
0.0
 11
-131.5846087754376
 21
132.60631997285481
 31
0.0
  0
LINE
  5
19D3D
  8
SU
  6
CONTINUOUS
 62
     3
 10
-134.5846087754376
 20
152.6063199728554
 30
0.0
 11
-134.5846087754376
 21
132.60631997285481
 31
0.0
  0
LINE
  5
19D3E
  8
SU
  6
CONTINUOUS
 62
     3
 10
-212.08460877543871
 20
162.60631997285481
 30
0.0
 11
-116.5846087754376
 21
162.60631997285481
 31
0.0
  0
LINE
  5
19D3F
  8
SU
  6
CONTINUOUS
 62
     3
 10
-168.5846087754374
 20
152.6063199728554
 30
0.0
 11
-116.5846087754376
 21
152.6063199728554
 31
0.0
  0
LINE
  5
19D40
  8
SU
  6
CONTINUOUS
 62
     3
 10
-119.5846087754375
 20
162.60631997285481
 30
0.0
 11
-119.5846087754375
 21
152.6063199728554
 31
0.0
  0
TEXT
  5
19D41
  8
SU
  6
CONTINUOUS
 62
     3
 10
-153.6929839827871
 20
180.05968649618109
 30
0.0
 40
4.0
  1
MDFオレフィンシート貼
 41
0.8299999999999999
  0
LINE
  5
19D42
  8
SU
  6
CONTINUOUS
 62
     3
 10
-180.3605925498471
 20
152.606319972855
 30
0.0
 11
-178.88764293340211
 21
154.52590528592299
 31
0.0
  0
LINE
  5
19D43
  8
SU
  6
CONTINUOUS
 62
     3
 10
-180.3605925498471
 20
152.606319972855
 30
0.0
 11
-178.4404804337928
 21
154.07967381944891
 31
0.0
  0
LINE
  5
19D44
  8
SU
  6
CONTINUOUS
 62
     3
 10
-220.5846087754374
 20
-245.39368002714471
 30
0.0
 11
-219.11165915899221
 21
-247.3132653402125
 31
0.0
  0
LINE
  5
19D45
  8
SU
  6
CONTINUOUS
 62
     3
 10
-220.5846087754374
 20
-245.39368002714471
 30
0.0
 11
-218.66449665938279
 21
-246.86703387373831
 31
0.0
  0
TEXT
  5
19D46
  8
SU
  6
CONTINUOUS
 62
     3
 10
-193.4427144940914
 20
-271.27797942907551
 30
0.0
 40
4.0
  1
ATOM　床付ガイド
 41
0.8299999999999999
  0
LINE
  5
19D47
  8
OS
  6
CONTINUOUS
 62
     2
 10
-149.58460877543729
 20
-254.39368002714519
 30
0.0
 11
-407.58460877543757
 21
-254.39368002714519
 31
0.0
  0
LINE
  5
19D48
  8
OS
  6
CONTINUOUS
 62
     2
 10
-149.58460877543729
 20
-251.39368002714511
 30
0.0
 11
-407.58460877543757
 21
-251.39368002714511
 31
0.0
  0
LINE
  5
19D49
  8
OS
  6
CONTINUOUS
 62
     2
 10
-149.58460877543729
 20
-248.39368002714531
 30
0.0
 11
-407.58460877543757
 21
-248.39368002714531
 31
0.0
  0
LINE
  5
19D4A
  8
OS
  6
CONTINUOUS
 62
     2
 10
-149.58460877543729
 20
-257.39368002714502
 30
0.0
 11
-407.58460877543757
 21
-257.39368002714502
 31
0.0
  0
LINE
  5
19D4B
  8
OS
  6
CONTINUOUS
 62
     2
 10
-149.58460877543729
 20
-245.39368002714511
 30
0.0
 11
-407.58460877543757
 21
-245.39368002714511
 31
0.0
  0
LINE
  5
19D4C
  8
SU
  6
CONTINUOUS
 62
     3
 10
11.436190523174011
 20
-94.950035493754044
 30
0.0
 11
-82.834430675078664
 21
-94.950035493754044
 31
0.0
  0
LINE
  5
19D4D
  8
SU
  6
CONTINUOUS
 62
     3
 10
11.436194433093441
 20
-105.950012493759
 30
0.0
 11
-82.834430675078693
 21
-105.9500124937589
 31
0.0
  0
LINE
  5
19D4E
  8
SU
  6
CONTINUOUS
 62
     3
 10
-79.834430675078693
 20
-94.950035493754044
 30
0.0
 11
-79.834430675078693
 21
-105.9500124937589
 31
0.0
  0
LINE
  5
19D4F
  8
SU
  6
CONTINUOUS
 62
     3
 10
-45.834430675122888
 20
50.049987506240882
 30
0.0
 11
-82.834430675078664
 21
50.049987506240889
 31
0.0
  0
LINE
  5
19D50
  8
SU
  6
CONTINUOUS
 62
     3
 10
-45.834430675122888
 20
-94.950035493754044
 30
0.0
 11
-82.834430675078693
 21
-94.950035493754044
 31
0.0
  0
LINE
  5
19D51
  8
SU
  6
CONTINUOUS
 62
     3
 10
-79.834430675078664
 20
50.049987506240889
 30
0.0
 11
-79.834430675078693
 21
-94.950035493754044
 31
0.0
  0
LINE
  5
19D52
  8
SU
  6
CONTINUOUS
 62
     3
 10
-45.834430675122888
 20
-82.450035493754527
 30
0.0
 11
-67.834430675122846
 21
-82.450035493754527
 31
0.0
  0
LINE
  5
19D53
  8
SU
  6
CONTINUOUS
 62
     3
 10
-45.834430675122888
 20
-94.950035493754044
 30
0.0
 11
-67.834430675122846
 21
-94.950035493754044
 31
0.0
  0
LINE
  5
19D54
  8
SU
  6
CONTINUOUS
 62
     3
 10
-64.834430675122846
 20
-82.450035493754527
 30
0.0
 11
-64.834430675122846
 21
-94.950035493754044
 31
0.0
  0
LINE
  5
19D55
  8
SU
  6
CONTINUOUS
 62
     3
 10
-45.834430675122888
 20
37.549964506245132
 30
0.0
 11
-67.834430675122817
 21
37.549964506245153
 31
0.0
  0
LINE
  5
19D56
  8
SU
  6
CONTINUOUS
 62
     3
 10
-45.834430675122888
 20
-82.450035493754527
 30
0.0
 11
-67.83443067512286
 21
-82.450035493754527
 31
0.0
  0
LINE
  5
19D57
  8
SU
  6
CONTINUOUS
 62
     3
 10
-64.834430675122817
 20
37.549964506245153
 30
0.0
 11
-64.83443067512286
 21
-82.450035493754527
 31
0.0
  0
LINE
  5
19D58
  8
SU
  6
CONTINUOUS
 62
     3
 10
-45.834430675122888
 20
50.049987506240882
 30
0.0
 11
-67.834430675122888
 21
50.049987506240889
 31
0.0
  0
LINE
  5
19D59
  8
SU
  6
CONTINUOUS
 62
     3
 10
-45.834430675122888
 20
37.549964506245132
 30
0.0
 11
-67.834430675122888
 21
37.549964506245153
 31
0.0
  0
LINE
  5
19D5A
  8
SU
  6
CONTINUOUS
 62
     3
 10
-64.834430675122888
 20
50.049987506240889
 30
0.0
 11
-64.834430675122888
 21
37.549964506245153
 31
0.0
  0
LINE
  5
19D5B
  8
SU
  6
CONTINUOUS
 62
     3
 10
161.4361944330935
 20
61.049987506242132
 30
0.0
 11
-82.8344306751234
 21
61.049987506242182
 31
0.0
  0
LINE
  5
19D5C
  8
SU
  6
CONTINUOUS
 62
     3
 10
-45.834430675122888
 20
50.049987506240882
 30
0.0
 11
-82.8344306751234
 21
50.049987506240889
 31
0.0
  0
LINE
  5
19D5D
  8
SU
  6
CONTINUOUS
 62
     3
 10
-79.8344306751234
 20
61.049987506242182
 30
0.0
 11
-79.8344306751234
 21
50.049987506240889
 31
0.0
  0
LINE
  5
19D5E
  8
SU
  6
CONTINUOUS
 62
     3
 10
161.43619443309339
 20
-35.45001249375774
 30
0.0
 11
124.4361944330964
 21
-35.45001249375774
 31
0.0
  0
LINE
  5
19D5F
  8
SU
  6
CONTINUOUS
 62
     3
 10
161.4361944330935
 20
-39.450012493757868
 30
0.0
 11
124.4361944330964
 21
-39.45001249375786
 31
0.0
  0
LINE
  5
19D60
  8
SU
  6
CONTINUOUS
 62
     3
 10
127.4361944330964
 20
-35.45001249375774
 30
0.0
 11
127.4361944330964
 21
-39.45001249375786
 31
0.0
  0
LINE
  5
19D61
  8
SU
  6
CONTINUOUS
 62
     3
 10
127.4361944330964
 20
-39.45001249375786
 30
0.0
 11
127.4361944330964
 21
-46.82144106518642
 31
0.0
  0
LINE
  5
19D62
  8
SU
  6
CONTINUOUS
 62
     3
 10
161.43619443309339
 20
-22.950012493757519
 30
0.0
 11
124.4361944330991
 21
-22.950012493757502
 31
0.0
  0
LINE
  5
19D63
  8
SU
  6
CONTINUOUS
 62
     3
 10
161.43619443309339
 20
-35.45001249375774
 30
0.0
 11
124.436194433099
 21
-35.45001249375774
 31
0.0
  0
LINE
  5
19D64
  8
SU
  6
CONTINUOUS
 62
     3
 10
127.436194433099
 20
-22.950012493757502
 30
0.0
 11
127.436194433099
 21
-35.45001249375774
 31
0.0
  0
LINE
  5
19D65
  8
SU
  6
CONTINUOUS
 62
     3
 10
127.436194433099
 20
-29.20001249375763
 30
0.0
 11
112.4361944330937
 21
-19.02498791522072
 31
0.0
  0
LINE
  5
19D66
  8
SU
  6
CONTINUOUS
 62
     3
 10
112.4361944330937
 20
-19.02498791522072
 30
0.0
 11
112.4361944330937
 21
-6.7811783914112009
 31
0.0
  0
LINE
  5
19D67
  8
SU
  6
CONTINUOUS
 62
     3
 10
161.43619443309339
 20
37.549964506245132
 30
0.0
 11
124.4361944330937
 21
37.549964506245153
 31
0.0
  0
LINE
  5
19D68
  8
SU
  6
CONTINUOUS
 62
     3
 10
161.43619443309339
 20
-22.950012493757519
 30
0.0
 11
124.4361944330937
 21
-22.950012493757502
 31
0.0
  0
LINE
  5
19D69
  8
SU
  6
CONTINUOUS
 62
     3
 10
127.4361944330937
 20
37.549964506245153
 30
0.0
 11
127.4361944330937
 21
-22.950012493757502
 31
0.0
  0
LINE
  5
19D6A
  8
SU
  6
CONTINUOUS
 62
     3
 10
37.436194433093767
 20
37.549964506245132
 30
0.0
 11
74.436194433093618
 21
37.549964506245132
 31
0.0
  0
LINE
  5
19D6B
  8
SU
  6
CONTINUOUS
 62
     3
 10
37.436194433093767
 20
-105.950012493759
 30
0.0
 11
74.436194433093561
 21
-105.950012493759
 31
0.0
  0
LINE
  5
19D6C
  8
SU
  6
CONTINUOUS
 62
     3
 10
71.43619443309359
 20
37.549964506245132
 30
0.0
 11
71.43619443309359
 21
-105.950012493759
 31
0.0
  0
LINE
  5
19D6D
  8
SU
  6
CONTINUOUS
 62
     3
 10
36.436194433093767
 20
-106.950012493759
 30
0.0
 11
36.436194433093767
 21
-148.9500124937594
 31
0.0
  0
LINE
  5
19D6E
  8
SU
  6
CONTINUOUS
 62
     3
 10
12.436194433093441
 20
-106.950012493759
 30
0.0
 11
12.436194433093441
 21
-148.9500124937594
 31
0.0
  0
LINE
  5
19D6F
  8
SU
  6
CONTINUOUS
 62
     3
 10
36.436194433093767
 20
-145.9500124937594
 30
0.0
 11
12.436194433093441
 21
-145.9500124937594
 31
0.0
  0
LINE
  5
19D70
  8
SU
  6
CONTINUOUS
 62
     3
 10
356.43619443309223
 20
-106.95001249375871
 30
0.0
 11
356.43619443309223
 21
-148.95001249375551
 31
0.0
  0
LINE
  5
19D71
  8
SU
  6
CONTINUOUS
 62
     3
 10
380.43619443309268
 20
-106.950012493759
 30
0.0
 11
380.43619443309268
 21
-148.95001249375551
 31
0.0
  0
LINE
  5
19D72
  8
SU
  6
CONTINUOUS
 62
     3
 10
356.43619443309223
 20
-145.95001249375551
 30
0.0
 11
380.43619443309268
 21
-145.95001249375551
 31
0.0
  0
LINE
  5
19D73
  8
SU
  6
CONTINUOUS
 62
     3
 10
162.4361944330924
 20
-82.950012493757427
 30
0.0
 11
162.4361944330924
 21
-148.9500124937594
 31
0.0
  0
LINE
  5
19D74
  8
SU
  6
CONTINUOUS
 62
     3
 10
356.43619443309223
 20
-106.95001249375871
 30
0.0
 11
356.43619443309223
 21
-148.9500124937594
 31
0.0
  0
LINE
  5
19D75
  8
SU
  6
CONTINUOUS
 62
     3
 10
162.4361944330924
 20
-145.9500124937594
 30
0.0
 11
356.43619443309223
 21
-145.9500124937594
 31
0.0
  0
LINE
  5
19D76
  8
SU
  6
CONTINUOUS
 62
     3
 10
236.43619443308751
 20
-105.950012493759
 30
0.0
 11
236.43619443308751
 21
-125.9500124937594
 31
0.0
  0
LINE
  5
19D77
  8
SU
  6
CONTINUOUS
 62
     3
 10
236.43619443307981
 20
-81.950012493757399
 30
0.0
 11
236.43619443307981
 21
-105.950012493759
 31
0.0
  0
LINE
  5
19D78
  8
SU
  6
CONTINUOUS
 62
     3
 10
163.4361944330924
 20
-48.950012493759118
 30
0.0
 11
239.4361944330881
 21
-48.950012493759139
 31
0.0
  0
LINE
  5
19D79
  8
SU
  6
CONTINUOUS
 62
     3
 10
163.4361944330924
 20
-81.950012493757399
 30
0.0
 11
239.4361944330881
 21
-81.950012493757399
 31
0.0
  0
LINE
  5
19D7A
  8
SU
  6
CONTINUOUS
 62
     3
 10
236.4361944330881
 20
-48.950012493759139
 30
0.0
 11
236.4361944330881
 21
-81.950012493757399
 31
0.0
  0
LINE
  5
19D7B
  8
SU
  6
CONTINUOUS
 62
     3
 10
187.43619443309359
 20
-39.450012493757868
 30
0.0
 11
239.43619443308839
 21
-39.450012493757868
 31
0.0
  0
LINE
  5
19D7C
  8
SU
  6
CONTINUOUS
 62
     3
 10
163.4361944330924
 20
-48.950012493759118
 30
0.0
 11
239.43619443308839
 21
-48.950012493759139
 31
0.0
  0
LINE
  5
19D7D
  8
SU
  6
CONTINUOUS
 62
     3
 10
236.43619443308839
 20
-39.450012493757868
 30
0.0
 11
236.43619443308839
 21
-48.950012493759139
 31
0.0
  0
LINE
  5
19D7E
  8
SU
  6
CONTINUOUS
 62
     3
 10
236.43619443308839
 20
-44.200012493758479
 30
0.0
 11
251.43619443309359
 21
-36.79420138525218
 31
0.0
  0
LINE
  5
19D7F
  8
SU
  6
CONTINUOUS
 62
     3
 10
251.43619443309359
 20
-36.79420138525218
 30
0.0
 11
251.43619443309359
 21
-27.23801090906171
 31
0.0
  0
LINE
  5
19D80
  8
SU
  6
CONTINUOUS
 62
     3
 10
187.43619443309359
 20
61.049987506241109
 30
0.0
 11
239.4361944330889
 21
61.049987506241102
 31
0.0
  0
LINE
  5
19D81
  8
SU
  6
CONTINUOUS
 62
     3
 10
187.43619443309359
 20
-39.450012493757868
 30
0.0
 11
239.4361944330889
 21
-39.450012493757868
 31
0.0
  0
LINE
  5
19D82
  8
SU
  6
CONTINUOUS
 62
     3
 10
236.4361944330889
 20
61.049987506241102
 30
0.0
 11
236.4361944330889
 21
-39.450012493757868
 31
0.0
  0
LINE
  5
19D83
  8
SU
  6
CONTINUOUS
 62
     3
 10
355.43619443309223
 20
61.049987506242132
 30
0.0
 11
318.4361944330924
 21
61.04998750624214
 31
0.0
  0
LINE
  5
19D84
  8
SU
  6
CONTINUOUS
 62
     3
 10
355.43619443309223
 20
-105.950012493759
 30
0.0
 11
318.4361944330924
 21
-105.9500124937589
 31
0.0
  0
LINE
  5
19D85
  8
SU
  6
CONTINUOUS
 62
     3
 10
321.43619443309223
 20
61.04998750624214
 30
0.0
 11
321.43619443309223
 21
-105.9500124937589
 31
0.0
  0
LINE
  5
19D86
  8
SU
  6
CONTINUOUS
 62
     3
 10
226.4361944330964
 20
-47.950012493759452
 30
0.0
 11
226.4361944330964
 21
84.049987506241621
 31
0.0
  0
LINE
  5
19D87
  8
SU
  6
CONTINUOUS
 62
     3
 10
356.43619443309223
 20
62.049987506242132
 30
0.0
 11
356.43619443309223
 21
84.049987506241621
 31
0.0
  0
LINE
  5
19D88
  8
SU
  6
CONTINUOUS
 62
     3
 10
226.4361944330964
 20
81.049987506241649
 30
0.0
 11
356.43619443309223
 21
81.049987506241649
 31
0.0
  0
LINE
  5
19D89
  8
SU
  6
CONTINUOUS
 62
     3
 10
186.43619443309359
 20
62.049987506241109
 30
0.0
 11
186.43619443309359
 21
84.049987506241621
 31
0.0
  0
LINE
  5
19D8A
  8
SU
  6
CONTINUOUS
 62
     3
 10
226.4361944330964
 20
-47.950012493759452
 30
0.0
 11
226.4361944330964
 21
84.049987506241621
 31
0.0
  0
LINE
  5
19D8B
  8
SU
  6
CONTINUOUS
 62
     3
 10
186.43619443309359
 20
81.049987506241649
 30
0.0
 11
226.4361944330964
 21
81.049987506241649
 31
0.0
  0
LINE
  5
19D8C
  8
SU
  6
CONTINUOUS
 62
     3
 10
196.43619487674141
 20
102.0499834861473
 30
0.0
 11
196.43619487674141
 21
90.049987586147793
 31
0.0
  0
LINE
  5
19D8D
  8
SU
  6
CONTINUOUS
 62
     3
 10
196.23619507674141
 20
101.92998402614769
 30
0.0
 11
196.23619507674141
 21
90.169987626147773
 31
0.0
  0
LINE
  5
19D8E
  8
SU
  6
CONTINUOUS
 62
     3
 10
196.03619527674141
 20
101.8099841261477
 30
0.0
 11
196.03619527674141
 21
90.289987526147783
 31
0.0
  0
LINE
  5
19D8F
  8
SU
  6
CONTINUOUS
 62
     3
 10
195.8361954767411
 20
101.6899842261477
 30
0.0
 11
195.8361954767411
 21
90.409987426147765
 31
0.0
  0
LINE
  5
19D90
  8
SU
  6
CONTINUOUS
 62
     3
 10
195.63619567674141
 20
101.56998432614751
 30
0.0
 11
195.63619567674141
 21
90.529987226147767
 31
0.0
  0
LINE
  5
19D91
  8
SU
  6
CONTINUOUS
 62
     3
 10
195.43619587674141
 20
101.4499845261477
 30
0.0
 11
195.43619587674141
 21
90.649987126147764
 31
0.0
  0
LINE
  5
19D92
  8
SU
  6
CONTINUOUS
 62
     3
 10
195.2361959767415
 20
101.32998462614771
 30
0.0
 11
195.2361959767415
 21
90.76998702614776
 31
0.0
  0
LINE
  5
19D93
  8
SU
  6
CONTINUOUS
 62
     3
 10
195.0361961767415
 20
101.2099856261477
 30
0.0
 11
195.0361961767415
 21
90.889986926147785
 31
0.0
  0
LINE
  5
19D94
  8
SU
  6
CONTINUOUS
 62
     3
 10
194.83619637674141
 20
101.0899858261477
 30
0.0
 11
194.83619637674141
 21
91.009986826147767
 31
0.0
  0
LINE
  5
19D95
  8
SU
  6
CONTINUOUS
 62
     3
 10
194.63619657674141
 20
100.9699859261477
 30
0.0
 11
194.63619657674141
 21
91.129986726147763
 31
0.0
  0
LINE
  5
19D96
  8
SU
  6
CONTINUOUS
 62
     3
 10
194.4361967767415
 20
100.84998602614741
 30
0.0
 11
194.4361967767415
 21
91.249986626147773
 31
0.0
  0
LINE
  5
19D97
  8
SU
  6
CONTINUOUS
 62
     3
 10
194.23619697674141
 20
100.72998612614739
 30
0.0
 11
194.23619697674141
 21
91.369986426147733
 31
0.0
  0
LINE
  5
19D98
  8
SU
  6
CONTINUOUS
 62
     3
 10
194.0361971767415
 20
100.6099862261477
 30
0.0
 11
194.0361971767415
 21
91.489986326147729
 31
0.0
  0
LINE
  5
19D99
  8
SU
  6
CONTINUOUS
 62
     3
 10
193.8361973767411
 20
100.4899863261477
 30
0.0
 11
193.8361973767411
 21
91.609986226147754
 31
0.0
  0
LINE
  5
19D9A
  8
SU
  6
CONTINUOUS
 62
     3
 10
193.43619777674141
 20
100.2499866261477
 30
0.0
 11
193.43619777674141
 21
91.849986026147761
 31
0.0
  0
LINE
  5
19D9B
  8
SU
  6
CONTINUOUS
 62
     3
 10
193.63619757674149
 20
100.3699864261477
 30
0.0
 11
193.63619757674149
 21
91.729986126147722
 31
0.0
  0
LINE
  5
19D9C
  8
SU
  6
CONTINUOUS
 62
     3
 10
192.23619887674141
 20
99.529987226147767
 30
0.0
 11
192.23619887674141
 21
92.569985326147787
 31
0.0
  0
LINE
  5
19D9D
  8
SU
  6
CONTINUOUS
 62
     3
 10
192.03619907674141
 20
99.409988326147811
 30
0.0
 11
192.03619907674141
 21
92.689985226147769
 31
0.0
  0
LINE
  5
19D9E
  8
SU
  6
CONTINUOUS
 62
     3
 10
191.83619927674141
 20
99.289988426147787
 30
0.0
 11
191.83619927674141
 21
92.809985126147765
 31
0.0
  0
LINE
  5
19D9F
  8
SU
  6
CONTINUOUS
 62
     3
 10
191.63619947674141
 20
99.169988526147733
 30
0.0
 11
191.63619947674141
 21
92.929985026147776
 31
0.0
  0
LINE
  5
19DA0
  8
SU
  6
CONTINUOUS
 62
     3
 10
191.43619967674141
 20
99.049988726147745
 30
0.0
 11
191.43619967674141
 21
93.049984826147764
 31
0.0
  0
LINE
  5
19DA1
  8
SU
  6
CONTINUOUS
 62
     3
 10
191.23619987674149
 20
98.929988826147763
 30
0.0
 11
191.23619987674149
 21
93.169984726147732
 31
0.0
  0
LINE
  5
19DA2
  8
SU
  6
CONTINUOUS
 62
     3
 10
191.0361999767413
 20
98.809988926147767
 30
0.0
 11
191.0361999767413
 21
93.289984626147771
 31
0.0
  0
LINE
  5
19DA3
  8
SU
  6
CONTINUOUS
 62
     3
 10
190.8362001767413
 20
98.689989026147771
 30
0.0
 11
190.8362001767413
 21
93.409984526147767
 31
0.0
  0
LINE
  5
19DA4
  8
SU
  6
CONTINUOUS
 62
     3
 10
190.63620037674141
 20
98.569989126147775
 30
0.0
 11
190.63620037674141
 21
93.529984426147735
 31
0.0
  0
LINE
  5
19DA5
  8
SU
  6
CONTINUOUS
 62
     3
 10
190.43620057674141
 20
98.449989226147764
 30
0.0
 11
190.43620057674141
 21
93.649984326147745
 31
0.0
  0
LINE
  5
19DA6
  8
SU
  6
CONTINUOUS
 62
     3
 10
190.23620077674141
 20
98.329989326147782
 30
0.0
 11
190.23620077674141
 21
93.76998422614777
 31
0.0
  0
LINE
  5
19DA7
  8
SU
  6
CONTINUOUS
 62
     3
 10
190.03620097674141
 20
98.209990426147783
 30
0.0
 11
190.03620097674141
 21
93.889984026147786
 31
0.0
  0
LINE
  5
19DA8
  8
SU
  6
CONTINUOUS
 62
     3
 10
189.83620117674141
 20
98.089990526147801
 30
0.0
 11
189.83620117674141
 21
94.009983926147811
 31
0.0
  0
LINE
  5
19DA9
  8
SU
  6
CONTINUOUS
 62
     3
 10
189.63620137674141
 20
97.969990626147734
 30
0.0
 11
189.63620137674141
 21
94.129983826147765
 31
0.0
  0
LINE
  5
19DAA
  8
SU
  6
CONTINUOUS
 62
     3
 10
189.43620157674141
 20
97.84999082614776
 30
0.0
 11
189.43620157674141
 21
94.249983726147761
 31
0.0
  0
LINE
  5
19DAB
  8
SU
  6
CONTINUOUS
 62
     3
 10
189.23620177674141
 20
97.729990926147735
 30
0.0
 11
189.23620177674141
 21
94.369983626147786
 31
0.0
  0
LINE
  5
19DAC
  8
SU
  6
CONTINUOUS
 62
     3
 10
189.03620197674141
 20
97.609991026147767
 30
0.0
 11
189.03620197674141
 21
94.489983526147768
 31
0.0
  0
LINE
  5
19DAD
  8
SU
  6
CONTINUOUS
 62
     3
 10
188.8362020767413
 20
97.489991126147771
 30
0.0
 11
188.8362020767413
 21
94.609983426147764
 31
0.0
  0
LINE
  5
19DAE
  8
SU
  6
CONTINUOUS
 62
     3
 10
188.43620247674141
 20
97.249991326147764
 30
0.0
 11
188.43620247674141
 21
94.849983126147734
 31
0.0
  0
LINE
  5
19DAF
  8
SU
  6
CONTINUOUS
 62
     3
 10
188.6362022767411
 20
97.369991226147761
 30
0.0
 11
188.6362022767411
 21
94.729983226147766
 31
0.0
  0
LINE
  5
19DB0
  8
SU
  6
CONTINUOUS
 62
     3
 10
188.23620267674141
 20
97.129991426147754
 30
0.0
 11
188.23620267674141
 21
94.969983026147773
 31
0.0
  0
LINE
  5
19DB1
  8
SU
  6
CONTINUOUS
 62
     3
 10
188.03620287674141
 20
97.009991576147783
 30
0.0
 11
188.03620287674141
 21
95.089982916147761
 31
0.0
  0
LINE
  5
19DB2
  8
SU
  6
CONTINUOUS
 62
     3
 10
187.83620307674141
 20
96.88999169614776
 30
0.0
 11
187.83620307674141
 21
95.209982806147721
 31
0.0
  0
LINE
  5
19DB3
  8
SU
  6
CONTINUOUS
 62
     3
 10
187.63620327674141
 20
96.769992766147766
 30
0.0
 11
187.63620327674141
 21
95.329982686147773
 31
0.0
  0
LINE
  5
19DB4
  8
SU
  6
CONTINUOUS
 62
     3
 10
187.43620347674141
 20
96.649992876147763
 30
0.0
 11
187.43620347674141
 21
95.449982576147775
 31
0.0
  0
LINE
  5
19DB5
  8
SU
  6
CONTINUOUS
 62
     3
 10
187.03620383674141
 20
96.409990246147785
 30
0.0
 11
187.03620383674141
 21
95.689982346147772
 31
0.0
  0
LINE
  5
19DB6
  8
SU
  6
CONTINUOUS
 62
     3
 10
187.2362036467411
 20
96.529992986147761
 30
0.0
 11
187.2362036467411
 21
95.569982466147735
 31
0.0
  0
LINE
  5
19DB7
  8
SU
  6
CONTINUOUS
 62
     3
 10
186.83620403674141
 20
96.289990356147783
 30
0.0
 11
186.83620403674141
 21
95.809982236147732
 31
0.0
  0
LINE
  5
19DB8
  8
SU
  6
CONTINUOUS
 62
     3
 10
186.43619443309359
 20
96.049987506241692
 30
0.0
 11
196.43619487674141
 21
90.049987586147793
 31
0.0
  0
LINE
  5
19DB9
  8
SU
  6
CONTINUOUS
 62
     3
 10
186.63620708674131
 20
96.169995236147784
 30
0.0
 11
186.63620708674131
 21
95.929980216147783
 31
0.0
  0
LINE
  5
19DBA
  8
SU
  6
CONTINUOUS
 62
     3
 10
186.43619443309359
 20
96.049987506241692
 30
0.0
 11
196.43619487674141
 21
102.0499834861473
 31
0.0
  0
LINE
  5
19DBB
  8
SU
  6
CONTINUOUS
 62
     3
 10
192.43619867674141
 20
99.649988126147761
 30
0.0
 11
192.43619867674141
 21
92.449985426147762
 31
0.0
  0
LINE
  5
19DBC
  8
SU
  6
CONTINUOUS
 62
     3
 10
192.63619847674141
 20
99.7699880261478
 30
0.0
 11
192.63619847674141
 21
92.329985526147766
 31
0.0
  0
LINE
  5
19DBD
  8
SU
  6
CONTINUOUS
 62
     3
 10
192.83619827674141
 20
99.889986926147785
 30
0.0
 11
192.83619827674141
 21
92.20998562614777
 31
0.0
  0
LINE
  5
19DBE
  8
SU
  6
CONTINUOUS
 62
     3
 10
193.03619807674141
 20
100.0099868261477
 30
0.0
 11
193.03619807674141
 21
92.089985826147782
 31
0.0
  0
LINE
  5
19DBF
  8
SU
  6
CONTINUOUS
 62
     3
 10
193.23619797674141
 20
100.12998672614771
 30
0.0
 11
193.23619797674141
 21
91.969985926147771
 31
0.0
  0
LINE
  5
19DC0
  8
SU
  6
CONTINUOUS
 62
     3
 10
346.43619398944452
 20
90.049991526335646
 30
0.0
 11
346.43619398944452
 21
102.04998742633551
 31
0.0
  0
LINE
  5
19DC1
  8
SU
  6
CONTINUOUS
 62
     3
 10
346.63619378944452
 20
90.169990986335605
 30
0.0
 11
346.63619378944452
 21
101.9299873863355
 31
0.0
  0
LINE
  5
19DC2
  8
SU
  6
CONTINUOUS
 62
     3
 10
346.83619358944452
 20
90.289990886335588
 30
0.0
 11
346.83619358944452
 21
101.8099874863356
 31
0.0
  0
LINE
  5
19DC3
  8
SU
  6
CONTINUOUS
 62
     3
 10
347.03619338944452
 20
90.409990786335584
 30
0.0
 11
347.03619338944452
 21
101.6899875863355
 31
0.0
  0
LINE
  5
19DC4
  8
SU
  6
CONTINUOUS
 62
     3
 10
347.23619318944452
 20
90.529990686335594
 30
0.0
 11
347.23619318944452
 21
101.5699877863356
 31
0.0
  0
LINE
  5
19DC5
  8
SU
  6
CONTINUOUS
 62
     3
 10
347.43619298944452
 20
90.649990486335597
 30
0.0
 11
347.43619298944452
 21
101.44998788633551
 31
0.0
  0
LINE
  5
19DC6
  8
SU
  6
CONTINUOUS
 62
     3
 10
347.6361928894446
 20
90.769990386335607
 30
0.0
 11
347.6361928894446
 21
101.3299879863355
 31
0.0
  0
LINE
  5
19DC7
  8
SU
  6
CONTINUOUS
 62
     3
 10
347.8361926894446
 20
90.889989386335586
 30
0.0
 11
347.8361926894446
 21
101.2099880863356
 31
0.0
  0
LINE
  5
19DC8
  8
SU
  6
CONTINUOUS
 62
     3
 10
348.0361924894446
 20
91.009989186335602
 30
0.0
 11
348.0361924894446
 21
101.0899881863354
 31
0.0
  0
LINE
  5
19DC9
  8
SU
  6
CONTINUOUS
 62
     3
 10
348.2361922894446
 20
91.129989086335584
 30
0.0
 11
348.2361922894446
 21
100.96998828633561
 31
0.0
  0
LINE
  5
19DCA
  8
SU
  6
CONTINUOUS
 62
     3
 10
348.4361920894446
 20
91.249988986335609
 30
0.0
 11
348.4361920894446
 21
100.8499883863355
 31
0.0
  0
LINE
  5
19DCB
  8
SU
  6
CONTINUOUS
 62
     3
 10
348.6361918894446
 20
91.369988886335605
 30
0.0
 11
348.6361918894446
 21
100.72998858633549
 31
0.0
  0
LINE
  5
19DCC
  8
SU
  6
CONTINUOUS
 62
     3
 10
348.8361916894446
 20
91.489988786335587
 30
0.0
 11
348.8361916894446
 21
100.6099886863355
 31
0.0
  0
LINE
  5
19DCD
  8
SU
  6
CONTINUOUS
 62
     3
 10
349.0361914894446
 20
91.609988686335626
 30
0.0
 11
349.0361914894446
 21
100.4899887863355
 31
0.0
  0
LINE
  5
19DCE
  8
SU
  6
CONTINUOUS
 62
     3
 10
349.43619108944461
 20
91.849988386335596
 30
0.0
 11
349.43619108944461
 21
100.2499889863355
 31
0.0
  0
LINE
  5
19DCF
  8
SU
  6
CONTINUOUS
 62
     3
 10
349.2361912894446
 20
91.72998858633558
 30
0.0
 11
349.2361912894446
 21
100.36998888633561
 31
0.0
  0
LINE
  5
19DD0
  8
SU
  6
CONTINUOUS
 62
     3
 10
350.63618998944452
 20
92.569987786335602
 30
0.0
 11
350.63618998944452
 21
99.529989686335583
 31
0.0
  0
LINE
  5
19DD1
  8
SU
  6
CONTINUOUS
 62
     3
 10
350.83618978944452
 20
92.689986686335587
 30
0.0
 11
350.83618978944452
 21
99.409989786335601
 31
0.0
  0
LINE
  5
19DD2
  8
SU
  6
CONTINUOUS
 62
     3
 10
351.03618958944452
 20
92.809986586335597
 30
0.0
 11
351.03618958944452
 21
99.289989886335604
 31
0.0
  0
LINE
  5
19DD3
  8
SU
  6
CONTINUOUS
 62
     3
 10
351.23618938944452
 20
92.929986486335608
 30
0.0
 11
351.23618938944452
 21
99.169989986335622
 31
0.0
  0
LINE
  5
19DD4
  8
SU
  6
CONTINUOUS
 62
     3
 10
351.43618918944452
 20
93.049986286335596
 30
0.0
 11
351.43618918944452
 21
99.049990186335606
 31
0.0
  0
LINE
  5
19DD5
  8
SU
  6
CONTINUOUS
 62
     3
 10
351.63618898944452
 20
93.169986186335606
 30
0.0
 11
351.63618898944452
 21
98.929990286335595
 31
0.0
  0
LINE
  5
19DD6
  8
SU
  6
CONTINUOUS
 62
     3
 10
351.83618888944471
 20
93.289986086335588
 30
0.0
 11
351.83618888944471
 21
98.809990386335613
 31
0.0
  0
LINE
  5
19DD7
  8
SU
  6
CONTINUOUS
 62
     3
 10
352.03618868944471
 20
93.409985986335585
 30
0.0
 11
352.03618868944471
 21
98.689990486335617
 31
0.0
  0
LINE
  5
19DD8
  8
SU
  6
CONTINUOUS
 62
     3
 10
352.23618848944471
 20
93.529985886335595
 30
0.0
 11
352.23618848944471
 21
98.569990586335621
 31
0.0
  0
LINE
  5
19DD9
  8
SU
  6
CONTINUOUS
 62
     3
 10
352.43618828944471
 20
93.649985786335563
 30
0.0
 11
352.43618828944471
 21
98.449990686335596
 31
0.0
  0
LINE
  5
19DDA
  8
SU
  6
CONTINUOUS
 62
     3
 10
352.63618808944472
 20
93.769985686335602
 30
0.0
 11
352.63618808944472
 21
98.329990786335586
 31
0.0
  0
LINE
  5
19DDB
  8
SU
  6
CONTINUOUS
 62
     3
 10
352.83618788944472
 20
93.889984586335586
 30
0.0
 11
352.83618788944472
 21
98.20999098633564
 31
0.0
  0
LINE
  5
19DDC
  8
SU
  6
CONTINUOUS
 62
     3
 10
353.03618768944472
 20
94.009984486335597
 30
0.0
 11
353.03618768944472
 21
98.089991086335587
 31
0.0
  0
LINE
  5
19DDD
  8
SU
  6
CONTINUOUS
 62
     3
 10
353.23618748944472
 20
94.129984386335607
 30
0.0
 11
353.23618748944472
 21
97.969991186335605
 31
0.0
  0
LINE
  5
19DDE
  8
SU
  6
CONTINUOUS
 62
     3
 10
353.43618728944472
 20
94.249984186335595
 30
0.0
 11
353.43618728944472
 21
97.849991286335623
 31
0.0
  0
LINE
  5
19DDF
  8
SU
  6
CONTINUOUS
 62
     3
 10
353.63618708944472
 20
94.369984086335606
 30
0.0
 11
353.63618708944472
 21
97.729991386335584
 31
0.0
  0
LINE
  5
19DE0
  8
SU
  6
CONTINUOUS
 62
     3
 10
353.83618688944472
 20
94.489983986335588
 30
0.0
 11
353.83618688944472
 21
97.609991486335602
 31
0.0
  0
LINE
  5
19DE1
  8
SU
  6
CONTINUOUS
 62
     3
 10
354.03618678944463
 20
94.609983886335627
 30
0.0
 11
354.03618678944463
 21
97.489991586335606
 31
0.0
  0
LINE
  5
19DE2
  8
SU
  6
CONTINUOUS
 62
     3
 10
354.43618638944452
 20
94.849983686335605
 30
0.0
 11
354.43618638944452
 21
97.249991886335593
 31
0.0
  0
LINE
  5
19DE3
  8
SU
  6
CONTINUOUS
 62
     3
 10
354.23618658944463
 20
94.72998378633558
 30
0.0
 11
354.23618658944463
 21
97.369991786335603
 31
0.0
  0
LINE
  5
19DE4
  8
SU
  6
CONTINUOUS
 62
     3
 10
354.63618618944452
 20
94.969983586335587
 30
0.0
 11
354.63618618944452
 21
97.129991986335611
 31
0.0
  0
LINE
  5
19DE5
  8
SU
  6
CONTINUOUS
 62
     3
 10
354.83618598944452
 20
95.089983436335601
 30
0.0
 11
354.83618598944452
 21
97.009992096335566
 31
0.0
  0
LINE
  5
19DE6
  8
SU
  6
CONTINUOUS
 62
     3
 10
355.03618578944452
 20
95.209983316335595
 30
0.0
 11
355.03618578944452
 21
96.88999220633562
 31
0.0
  0
LINE
  5
19DE7
  8
SU
  6
CONTINUOUS
 62
     3
 10
355.23618558944452
 20
95.329982246335604
 30
0.0
 11
355.23618558944452
 21
96.769992326335583
 31
0.0
  0
LINE
  5
19DE8
  8
SU
  6
CONTINUOUS
 62
     3
 10
355.43618538944452
 20
95.449982136335606
 30
0.0
 11
355.43618538944452
 21
96.649992436335623
 31
0.0
  0
LINE
  5
19DE9
  8
SU
  6
CONTINUOUS
 62
     3
 10
355.83618502944472
 20
95.689984766335584
 30
0.0
 11
355.83618502944472
 21
96.409992666335583
 31
0.0
  0
LINE
  5
19DEA
  8
SU
  6
CONTINUOUS
 62
     3
 10
355.63618521944471
 20
95.56998202633558
 30
0.0
 11
355.63618521944471
 21
96.529992546335606
 31
0.0
  0
LINE
  5
19DEB
  8
SU
  6
CONTINUOUS
 62
     3
 10
356.03618482944472
 20
95.809984656335615
 30
0.0
 11
356.03618482944472
 21
96.289992776335595
 31
0.0
  0
LINE
  5
19DEC
  8
SU
  6
CONTINUOUS
 62
     3
 10
356.43619443309223
 20
96.049987506241663
 30
0.0
 11
346.43619398944452
 21
102.04998742633551
 31
0.0
  0
LINE
  5
19DED
  8
SU
  6
CONTINUOUS
 62
     3
 10
356.23618177944462
 20
95.9299797763356
 30
0.0
 11
356.23618177944462
 21
96.169994796335587
 31
0.0
  0
LINE
  5
19DEE
  8
SU
  6
CONTINUOUS
 62
     3
 10
356.43619443309223
 20
96.049987506241663
 30
0.0
 11
346.43619398944452
 21
90.049991526335646
 31
0.0
  0
LINE
  5
19DEF
  8
SU
  6
CONTINUOUS
 62
     3
 10
350.43619018944452
 20
92.449986886335637
 30
0.0
 11
350.43619018944452
 21
99.649989586335607
 31
0.0
  0
LINE
  5
19DF0
  8
SU
  6
CONTINUOUS
 62
     3
 10
350.23619038944457
 20
92.329986986335584
 30
0.0
 11
350.23619038944457
 21
99.769989486335604
 31
0.0
  0
LINE
  5
19DF1
  8
SU
  6
CONTINUOUS
 62
     3
 10
350.03619058944452
 20
92.209988086335585
 30
0.0
 11
350.03619058944452
 21
99.889989386335586
 31
0.0
  0
LINE
  5
19DF2
  8
SU
  6
CONTINUOUS
 62
     3
 10
349.83619078944452
 20
92.08998818633556
 30
0.0
 11
349.83619078944452
 21
100.0099891863356
 31
0.0
  0
LINE
  5
19DF3
  8
SU
  6
CONTINUOUS
 62
     3
 10
349.63619088944461
 20
91.969988286335607
 30
0.0
 11
349.63619088944461
 21
100.1299890863355
 31
0.0
  0
LINE
  5
19DF4
  8
SU
  6
CONTINUOUS
 62
     3
 10
186.43619443309359
 20
62.049987506241109
 30
0.0
 11
186.43619443309359
 21
99.049987506241706
 31
0.0
  0
LINE
  5
19DF5
  8
SU
  6
CONTINUOUS
 62
     3
 10
356.43619443309223
 20
62.049987506242132
 30
0.0
 11
356.43619443309223
 21
99.049987506241706
 31
0.0
  0
LINE
  5
19DF6
  8
SU
  6
CONTINUOUS
 62
     3
 10
186.43619443309359
 20
96.049987506241692
 30
0.0
 11
356.43619443309223
 21
96.049987506241692
 31
0.0
  0
LINE
  5
19DF7
  8
SU
  6
CONTINUOUS
 62
     3
 10
162.4361944330935
 20
62.049987506242132
 30
0.0
 11
162.4361944330935
 21
99.049987506241706
 31
0.0
  0
LINE
  5
19DF8
  8
SU
  6
CONTINUOUS
 62
     3
 10
186.43619443309359
 20
62.049987506241109
 30
0.0
 11
186.43619443309359
 21
99.049987506241706
 31
0.0
  0
LINE
  5
19DF9
  8
SU
  6
CONTINUOUS
 62
     3
 10
162.4361944330935
 20
96.049987506241692
 30
0.0
 11
186.43619443309359
 21
96.049987506241692
 31
0.0
  0
TEXT
  5
19DFA
  8
SU
  6
CONTINUOUS
 62
     3
 10
171.1952420521414
 20
97.349987506241703
 30
0.0
 40
4.0
  1
24
 41
0.8299999999999999
  0
TEXT
  5
19DFB
  8
SU
  6
CONTINUOUS
 62
     3
 10
269.53905157595023
 20
97.349987506241703
 30
0.0
 40
4.0
  1
W
 41
0.8299999999999999
  0
TEXT
  5
19DFC
  8
SU
  6
CONTINUOUS
 62
     3
 10
195.54343252833311
 20
82.349987506241661
 30
0.0
 40
4.0
  1
引き残し90
 41
0.8299999999999999
  0
TEXT
  5
19DFD
  8
SU
  6
CONTINUOUS
 62
     3
 10
274.66228967118968
 20
82.349987506241661
 30
0.0
 40
4.0
  1
有効開口＝Wー90
 41
0.8299999999999999
  0
TEXT
  5
19DFE
  8
SU
  6
CONTINUOUS
 62
     3
 10
320.13619443309238
 20
-27.430012493758369
 30
0.0
 40
4.0
  1
167
 50
90.0
 41
0.8299999999999999
  0
TEXT
  5
19DFF
  8
SU
  6
CONTINUOUS
 62
     3
 10
235.13619443308869
 20
3.4485589348130761
 30
0.0
 40
4.0
  1
100.5
 50
90.0
 41
0.8299999999999999
  0
TEXT
  5
19E00
  8
SU
  6
CONTINUOUS
 62
     3
 10
250.13619443309369
 20
-35.96848709953786
 30
0.0
 40
4.0
  1
9.5
 50
90.0
 41
0.8299999999999999
  0
TEXT
  5
19E01
  8
SU
  6
CONTINUOUS
 62
     3
 10
235.13619443308809
 20
-68.611917255663016
 30
0.0
 40
4.0
  1
33
 50
90.0
 41
0.8299999999999999
  0
TEXT
  5
19E02
  8
SU
  6
CONTINUOUS
 62
     3
 10
235.13619443307999
 20
-97.190964874710545
 30
0.0
 40
4.0
  1
24
 50
90.0
 41
0.8299999999999999
  0
TEXT
  5
19E03
  8
SU
  6
CONTINUOUS
 62
     3
 10
235.1361944330875
 20
-119.1119172556639
 30
0.0
 40
4.0
  1
20
 50
90.0
 41
0.8299999999999999
  0
TEXT
  5
19E04
  8
SU
  6
CONTINUOUS
 62
     3
 10
255.72095633785401
 20
-144.65001249375931
 30
0.0
 40
4.0
  1
DW
 41
0.8299999999999999
  0
TEXT
  5
19E05
  8
SU
  6
CONTINUOUS
 62
     3
 10
365.1952420521402
 20
-144.6500124937555
 30
0.0
 40
4.0
  1
24
 41
0.8299999999999999
  0
TEXT
  5
19E06
  8
SU
  6
CONTINUOUS
 62
     3
 10
21.195242052141211
 20
-144.65001249375931
 30
0.0
 40
4.0
  1
24
 41
0.8299999999999999
  0
TEXT
  5
19E07
  8
SU
  6
CONTINUOUS
 62
     3
 10
70.136194433093621
 20
-72.364035894297018
 30
0.0
 40
4.0
  1
143.5
 50
90.0
 41
0.8299999999999999
  0
TEXT
  5
19E08
  8
SU
  6
CONTINUOUS
 62
     3
 10
126.13619443309371
 20
1.6875950538628861
 30
0.0
 40
4.0
  1
60.5
 50
90.0
 41
0.8299999999999999
  0
TEXT
  5
19E09
  8
SU
  6
CONTINUOUS
 62
     3
 10
111.13619443309371
 20
-18.673559343792121
 30
0.0
 40
4.0
  1
12.5
 50
90.0
 41
0.8299999999999999
  0
TEXT
  5
19E0A
  8
SU
  6
CONTINUOUS
 62
     3
 10
126.13619443309641
 20
-45.995726779472101
 30
0.0
 40
4.0
  1
4
 50
90.0
 41
0.8299999999999999
  0
TEXT
  5
19E0B
  8
SU
  6
CONTINUOUS
 62
     3
 10
-81.134430675123426
 20
52.625225601479642
 30
0.0
 40
4.0
  1
11
 50
90.0
 41
0.8299999999999999
  0
TEXT
  5
19E0C
  8
SU
  6
CONTINUOUS
 62
     3
 10
-66.1344306751229
 20
38.029499815766812
 30
0.0
 40
4.0
  1
12.5
 50
90.0
 41
0.8299999999999999
  0
TEXT
  5
19E0D
  8
SU
  6
CONTINUOUS
 62
     3
 10
-66.134430675122843
 20
-27.430035493754691
 30
0.0
 40
4.0
  1
120
 50
90.0
 41
0.8299999999999999
  0
TEXT
  5
19E0E
  8
SU
  6
CONTINUOUS
 62
     3
 10
-66.134430675122829
 20
-94.470511684230488
 30
0.0
 40
4.0
  1
12.5
 50
90.0
 41
0.8299999999999999
  0
TEXT
  5
19E0F
  8
SU
  6
CONTINUOUS
 62
     3
 10
-81.134430675078676
 20
-27.430023993756581
 30
0.0
 40
4.0
  1
145
 50
90.0
 41
0.8299999999999999
  0
TEXT
  5
19E10
  8
SU
  6
CONTINUOUS
 62
     3
 10
-81.134430675078661
 20
-103.3747858985184
 30
0.0
 40
4.0
  1
11
 50
90.0
 41
0.8299999999999999
  0
TEXT
  5
19E11
  8
SU
  6
CONTINUOUS
 62
     3
 10
-120.8846087754376
 20
154.20727235380741
 30
0.0
 40
4.0
  1
10
 50
90.0
 41
0.8299999999999999
  0
TEXT
  5
19E12
  8
SU
  6
CONTINUOUS
 62
     3
 10
-135.8846087754377
 20
139.4444152109503
 30
0.0
 40
4.0
  1
20
 50
90.0
 41
0.8299999999999999
  0
TEXT
  5
19E13
  8
SU
  6
CONTINUOUS
 62
     3
 10
-120.88460877543839
 20
73.626319972855043
 30
0.0
 40
4.0
  1
148
 50
90.0
 41
0.8299999999999999
  0
TEXT
  5
19E14
  8
SU
  6
CONTINUOUS
 62
     3
 10
-135.88460877543741
 20
-113.79272764619211
 30
0.0
 40
4.0
  1
DH
 50
90.0
 41
0.8299999999999999
  0
TEXT
  5
19E15
  8
SU
  6
CONTINUOUS
 62
     3
 10
-150.88460877543761
 20
6.2072723538075492
 30
0.0
 40
4.0
  1
10
 50
90.0
 41
0.8299999999999999
  0
TEXT
  5
19E16
  8
SU
  6
CONTINUOUS
 62
     3
 10
-135.8846087754381
 20
-243.7927276461925
 30
0.0
 40
4.0
  1
10
 50
90.0
 41
0.8299999999999999
  0
TEXT
  5
19E17
  8
SU
  6
CONTINUOUS
 62
     3
 10
-198.16556115639071
 20
258.90631606293562
 30
0.0
 40
4.0
  1
8
 41
0.8299999999999999
  0
TEXT
  5
19E18
  8
SU
  6
CONTINUOUS
 62
     3
 10
-278.06460877543873
 20
258.90631606293562
 30
0.0
 40
4.0
  1
145
 41
0.8299999999999999
  0
TEXT
  5
19E19
  8
SU
  6
CONTINUOUS
 62
     3
 10
-351.16556115639111
 20
258.90631606293562
 30
0.0
 40
4.0
  1
8
 41
0.8299999999999999
  0
TEXT
  5
19E1A
  8
SU
  6
CONTINUOUS
 62
     3
 10
-212.60508496591461
 20
243.90631606293559
 30
0.0
 40
4.0
  1
12.5
 41
0.8299999999999999
  0
TEXT
  5
19E1B
  8
SU
  6
CONTINUOUS
 62
     3
 10
-278.06460877543822
 20
243.90631606293559
 30
0.0
 40
4.0
  1
120
 41
0.8299999999999999
  0
TEXT
  5
19E1C
  8
SU
  6
CONTINUOUS
 62
     3
 10
-345.10508496591461
 20
243.9063160629359
 30
0.0
 40
4.0
  1
12.5
 41
0.8299999999999999
  0
TEXT
  5
19E1D
  8
SU
  6
CONTINUOUS
 62
     3
 10
-235.74651353734311
 20
198.90631997285479
 30
0.0
 40
4.0
  1
80
 41
0.8299999999999999
  0
TEXT
  5
19E1E
  8
SU
  6
CONTINUOUS
 62
     3
 10
-308.44698972781902
 20
198.90631997285479
 30
0.0
 40
4.0
  1
60.5
 41
0.8299999999999999
  0
TEXT
  5
19E1F
  8
SU
  6
CONTINUOUS
 62
     3
 10
-231.9469897278191
 20
183.90631997285479
 30
0.0
 40
4.0
  1
67.5
 41
0.8299999999999999
  0
TEXT
  5
19E20
  8
SU
  6
CONTINUOUS
 62
     3
 10
-272.10508496591422
 20
183.90631997285479
 30
0.0
 40
4.0
  1
12.5
 41
0.8299999999999999
  0
TEXT
  5
19E21
  8
SU
  6
CONTINUOUS
 62
     3
 10
-248.24651353734239
 20
122.25272992481391
 30
0.0
 40
4.0
  1
30
 41
0.8299999999999999
  0
TEXT
  5
19E22
  8
SU
  6
CONTINUOUS
 62
     3
 10
-374.88460877543832
 20
83.626319972854745
 30
0.0
 40
4.0
  1
128
 50
90.0
 41
0.8299999999999999
  0
TEXT
  5
19E23
  8
SU
  6
CONTINUOUS
 62
     3
 10
-374.88460877543832
 20
11.444415210949931
 30
0.0
 40
4.0
  1
20
 50
90.0
 41
0.8299999999999999
  0
TEXT
  5
19E24
  8
SU
  6
CONTINUOUS
 62
     3
 10
-365.37222782305741
 20
-29.09368002714535
 30
0.0
 40
4.0
  1
3
 41
0.8299999999999999
  0
LINE
  5
19E25
  8
SU
  6
CONTINUOUS
 62
     3
 10
-353.58460877543843
 20
-30.393680027145351
 30
0.0
 11
-351.18460877543851
 21
-30.393680027145351
 31
0.0
  0
TEXT
  5
19E26
  8
SU
  6
CONTINUOUS
 62
     3
 10
-309.16794210877163
 20
-29.09368002714535
 30
0.0
 40
4.0
  1
97.5
 41
0.8299999999999999
  0
LINE
  5
19E27
  8
SU
  6
CONTINUOUS
 62
     3
 10
-353.58460877543843
 20
-30.393680027145351
 30
0.0
 11
-351.18460877543851
 21
-30.393680027145351
 31
0.0
  0
TEXT
  5
19E28
  8
SU
  6
CONTINUOUS
 62
     3
 10
-240.39822082181129
 20
-14.093680027145011
 30
0.0
 40
4.0
  1
9.5
 41
0.8299999999999999
  0
TEXT
  5
19E29
  8
SU
  6
CONTINUOUS
 62
     3
 10
-228.8915067014014
 20
-29.09368002714513
 30
0.0
 40
4.0
  1
33
 41
0.8299999999999999
  0
TEXT
  5
19E2A
  8
SU
  6
CONTINUOUS
 62
     3
 10
-183.9588944897236
 20
-29.093680027144881
 30
0.0
 40
4.0
  1
3
 41
0.8299999999999999
  0
LINE
  5
19E2B
  8
SU
  6
CONTINUOUS
 62
     3
 10
-192.5846087754384
 20
-30.39368002714491
 30
0.0
 11
-194.9846087754384
 21
-30.39368002714491
 31
0.0
  0
TEXT
  5
19E2C
  8
SU
  6
CONTINUOUS
 62
     3
 10
-205.77222782305711
 20
-29.093680027144881
 30
0.0
 40
4.0
  1
21
 41
0.8299999999999999
  0
TEXT
  5
19E2D
  8
SU
  6
CONTINUOUS
 62
     3
 10
-252.85889448972381
 20
-14.093680027145011
 30
0.0
 40
4.0
  1
4
 41
0.8299999999999999
  0
TEXT
  5
19E2E
  8
SU
  6
CONTINUOUS
 62
     3
 10
-182.74651353734271
 20
-44.093680027145354
 30
0.0
 40
4.0
  1
20
 41
0.8299999999999999
  0
TEXT
  5
19E2F
  8
SU
  6
CONTINUOUS
 62
     3
 10
-278.06460877543822
 20
-44.093680027145354
 30
0.0
 40
4.0
  1
167
 41
0.8299999999999999
  0
TEXT
  5
19E30
  8
SU
  6
CONTINUOUS
 62
     3
 10
-120.88460877543839
 20
-122.132727646193
 30
0.0
 40
4.0
  1
H
 50
90.0
 41
0.8299999999999999
  0
ARC
  5
19E31
  8
SU
  6
CONTINUOUS
 62
     3
 10
-189.5846087754382
 20
-45.393680027145336
 30
0.0
 40
0.3000000000000114
 50
180.0
 51
0.0
  0
ARC
  5
19E32
  8
SU
  6
CONTINUOUS
 62
     3
 10
-189.5846087754382
 20
-45.393680027145336
 30
0.0
 40
0.3000000000000114
 50
0.0
 51
180.0
  0
ARC
  5
19E33
  8
SU
  6
CONTINUOUS
 62
     3
 10
-356.58460877543843
 20
-45.393680027145336
 30
0.0
 40
0.3000000000000114
 50
0.0
 51
180.0
  0
ARC
  5
19E34
  8
SU
  6
CONTINUOUS
 62
     3
 10
-356.58460877543843
 20
-45.393680027145336
 30
0.0
 40
0.3000000000000114
 50
180.0
 51
0.0
  0
ARC
  5
19E35
  8
SU
  6
CONTINUOUS
 62
     3
 10
-169.58460877543729
 20
-45.393680027145336
 30
0.0
 40
0.3000000000000114
 50
180.0
 51
0.0
  0
ARC
  5
19E36
  8
SU
  6
CONTINUOUS
 62
     3
 10
-169.58460877543729
 20
-45.393680027145336
 30
0.0
 40
0.3000000000000114
 50
0.0
 51
180.0
  0
ARC
  5
19E37
  8
SU
  6
CONTINUOUS
 62
     3
 10
-189.5846087754382
 20
-45.393680027145336
 30
0.0
 40
0.3000000000000114
 50
0.0
 51
180.0
  0
ARC
  5
19E38
  8
SU
  6
CONTINUOUS
 62
     3
 10
-189.5846087754382
 20
-45.393680027145336
 30
0.0
 40
0.3000000000000114
 50
180.0
 51
0.0
  0
ARC
  5
19E39
  8
SU
  6
CONTINUOUS
 62
     3
 10
-260.08460877543712
 20
-15.39368002714502
 30
0.0
 40
0.3000000000000114
 50
0.0
 51
180.0
  0
ARC
  5
19E3A
  8
SU
  6
CONTINUOUS
 62
     3
 10
-260.08460877543712
 20
-15.39368002714502
 30
0.0
 40
0.3000000000000114
 50
180.0
 51
0.0
  0
ARC
  5
19E3B
  8
SU
  6
CONTINUOUS
 62
     3
 10
-256.08460877543803
 20
-15.39368002714502
 30
0.0
 40
0.3000000000000114
 50
180.0
 51
0.0
  0
ARC
  5
19E3C
  8
SU
  6
CONTINUOUS
 62
     3
 10
-256.08460877543803
 20
-15.39368002714502
 30
0.0
 40
0.3000000000000114
 50
0.0
 51
180.0
  0
ARC
  5
19E3D
  8
SU
  6
CONTINUOUS
 62
     3
 10
-213.58460877543729
 20
-30.39368002714491
 30
0.0
 40
0.3000000000000114
 50
0.0
 51
180.0
  0
ARC
  5
19E3E
  8
SU
  6
CONTINUOUS
 62
     3
 10
-213.58460877543729
 20
-30.39368002714491
 30
0.0
 40
0.3000000000000114
 50
180.0
 51
0.0
  0
ARC
  5
19E3F
  8
SU
  6
CONTINUOUS
 62
     3
 10
-192.5846087754384
 20
-30.39368002714491
 30
0.0
 40
0.3000000000000114
 50
180.0
 51
0.0
  0
ARC
  5
19E40
  8
SU
  6
CONTINUOUS
 62
     3
 10
-192.5846087754384
 20
-30.39368002714491
 30
0.0
 40
0.3000000000000114
 50
0.0
 51
180.0
  0
ARC
  5
19E41
  8
SU
  6
CONTINUOUS
 62
     3
 10
-192.5846087754384
 20
-30.39368002714491
 30
0.0
 40
0.3000000000000114
 50
180.0
 51
0.0
  0
ARC
  5
19E42
  8
SU
  6
CONTINUOUS
 62
     3
 10
-192.5846087754384
 20
-30.39368002714491
 30
0.0
 40
0.3000000000000114
 50
0.0
 51
180.0
  0
ARC
  5
19E43
  8
SU
  6
CONTINUOUS
 62
     3
 10
-189.5846087754382
 20
-30.39368002714491
 30
0.0
 40
0.3000000000000114
 50
0.0
 51
180.0
  0
ARC
  5
19E44
  8
SU
  6
CONTINUOUS
 62
     3
 10
-189.5846087754382
 20
-30.39368002714491
 30
0.0
 40
0.3000000000000114
 50
180.0
 51
0.0
  0
ARC
  5
19E45
  8
SU
  6
CONTINUOUS
 62
     3
 10
-246.5846087754372
 20
-30.393680027145141
 30
0.0
 40
0.3000000000000114
 50
0.0
 51
180.0
  0
ARC
  5
19E46
  8
SU
  6
CONTINUOUS
 62
     3
 10
-246.5846087754372
 20
-30.393680027145141
 30
0.0
 40
0.3000000000000114
 50
180.0
 51
0.0
  0
ARC
  5
19E47
  8
SU
  6
CONTINUOUS
 62
     3
 10
-213.58460877543729
 20
-30.393680027145141
 30
0.0
 40
0.3000000000000114
 50
180.0
 51
0.0
  0
ARC
  5
19E48
  8
SU
  6
CONTINUOUS
 62
     3
 10
-213.58460877543729
 20
-30.393680027145141
 30
0.0
 40
0.3000000000000114
 50
0.0
 51
180.0
  0
ARC
  5
19E49
  8
SU
  6
CONTINUOUS
 62
     3
 10
-256.08460877543803
 20
-30.393680027145351
 30
0.0
 40
0.3000000000000114
 50
0.0
 51
180.0
  0
ARC
  5
19E4A
  8
SU
  6
CONTINUOUS
 62
     3
 10
-256.08460877543803
 20
-30.393680027145351
 30
0.0
 40
0.3000000000000114
 50
180.0
 51
0.0
  0
ARC
  5
19E4B
  8
SU
  6
CONTINUOUS
 62
     3
 10
-246.5846087754372
 20
-30.393680027145351
 30
0.0
 40
0.3000000000000114
 50
180.0
 51
0.0
  0
ARC
  5
19E4C
  8
SU
  6
CONTINUOUS
 62
     3
 10
-246.5846087754372
 20
-30.393680027145351
 30
0.0
 40
0.3000000000000114
 50
0.0
 51
180.0
  0
ARC
  5
19E4D
  8
SU
  6
CONTINUOUS
 62
     3
 10
-353.58460877543843
 20
-30.393680027145351
 30
0.0
 40
0.3000000000000114
 50
0.0
 51
180.0
  0
ARC
  5
19E4E
  8
SU
  6
CONTINUOUS
 62
     3
 10
-353.58460877543843
 20
-30.393680027145351
 30
0.0
 40
0.3000000000000114
 50
180.0
 51
0.0
  0
ARC
  5
19E4F
  8
SU
  6
CONTINUOUS
 62
     3
 10
-256.08460877543803
 20
-30.393680027145351
 30
0.0
 40
0.3000000000000114
 50
180.0
 51
0.0
  0
ARC
  5
19E50
  8
SU
  6
CONTINUOUS
 62
     3
 10
-256.08460877543803
 20
-30.393680027145351
 30
0.0
 40
0.3000000000000114
 50
0.0
 51
180.0
  0
ARC
  5
19E51
  8
SU
  6
CONTINUOUS
 62
     3
 10
-353.58460877543843
 20
-30.393680027145351
 30
0.0
 40
0.3000000000000114
 50
0.0
 51
180.0
  0
ARC
  5
19E52
  8
SU
  6
CONTINUOUS
 62
     3
 10
-353.58460877543843
 20
-30.393680027145351
 30
0.0
 40
0.3000000000000114
 50
180.0
 51
0.0
  0
ARC
  5
19E53
  8
SU
  6
CONTINUOUS
 62
     3
 10
-356.58460877543843
 20
-30.393680027145351
 30
0.0
 40
0.3000000000000114
 50
180.0
 51
0.0
  0
ARC
  5
19E54
  8
SU
  6
CONTINUOUS
 62
     3
 10
-356.58460877543843
 20
-30.393680027145351
 30
0.0
 40
0.3000000000000114
 50
0.0
 51
180.0
  0
ARC
  5
19E55
  8
SU
  6
CONTINUOUS
 62
     3
 10
-373.58460877543848
 20
24.606319972854848
 30
0.0
 40
0.3000000000000007
 50
270.0
 51
90.0
  0
ARC
  5
19E56
  8
SU
  6
CONTINUOUS
 62
     3
 10
-373.58460877543848
 20
24.606319972854848
 30
0.0
 40
0.3000000000000007
 50
90.0
 51
270.0
  0
ARC
  5
19E57
  8
SU
  6
CONTINUOUS
 62
     3
 10
-373.58460877543848
 20
4.6063199728546387
 30
0.0
 40
0.2999999999999998
 50
90.0
 51
270.0
  0
ARC
  5
19E58
  8
SU
  6
CONTINUOUS
 62
     3
 10
-373.58460877543848
 20
4.6063199728546387
 30
0.0
 40
0.2999999999999998
 50
270.0
 51
90.0
  0
ARC
  5
19E59
  8
SU
  6
CONTINUOUS
 62
     3
 10
-373.58460877543831
 20
152.60631997285469
 30
0.0
 40
0.3000000000000114
 50
270.0
 51
90.0
  0
ARC
  5
19E5A
  8
SU
  6
CONTINUOUS
 62
     3
 10
-373.58460877543831
 20
152.60631997285469
 30
0.0
 40
0.3000000000000114
 50
90.0
 51
270.0
  0
ARC
  5
19E5B
  8
SU
  6
CONTINUOUS
 62
     3
 10
-373.58460877543848
 20
24.606319972854848
 30
0.0
 40
0.3000000000000007
 50
90.0
 51
270.0
  0
ARC
  5
19E5C
  8
SU
  6
CONTINUOUS
 62
     3
 10
-373.58460877543848
 20
24.606319972854848
 30
0.0
 40
0.3000000000000007
 50
270.0
 51
90.0
  0
ARC
  5
19E5D
  8
SU
  6
CONTINUOUS
 62
     3
 10
-230.08460877543729
 20
120.9527299248138
 30
0.0
 40
0.3000000000000114
 50
180.0
 51
0.0
  0
ARC
  5
19E5E
  8
SU
  6
CONTINUOUS
 62
     3
 10
-230.08460877543729
 20
120.9527299248138
 30
0.0
 40
0.3000000000000114
 50
0.0
 51
180.0
  0
ARC
  5
19E5F
  8
SU
  6
CONTINUOUS
 62
     3
 10
-260.0846087754378
 20
120.9527299248138
 30
0.0
 40
0.3000000000000114
 50
0.0
 51
180.0
  0
ARC
  5
19E60
  8
SU
  6
CONTINUOUS
 62
     3
 10
-260.0846087754378
 20
120.9527299248138
 30
0.0
 40
0.3000000000000114
 50
180.0
 51
0.0
  0
ARC
  5
19E61
  8
SU
  6
CONTINUOUS
 62
     3
 10
-260.08460877543791
 20
182.60631997285481
 30
0.0
 40
0.3000000000000114
 50
180.0
 51
0.0
  0
ARC
  5
19E62
  8
SU
  6
CONTINUOUS
 62
     3
 10
-260.08460877543791
 20
182.60631997285481
 30
0.0
 40
0.3000000000000114
 50
0.0
 51
180.0
  0
ARC
  5
19E63
  8
SU
  6
CONTINUOUS
 62
     3
 10
-272.58460877543803
 20
182.60631997285481
 30
0.0
 40
0.3000000000000114
 50
0.0
 51
180.0
  0
ARC
  5
19E64
  8
SU
  6
CONTINUOUS
 62
     3
 10
-272.58460877543803
 20
182.60631997285481
 30
0.0
 40
0.3000000000000114
 50
180.0
 51
0.0
  0
ARC
  5
19E65
  8
SU
  6
CONTINUOUS
 62
     3
 10
-192.5846087754384
 20
182.60631997285481
 30
0.0
 40
0.3000000000000114
 50
180.0
 51
0.0
  0
ARC
  5
19E66
  8
SU
  6
CONTINUOUS
 62
     3
 10
-192.5846087754384
 20
182.60631997285481
 30
0.0
 40
0.3000000000000114
 50
0.0
 51
180.0
  0
ARC
  5
19E67
  8
SU
  6
CONTINUOUS
 62
     3
 10
-260.08460877543791
 20
182.60631997285481
 30
0.0
 40
0.3000000000000114
 50
0.0
 51
180.0
  0
ARC
  5
19E68
  8
SU
  6
CONTINUOUS
 62
     3
 10
-260.08460877543791
 20
182.60631997285481
 30
0.0
 40
0.3000000000000114
 50
180.0
 51
0.0
  0
ARC
  5
19E69
  8
SU
  6
CONTINUOUS
 62
     3
 10
-272.58460877543803
 20
197.60631997285481
 30
0.0
 40
0.3000000000000114
 50
180.0
 51
0.0
  0
ARC
  5
19E6A
  8
SU
  6
CONTINUOUS
 62
     3
 10
-272.58460877543803
 20
197.60631997285481
 30
0.0
 40
0.3000000000000114
 50
0.0
 51
180.0
  0
ARC
  5
19E6B
  8
SU
  6
CONTINUOUS
 62
     3
 10
-333.08460877543803
 20
197.60631997285481
 30
0.0
 40
0.3000000000000114
 50
0.0
 51
180.0
  0
ARC
  5
19E6C
  8
SU
  6
CONTINUOUS
 62
     3
 10
-333.08460877543803
 20
197.60631997285481
 30
0.0
 40
0.3000000000000114
 50
180.0
 51
0.0
  0
ARC
  5
19E6D
  8
SU
  6
CONTINUOUS
 62
     3
 10
-192.5846087754384
 20
197.60631997285481
 30
0.0
 40
0.3000000000000114
 50
180.0
 51
0.0
  0
ARC
  5
19E6E
  8
SU
  6
CONTINUOUS
 62
     3
 10
-192.5846087754384
 20
197.60631997285481
 30
0.0
 40
0.3000000000000114
 50
0.0
 51
180.0
  0
ARC
  5
19E6F
  8
SU
  6
CONTINUOUS
 62
     3
 10
-272.58460877543803
 20
197.60631997285481
 30
0.0
 40
0.3000000000000114
 50
0.0
 51
180.0
  0
ARC
  5
19E70
  8
SU
  6
CONTINUOUS
 62
     3
 10
-272.58460877543803
 20
197.60631997285481
 30
0.0
 40
0.3000000000000114
 50
180.0
 51
0.0
  0
ARC
  5
19E71
  8
SU
  6
CONTINUOUS
 62
     3
 10
-333.08460877543803
 20
242.6063160629358
 30
0.0
 40
0.3000000000000114
 50
180.0
 51
0.0
  0
ARC
  5
19E72
  8
SU
  6
CONTINUOUS
 62
     3
 10
-333.08460877543803
 20
242.6063160629358
 30
0.0
 40
0.3000000000000114
 50
0.0
 51
180.0
  0
ARC
  5
19E73
  8
SU
  6
CONTINUOUS
 62
     3
 10
-345.58460877543882
 20
242.6063160629358
 30
0.0
 40
0.3000000000000114
 50
0.0
 51
180.0
  0
ARC
  5
19E74
  8
SU
  6
CONTINUOUS
 62
     3
 10
-345.58460877543882
 20
242.6063160629358
 30
0.0
 40
0.3000000000000114
 50
180.0
 51
0.0
  0
ARC
  5
19E75
  8
SU
  6
CONTINUOUS
 62
     3
 10
-213.08460877543871
 20
242.60631606293569
 30
0.0
 40
0.3000000000000114
 50
180.0
 51
0.0
  0
ARC
  5
19E76
  8
SU
  6
CONTINUOUS
 62
     3
 10
-213.08460877543871
 20
242.60631606293569
 30
0.0
 40
0.3000000000000114
 50
0.0
 51
180.0
  0
ARC
  5
19E77
  8
SU
  6
CONTINUOUS
 62
     3
 10
-333.08460877543803
 20
242.60631606293569
 30
0.0
 40
0.3000000000000114
 50
0.0
 51
180.0
  0
ARC
  5
19E78
  8
SU
  6
CONTINUOUS
 62
     3
 10
-333.08460877543803
 20
242.60631606293569
 30
0.0
 40
0.3000000000000114
 50
180.0
 51
0.0
  0
ARC
  5
19E79
  8
SU
  6
CONTINUOUS
 62
     3
 10
-200.5846087754384
 20
242.6063160629356
 30
0.0
 40
0.3000000000000114
 50
180.0
 51
0.0
  0
ARC
  5
19E7A
  8
SU
  6
CONTINUOUS
 62
     3
 10
-200.5846087754384
 20
242.6063160629356
 30
0.0
 40
0.3000000000000114
 50
0.0
 51
180.0
  0
ARC
  5
19E7B
  8
SU
  6
CONTINUOUS
 62
     3
 10
-213.08460877543871
 20
242.6063160629356
 30
0.0
 40
0.3000000000000114
 50
0.0
 51
180.0
  0
ARC
  5
19E7C
  8
SU
  6
CONTINUOUS
 62
     3
 10
-213.08460877543871
 20
242.6063160629356
 30
0.0
 40
0.3000000000000114
 50
180.0
 51
0.0
  0
ARC
  5
19E7D
  8
SU
  6
CONTINUOUS
 62
     3
 10
-345.58460877543882
 20
257.6063160629356
 30
0.0
 40
0.3000000000000114
 50
180.0
 51
0.0
  0
ARC
  5
19E7E
  8
SU
  6
CONTINUOUS
 62
     3
 10
-345.58460877543882
 20
257.6063160629356
 30
0.0
 40
0.3000000000000114
 50
0.0
 51
180.0
  0
ARC
  5
19E7F
  8
SU
  6
CONTINUOUS
 62
     3
 10
-353.58460877543843
 20
257.6063160629356
 30
0.0
 40
0.3000000000000114
 50
0.0
 51
180.0
  0
ARC
  5
19E80
  8
SU
  6
CONTINUOUS
 62
     3
 10
-353.58460877543843
 20
257.6063160629356
 30
0.0
 40
0.3000000000000114
 50
180.0
 51
0.0
  0
ARC
  5
19E81
  8
SU
  6
CONTINUOUS
 62
     3
 10
-200.5846087754384
 20
257.6063160629356
 30
0.0
 40
0.3000000000000114
 50
180.0
 51
0.0
  0
ARC
  5
19E82
  8
SU
  6
CONTINUOUS
 62
     3
 10
-200.5846087754384
 20
257.6063160629356
 30
0.0
 40
0.3000000000000114
 50
0.0
 51
180.0
  0
ARC
  5
19E83
  8
SU
  6
CONTINUOUS
 62
     3
 10
-345.58460877543882
 20
257.6063160629356
 30
0.0
 40
0.3000000000000114
 50
0.0
 51
180.0
  0
ARC
  5
19E84
  8
SU
  6
CONTINUOUS
 62
     3
 10
-345.58460877543882
 20
257.6063160629356
 30
0.0
 40
0.3000000000000114
 50
180.0
 51
0.0
  0
ARC
  5
19E85
  8
SU
  6
CONTINUOUS
 62
     3
 10
-192.5846087754384
 20
257.6063160629356
 30
0.0
 40
0.3000000000000114
 50
180.0
 51
0.0
  0
ARC
  5
19E86
  8
SU
  6
CONTINUOUS
 62
     3
 10
-192.5846087754384
 20
257.6063160629356
 30
0.0
 40
0.3000000000000114
 50
0.0
 51
180.0
  0
ARC
  5
19E87
  8
SU
  6
CONTINUOUS
 62
     3
 10
-200.5846087754384
 20
257.6063160629356
 30
0.0
 40
0.3000000000000114
 50
0.0
 51
180.0
  0
ARC
  5
19E88
  8
SU
  6
CONTINUOUS
 62
     3
 10
-200.5846087754384
 20
257.6063160629356
 30
0.0
 40
0.3000000000000114
 50
180.0
 51
0.0
  0
ARC
  5
19E89
  8
SU
  6
CONTINUOUS
 62
     3
 10
-134.5846087754382
 20
-235.39368002714471
 30
0.0
 40
0.3000000000000114
 50
270.0
 51
90.0
  0
ARC
  5
19E8A
  8
SU
  6
CONTINUOUS
 62
     3
 10
-134.5846087754382
 20
-235.39368002714471
 30
0.0
 40
0.3000000000000114
 50
90.0
 51
270.0
  0
ARC
  5
19E8B
  8
SU
  6
CONTINUOUS
 62
     3
 10
-134.5846087754382
 20
-245.39368002714511
 30
0.0
 40
0.3000000000000114
 50
90.0
 51
270.0
  0
ARC
  5
19E8C
  8
SU
  6
CONTINUOUS
 62
     3
 10
-134.5846087754382
 20
-245.39368002714511
 30
0.0
 40
0.3000000000000114
 50
270.0
 51
90.0
  0
ARC
  5
19E8D
  8
SU
  6
CONTINUOUS
 62
     3
 10
-149.58460877543729
 20
14.606319972855751
 30
0.0
 40
0.3000000000000007
 50
270.0
 51
90.0
  0
ARC
  5
19E8E
  8
SU
  6
CONTINUOUS
 62
     3
 10
-149.58460877543729
 20
14.606319972855751
 30
0.0
 40
0.3000000000000007
 50
90.0
 51
270.0
  0
ARC
  5
19E8F
  8
SU
  6
CONTINUOUS
 62
     3
 10
-149.58460877543729
 20
4.606319972854628
 30
0.0
 40
0.2999999999999998
 50
90.0
 51
270.0
  0
ARC
  5
19E90
  8
SU
  6
CONTINUOUS
 62
     3
 10
-149.58460877543729
 20
4.606319972854628
 30
0.0
 40
0.2999999999999998
 50
270.0
 51
90.0
  0
ARC
  5
19E91
  8
SU
  6
CONTINUOUS
 62
     3
 10
-134.5846087754374
 20
14.606319972855751
 30
0.0
 40
0.3000000000000007
 50
270.0
 51
90.0
  0
ARC
  5
19E92
  8
SU
  6
CONTINUOUS
 62
     3
 10
-134.5846087754374
 20
14.606319972855751
 30
0.0
 40
0.3000000000000007
 50
90.0
 51
270.0
  0
ARC
  5
19E93
  8
SU
  6
CONTINUOUS
 62
     3
 10
-134.5846087754374
 20
-235.39368002714471
 30
0.0
 40
0.3000000000000114
 50
90.0
 51
270.0
  0
ARC
  5
19E94
  8
SU
  6
CONTINUOUS
 62
     3
 10
-134.5846087754374
 20
-235.39368002714471
 30
0.0
 40
0.3000000000000114
 50
270.0
 51
90.0
  0
ARC
  5
19E95
  8
SU
  6
CONTINUOUS
 62
     3
 10
-134.5846087754376
 20
152.6063199728554
 30
0.0
 40
0.3000000000000114
 50
270.0
 51
90.0
  0
ARC
  5
19E96
  8
SU
  6
CONTINUOUS
 62
     3
 10
-134.5846087754376
 20
152.6063199728554
 30
0.0
 40
0.3000000000000114
 50
90.0
 51
270.0
  0
ARC
  5
19E97
  8
SU
  6
CONTINUOUS
 62
     3
 10
-134.5846087754376
 20
132.60631997285481
 30
0.0
 40
0.3000000000000114
 50
90.0
 51
270.0
  0
ARC
  5
19E98
  8
SU
  6
CONTINUOUS
 62
     3
 10
-134.5846087754376
 20
132.60631997285481
 30
0.0
 40
0.3000000000000114
 50
270.0
 51
90.0
  0
ARC
  5
19E99
  8
SU
  6
CONTINUOUS
 62
     3
 10
-119.5846087754375
 20
162.60631997285481
 30
0.0
 40
0.3000000000000114
 50
270.0
 51
90.0
  0
ARC
  5
19E9A
  8
SU
  6
CONTINUOUS
 62
     3
 10
-119.5846087754375
 20
162.60631997285481
 30
0.0
 40
0.3000000000000114
 50
90.0
 51
270.0
  0
ARC
  5
19E9B
  8
SU
  6
CONTINUOUS
 62
     3
 10
-119.5846087754375
 20
152.6063199728554
 30
0.0
 40
0.3000000000000114
 50
90.0
 51
270.0
  0
ARC
  5
19E9C
  8
SU
  6
CONTINUOUS
 62
     3
 10
-119.5846087754375
 20
152.6063199728554
 30
0.0
 40
0.3000000000000114
 50
270.0
 51
90.0
  0
ARC
  5
19E9D
  8
SU
  6
CONTINUOUS
 62
     3
 10
-79.834430675078693
 20
-94.950035493754044
 30
0.0
 40
0.2999999999999971
 50
270.0
 51
90.0
  0
ARC
  5
19E9E
  8
SU
  6
CONTINUOUS
 62
     3
 10
-79.834430675078693
 20
-94.950035493754044
 30
0.0
 40
0.2999999999999971
 50
90.0
 51
270.0
  0
ARC
  5
19E9F
  8
SU
  6
CONTINUOUS
 62
     3
 10
-79.834430675078693
 20
-105.9500124937589
 30
0.0
 40
0.2999999999999971
 50
90.0
 51
270.0
  0
ARC
  5
19EA0
  8
SU
  6
CONTINUOUS
 62
     3
 10
-79.834430675078693
 20
-105.9500124937589
 30
0.0
 40
0.2999999999999971
 50
270.0
 51
90.0
  0
ARC
  5
19EA1
  8
SU
  6
CONTINUOUS
 62
     3
 10
-79.834430675078664
 20
50.049987506240889
 30
0.0
 40
0.2999999999999971
 50
270.0
 51
90.0
  0
ARC
  5
19EA2
  8
SU
  6
CONTINUOUS
 62
     3
 10
-79.834430675078664
 20
50.049987506240889
 30
0.0
 40
0.2999999999999971
 50
90.0
 51
270.0
  0
ARC
  5
19EA3
  8
SU
  6
CONTINUOUS
 62
     3
 10
-79.834430675078693
 20
-94.950035493754044
 30
0.0
 40
0.2999999999999971
 50
90.0
 51
270.0
  0
ARC
  5
19EA4
  8
SU
  6
CONTINUOUS
 62
     3
 10
-79.834430675078693
 20
-94.950035493754044
 30
0.0
 40
0.2999999999999971
 50
270.0
 51
90.0
  0
ARC
  5
19EA5
  8
SU
  6
CONTINUOUS
 62
     3
 10
-64.834430675122846
 20
-82.450035493754527
 30
0.0
 40
0.2999999999999971
 50
270.0
 51
90.0
  0
ARC
  5
19EA6
  8
SU
  6
CONTINUOUS
 62
     3
 10
-64.834430675122846
 20
-82.450035493754527
 30
0.0
 40
0.2999999999999971
 50
90.0
 51
270.0
  0
ARC
  5
19EA7
  8
SU
  6
CONTINUOUS
 62
     3
 10
-64.834430675122846
 20
-94.950035493754044
 30
0.0
 40
0.2999999999999971
 50
90.0
 51
270.0
  0
ARC
  5
19EA8
  8
SU
  6
CONTINUOUS
 62
     3
 10
-64.834430675122846
 20
-94.950035493754044
 30
0.0
 40
0.2999999999999971
 50
270.0
 51
90.0
  0
ARC
  5
19EA9
  8
SU
  6
CONTINUOUS
 62
     3
 10
-64.834430675122817
 20
37.549964506245153
 30
0.0
 40
0.2999999999999971
 50
270.0
 51
90.0
  0
ARC
  5
19EAA
  8
SU
  6
CONTINUOUS
 62
     3
 10
-64.834430675122817
 20
37.549964506245153
 30
0.0
 40
0.2999999999999971
 50
90.0
 51
270.0
  0
ARC
  5
19EAB
  8
SU
  6
CONTINUOUS
 62
     3
 10
-64.83443067512286
 20
-82.450035493754527
 30
0.0
 40
0.2999999999999971
 50
90.0
 51
270.0
  0
ARC
  5
19EAC
  8
SU
  6
CONTINUOUS
 62
     3
 10
-64.83443067512286
 20
-82.450035493754527
 30
0.0
 40
0.2999999999999971
 50
270.0
 51
90.0
  0
ARC
  5
19EAD
  8
SU
  6
CONTINUOUS
 62
     3
 10
-64.834430675122888
 20
50.049987506240889
 30
0.0
 40
0.2999999999999971
 50
270.0
 51
90.0
  0
ARC
  5
19EAE
  8
SU
  6
CONTINUOUS
 62
     3
 10
-64.834430675122888
 20
50.049987506240889
 30
0.0
 40
0.2999999999999971
 50
90.0
 51
270.0
  0
ARC
  5
19EAF
  8
SU
  6
CONTINUOUS
 62
     3
 10
-64.834430675122888
 20
37.549964506245153
 30
0.0
 40
0.2999999999999971
 50
90.0
 51
270.0
  0
ARC
  5
19EB0
  8
SU
  6
CONTINUOUS
 62
     3
 10
-64.834430675122888
 20
37.549964506245153
 30
0.0
 40
0.2999999999999971
 50
270.0
 51
90.0
  0
ARC
  5
19EB1
  8
SU
  6
CONTINUOUS
 62
     3
 10
-79.8344306751234
 20
61.049987506242182
 30
0.0
 40
0.2999999999999971
 50
270.0
 51
90.0
  0
ARC
  5
19EB2
  8
SU
  6
CONTINUOUS
 62
     3
 10
-79.8344306751234
 20
61.049987506242182
 30
0.0
 40
0.2999999999999971
 50
90.0
 51
270.0
  0
ARC
  5
19EB3
  8
SU
  6
CONTINUOUS
 62
     3
 10
-79.8344306751234
 20
50.049987506240889
 30
0.0
 40
0.2999999999999971
 50
90.0
 51
270.0
  0
ARC
  5
19EB4
  8
SU
  6
CONTINUOUS
 62
     3
 10
-79.8344306751234
 20
50.049987506240889
 30
0.0
 40
0.2999999999999971
 50
270.0
 51
90.0
  0
ARC
  5
19EB5
  8
SU
  6
CONTINUOUS
 62
     3
 10
127.4361944330964
 20
-35.45001249375774
 30
0.0
 40
0.2999999999999971
 50
270.0
 51
90.0
  0
ARC
  5
19EB6
  8
SU
  6
CONTINUOUS
 62
     3
 10
127.4361944330964
 20
-35.45001249375774
 30
0.0
 40
0.2999999999999971
 50
90.0
 51
270.0
  0
ARC
  5
19EB7
  8
SU
  6
CONTINUOUS
 62
     3
 10
127.4361944330964
 20
-39.45001249375786
 30
0.0
 40
0.2999999999999971
 50
90.0
 51
270.0
  0
ARC
  5
19EB8
  8
SU
  6
CONTINUOUS
 62
     3
 10
127.4361944330964
 20
-39.45001249375786
 30
0.0
 40
0.2999999999999971
 50
270.0
 51
90.0
  0
ARC
  5
19EB9
  8
SU
  6
CONTINUOUS
 62
     3
 10
127.436194433099
 20
-22.950012493757502
 30
0.0
 40
0.3000000000000007
 50
270.0
 51
90.0
  0
ARC
  5
19EBA
  8
SU
  6
CONTINUOUS
 62
     3
 10
127.436194433099
 20
-22.950012493757502
 30
0.0
 40
0.3000000000000007
 50
90.0
 51
270.0
  0
ARC
  5
19EBB
  8
SU
  6
CONTINUOUS
 62
     3
 10
127.436194433099
 20
-35.45001249375774
 30
0.0
 40
0.2999999999999971
 50
90.0
 51
270.0
  0
ARC
  5
19EBC
  8
SU
  6
CONTINUOUS
 62
     3
 10
127.436194433099
 20
-35.45001249375774
 30
0.0
 40
0.2999999999999971
 50
270.0
 51
90.0
  0
ARC
  5
19EBD
  8
SU
  6
CONTINUOUS
 62
     3
 10
127.4361944330937
 20
37.549964506245153
 30
0.0
 40
0.2999999999999971
 50
270.0
 51
90.0
  0
ARC
  5
19EBE
  8
SU
  6
CONTINUOUS
 62
     3
 10
127.4361944330937
 20
37.549964506245153
 30
0.0
 40
0.2999999999999971
 50
90.0
 51
270.0
  0
ARC
  5
19EBF
  8
SU
  6
CONTINUOUS
 62
     3
 10
127.4361944330937
 20
-22.950012493757502
 30
0.0
 40
0.3000000000000007
 50
90.0
 51
270.0
  0
ARC
  5
19EC0
  8
SU
  6
CONTINUOUS
 62
     3
 10
127.4361944330937
 20
-22.950012493757502
 30
0.0
 40
0.3000000000000007
 50
270.0
 51
90.0
  0
ARC
  5
19EC1
  8
SU
  6
CONTINUOUS
 62
     3
 10
71.43619443309359
 20
37.549964506245132
 30
0.0
 40
0.2999999999999971
 50
270.0
 51
90.0
  0
ARC
  5
19EC2
  8
SU
  6
CONTINUOUS
 62
     3
 10
71.43619443309359
 20
37.549964506245132
 30
0.0
 40
0.2999999999999971
 50
90.0
 51
270.0
  0
ARC
  5
19EC3
  8
SU
  6
CONTINUOUS
 62
     3
 10
71.43619443309359
 20
-105.950012493759
 30
0.0
 40
0.2999999999999971
 50
90.0
 51
270.0
  0
ARC
  5
19EC4
  8
SU
  6
CONTINUOUS
 62
     3
 10
71.43619443309359
 20
-105.950012493759
 30
0.0
 40
0.2999999999999971
 50
270.0
 51
90.0
  0
ARC
  5
19EC5
  8
SU
  6
CONTINUOUS
 62
     3
 10
36.436194433093767
 20
-145.9500124937594
 30
0.0
 40
0.2999999999999971
 50
180.0
 51
0.0
  0
ARC
  5
19EC6
  8
SU
  6
CONTINUOUS
 62
     3
 10
36.436194433093767
 20
-145.9500124937594
 30
0.0
 40
0.2999999999999971
 50
0.0
 51
180.0
  0
ARC
  5
19EC7
  8
SU
  6
CONTINUOUS
 62
     3
 10
12.436194433093441
 20
-145.9500124937594
 30
0.0
 40
0.3000000000000007
 50
0.0
 51
180.0
  0
ARC
  5
19EC8
  8
SU
  6
CONTINUOUS
 62
     3
 10
12.436194433093441
 20
-145.9500124937594
 30
0.0
 40
0.3000000000000007
 50
180.0
 51
0.0
  0
ARC
  5
19EC9
  8
SU
  6
CONTINUOUS
 62
     3
 10
356.43619443309223
 20
-145.95001249375551
 30
0.0
 40
0.3000000000000114
 50
0.0
 51
180.0
  0
ARC
  5
19ECA
  8
SU
  6
CONTINUOUS
 62
     3
 10
356.43619443309223
 20
-145.95001249375551
 30
0.0
 40
0.3000000000000114
 50
180.0
 51
0.0
  0
ARC
  5
19ECB
  8
SU
  6
CONTINUOUS
 62
     3
 10
380.43619443309268
 20
-145.95001249375551
 30
0.0
 40
0.3000000000000114
 50
180.0
 51
0.0
  0
ARC
  5
19ECC
  8
SU
  6
CONTINUOUS
 62
     3
 10
380.43619443309268
 20
-145.95001249375551
 30
0.0
 40
0.3000000000000114
 50
0.0
 51
180.0
  0
ARC
  5
19ECD
  8
SU
  6
CONTINUOUS
 62
     3
 10
162.4361944330924
 20
-145.9500124937594
 30
0.0
 40
0.3000000000000114
 50
0.0
 51
180.0
  0
ARC
  5
19ECE
  8
SU
  6
CONTINUOUS
 62
     3
 10
162.4361944330924
 20
-145.9500124937594
 30
0.0
 40
0.3000000000000114
 50
180.0
 51
0.0
  0
ARC
  5
19ECF
  8
SU
  6
CONTINUOUS
 62
     3
 10
356.43619443309223
 20
-145.9500124937594
 30
0.0
 40
0.3000000000000114
 50
180.0
 51
0.0
  0
ARC
  5
19ED0
  8
SU
  6
CONTINUOUS
 62
     3
 10
356.43619443309223
 20
-145.9500124937594
 30
0.0
 40
0.3000000000000114
 50
0.0
 51
180.0
  0
ARC
  5
19ED1
  8
SU
  6
CONTINUOUS
 62
     3
 10
236.43619443308751
 20
-105.950012493759
 30
0.0
 40
0.2999999999999971
 50
270.0
 51
90.0
  0
ARC
  5
19ED2
  8
SU
  6
CONTINUOUS
 62
     3
 10
236.43619443308751
 20
-105.950012493759
 30
0.0
 40
0.2999999999999971
 50
90.0
 51
270.0
  0
ARC
  5
19ED3
  8
SU
  6
CONTINUOUS
 62
     3
 10
236.43619443308751
 20
-125.9500124937594
 30
0.0
 40
0.2999999999999971
 50
90.0
 51
270.0
  0
ARC
  5
19ED4
  8
SU
  6
CONTINUOUS
 62
     3
 10
236.43619443308751
 20
-125.9500124937594
 30
0.0
 40
0.2999999999999971
 50
270.0
 51
90.0
  0
ARC
  5
19ED5
  8
SU
  6
CONTINUOUS
 62
     3
 10
236.43619443307981
 20
-81.950012493757399
 30
0.0
 40
0.2999999999999971
 50
270.0
 51
90.0
  0
ARC
  5
19ED6
  8
SU
  6
CONTINUOUS
 62
     3
 10
236.43619443307981
 20
-81.950012493757399
 30
0.0
 40
0.2999999999999971
 50
90.0
 51
270.0
  0
ARC
  5
19ED7
  8
SU
  6
CONTINUOUS
 62
     3
 10
236.43619443307981
 20
-105.950012493759
 30
0.0
 40
0.2999999999999971
 50
90.0
 51
270.0
  0
ARC
  5
19ED8
  8
SU
  6
CONTINUOUS
 62
     3
 10
236.43619443307981
 20
-105.950012493759
 30
0.0
 40
0.2999999999999971
 50
270.0
 51
90.0
  0
ARC
  5
19ED9
  8
SU
  6
CONTINUOUS
 62
     3
 10
236.4361944330881
 20
-48.950012493759139
 30
0.0
 40
0.2999999999999971
 50
270.0
 51
90.0
  0
ARC
  5
19EDA
  8
SU
  6
CONTINUOUS
 62
     3
 10
236.4361944330881
 20
-48.950012493759139
 30
0.0
 40
0.2999999999999971
 50
90.0
 51
270.0
  0
ARC
  5
19EDB
  8
SU
  6
CONTINUOUS
 62
     3
 10
236.4361944330881
 20
-81.950012493757399
 30
0.0
 40
0.2999999999999971
 50
90.0
 51
270.0
  0
ARC
  5
19EDC
  8
SU
  6
CONTINUOUS
 62
     3
 10
236.4361944330881
 20
-81.950012493757399
 30
0.0
 40
0.2999999999999971
 50
270.0
 51
90.0
  0
ARC
  5
19EDD
  8
SU
  6
CONTINUOUS
 62
     3
 10
236.43619443308839
 20
-39.450012493757868
 30
0.0
 40
0.2999999999999971
 50
270.0
 51
90.0
  0
ARC
  5
19EDE
  8
SU
  6
CONTINUOUS
 62
     3
 10
236.43619443308839
 20
-39.450012493757868
 30
0.0
 40
0.2999999999999971
 50
90.0
 51
270.0
  0
ARC
  5
19EDF
  8
SU
  6
CONTINUOUS
 62
     3
 10
236.43619443308839
 20
-48.950012493759139
 30
0.0
 40
0.2999999999999971
 50
90.0
 51
270.0
  0
ARC
  5
19EE0
  8
SU
  6
CONTINUOUS
 62
     3
 10
236.43619443308839
 20
-48.950012493759139
 30
0.0
 40
0.2999999999999971
 50
270.0
 51
90.0
  0
ARC
  5
19EE1
  8
SU
  6
CONTINUOUS
 62
     3
 10
236.4361944330889
 20
61.049987506241102
 30
0.0
 40
0.2999999999999971
 50
270.0
 51
90.0
  0
ARC
  5
19EE2
  8
SU
  6
CONTINUOUS
 62
     3
 10
236.4361944330889
 20
61.049987506241102
 30
0.0
 40
0.2999999999999971
 50
90.0
 51
270.0
  0
ARC
  5
19EE3
  8
SU
  6
CONTINUOUS
 62
     3
 10
236.4361944330889
 20
-39.450012493757868
 30
0.0
 40
0.2999999999999971
 50
90.0
 51
270.0
  0
ARC
  5
19EE4
  8
SU
  6
CONTINUOUS
 62
     3
 10
236.4361944330889
 20
-39.450012493757868
 30
0.0
 40
0.2999999999999971
 50
270.0
 51
90.0
  0
ARC
  5
19EE5
  8
SU
  6
CONTINUOUS
 62
     3
 10
321.43619443309223
 20
61.04998750624214
 30
0.0
 40
0.2999999999999971
 50
270.0
 51
90.0
  0
ARC
  5
19EE6
  8
SU
  6
CONTINUOUS
 62
     3
 10
321.43619443309223
 20
61.04998750624214
 30
0.0
 40
0.2999999999999971
 50
90.0
 51
270.0
  0
ARC
  5
19EE7
  8
SU
  6
CONTINUOUS
 62
     3
 10
321.43619443309223
 20
-105.9500124937589
 30
0.0
 40
0.2999999999999971
 50
90.0
 51
270.0
  0
ARC
  5
19EE8
  8
SU
  6
CONTINUOUS
 62
     3
 10
321.43619443309223
 20
-105.9500124937589
 30
0.0
 40
0.2999999999999971
 50
270.0
 51
90.0
  0
ARC
  5
19EE9
  8
SU
  6
CONTINUOUS
 62
     3
 10
226.4361944330964
 20
81.049987506241649
 30
0.0
 40
0.3000000000000114
 50
0.0
 51
180.0
  0
ARC
  5
19EEA
  8
SU
  6
CONTINUOUS
 62
     3
 10
226.4361944330964
 20
81.049987506241649
 30
0.0
 40
0.3000000000000114
 50
180.0
 51
0.0
  0
ARC
  5
19EEB
  8
SU
  6
CONTINUOUS
 62
     3
 10
356.43619443309223
 20
81.049987506241649
 30
0.0
 40
0.3000000000000114
 50
180.0
 51
0.0
  0
ARC
  5
19EEC
  8
SU
  6
CONTINUOUS
 62
     3
 10
356.43619443309223
 20
81.049987506241649
 30
0.0
 40
0.3000000000000114
 50
0.0
 51
180.0
  0
ARC
  5
19EED
  8
SU
  6
CONTINUOUS
 62
     3
 10
186.43619443309359
 20
81.049987506241649
 30
0.0
 40
0.3000000000000114
 50
0.0
 51
180.0
  0
ARC
  5
19EEE
  8
SU
  6
CONTINUOUS
 62
     3
 10
186.43619443309359
 20
81.049987506241649
 30
0.0
 40
0.3000000000000114
 50
180.0
 51
0.0
  0
ARC
  5
19EEF
  8
SU
  6
CONTINUOUS
 62
     3
 10
226.4361944330964
 20
81.049987506241649
 30
0.0
 40
0.3000000000000114
 50
180.0
 51
0.0
  0
ARC
  5
19EF0
  8
SU
  6
CONTINUOUS
 62
     3
 10
226.4361944330964
 20
81.049987506241649
 30
0.0
 40
0.3000000000000114
 50
0.0
 51
180.0
  0
ARC
  5
19EF1
  8
SU
  6
CONTINUOUS
 62
     3
 10
162.4361944330935
 20
96.049987506241692
 30
0.0
 40
0.3000000000000114
 50
0.0
 51
180.0
  0
ARC
  5
19EF2
  8
SU
  6
CONTINUOUS
 62
     3
 10
162.4361944330935
 20
96.049987506241692
 30
0.0
 40
0.3000000000000114
 50
180.0
 51
0.0
  0
ENDSEC
  0
EOF
