  0
SECTION
  2
HEADER
  9
$ACADVER
  1
AC1009
  9
$INSBASE
 10
0.0
 20
0.0
 30
0.0
  9
$EXTMIN
 10
-408.6282106589187
 20
-309.8657513764515
 30
-0.0000000000112498
  9
$EXTMAX
 10
449.53795576957958
 20
271.48203891095523
 30
0.0000000000002956
  9
$LIMMIN
 10
-410.0
 20
-324.67662514906903
  9
$LIMMAX
 10
462.82964047764079
 20
288.49161797804447
  9
$ORTHOMODE
 70
     1
  9
$REGENMODE
 70
     1
  9
$FILLMODE
 70
     1
  9
$QTEXTMODE
 70
     0
  9
$MIRRTEXT
 70
     0
  9
$DRAGMODE
 70
     2
  9
$LTSCALE
 40
1.0
  9
$OSMODE
 70
     0
  9
$ATTMODE
 70
     1
  9
$TEXTSIZE
 40
2.5
  9
$TRACEWID
 40
1.0
  9
$TEXTSTYLE
  7
STANDARD
  9
$CLAYER
  8
0
  9
$CELTYPE
  6
BYLAYER
  9
$CECOLOR
 62
   256
  9
$DIMSCALE
 40
1.0
  9
$DIMASZ
 40
1.5
  9
$DIMEXO
 40
3.0
  9
$DIMDLI
 40
7.0
  9
$DIMRND
 40
0.0
  9
$DIMDLE
 40
0.0
  9
$DIMEXE
 40
1.0
  9
$DIMTP
 40
0.1
  9
$DIMTM
 40
0.1
  9
$DIMTXT
 40
10.0
  9
$DIMCEN
 40
0.0
  9
$DIMTSZ
 40
0.0
  9
$DIMTOL
 70
     0
  9
$DIMLIM
 70
     0
  9
$DIMTIH
 70
     0
  9
$DIMTOH
 70
     0
  9
$DIMSE1
 70
     0
  9
$DIMSE2
 70
     0
  9
$DIMTAD
 70
     1
  9
$DIMZIN
 70
     0
  9
$DIMBLK
  1
DOTSMALL
  9
$DIMASO
 70
     1
  9
$DIMSHO
 70
     1
  9
$DIMPOST
  1

  9
$DIMAPOST
  1
"
  9
$DIMALT
 70
     0
  9
$DIMALTD
 70
     2
  9
$DIMALTF
 40
0.0393701
  9
$DIMLFAC
 40
1.0
  9
$DIMTOFL
 70
     1
  9
$DIMTVP
 40
0.0
  9
$DIMTIX
 70
     0
  9
$DIMSOXD
 70
     0
  9
$DIMSAH
 70
     0
  9
$DIMBLK1
  1

  9
$DIMBLK2
  1

  9
$DIMSTYLE
  2
SANKYO
  9
$DIMCLRD
 70
   256
  9
$DIMCLRE
 70
   256
  9
$DIMCLRT
 70
   256
  9
$DIMTFAC
 40
0.71
  9
$DIMGAP
 40
0.5
  9
$LUNITS
 70
     2
  9
$LUPREC
 70
     4
  9
$SKETCHINC
 40
1.0
  9
$FILLETRAD
 40
0.5
  9
$AUNITS
 70
     0
  9
$AUPREC
 70
     0
  9
$MENU
  1
.
  9
$ELEVATION
 40
0.0
  9
$PELEVATION
 40
0.0
  9
$THICKNESS
 40
0.0
  9
$LIMCHECK
 70
     0
  9
$BLIPMODE
 70
     0
  9
$CHAMFERA
 40
10.0
  9
$CHAMFERB
 40
10.0
  9
$SKPOLY
 70
     0
  9
$TDCREATE
 40
2452388.6082117362
  9
$TDUPDATE
 40
2456027.6128618289
  9
$TDINDWG
 40
1.5692908449
  9
$TDUSRTIMER
 40
1.5692907292
  9
$USRTIMER
 70
     1
  9
$ANGBASE
 50
0.0
  9
$ANGDIR
 70
     0
  9
$PDMODE
 70
     0
  9
$PDSIZE
 40
0.0
  9
$PLINEWID
 40
0.0
  9
$COORDS
 70
     1
  9
$SPLFRAME
 70
     0
  9
$SPLINETYPE
 70
     6
  9
$SPLINESEGS
 70
     8
  9
$ATTDIA
 70
     0
  9
$ATTREQ
 70
     1
  9
$HANDLING
 70
-16383
  9
$HANDSEED
  5
1A0DC
  9
$SURFTAB1
 70
     6
  9
$SURFTAB2
 70
     6
  9
$SURFTYPE
 70
     6
  9
$SURFU
 70
     6
  9
$SURFV
 70
     6
  9
$UCSNAME
  2

  9
$UCSORG
 10
0.0
 20
0.0
 30
0.0
  9
$UCSXDIR
 10
1.0
 20
0.0
 30
0.0
  9
$UCSYDIR
 10
0.0
 20
1.0
 30
0.0
  9
$PUCSNAME
  2

  9
$PUCSORG
 10
0.0
 20
0.0
 30
0.0
  9
$PUCSXDIR
 10
1.0
 20
0.0
 30
0.0
  9
$PUCSYDIR
 10
0.0
 20
1.0
 30
0.0
  9
$USERI1
 70
     0
  9
$USERI2
 70
     1
  9
$USERI3
 70
     0
  9
$USERI4
 70
     0
  9
$USERI5
 70
     0
  9
$USERR1
 40
0.0
  9
$USERR2
 40
0.0
  9
$USERR3
 40
0.0
  9
$USERR4
 40
0.0
  9
$USERR5
 40
0.0
  9
$WORLDVIEW
 70
     1
  9
$SHADEDGE
 70
     3
  9
$SHADEDIF
 70
    70
  9
$TILEMODE
 70
     1
  9
$MAXACTVP
 70
    48
  9
$PLIMCHECK
 70
     0
  9
$PEXTMIN
 10
1.0000000000000000E+020
 20
1.0000000000000000E+020
 30
1.0000000000000000E+020
  9
$PEXTMAX
 10
-1.0000000000000000E+020
 20
-1.0000000000000000E+020
 30
-1.0000000000000000E+020
  9
$PLIMMIN
 10
0.0
 20
0.0
  9
$PLIMMAX
 10
420.0
 20
297.0
  9
$UNITMODE
 70
     0
  9
$VISRETAIN
 70
     1
  9
$PLINEGEN
 70
     0
  9
$PSLTSCALE
 70
     1
  0
ENDSEC
  0
SECTION
  2
TABLES
  0
TABLE
  2
VPORT
 70
     2
  0
VPORT
  2
*ACTIVE
 70
     0
 10
0.0
 20
0.0
 11
1.0
 21
1.0
 12
20.454872555330439
 22
-19.19185623274813
 13
0.0
 23
0.0
 14
2.5
 24
2.5
 15
10.0
 25
10.0
 16
0.0
 26
0.0
 36
1.0
 17
0.0
 27
0.0
 37
0.0
 40
617.88724137290535
 41
1.3969986357435189
 42
50.0
 43
0.0
 44
0.0
 50
0.0
 51
0.0
 71
    16
 72
   100
 73
     1
 74
     0
 75
     0
 76
     0
 77
     0
 78
     0
  0
ENDTAB
  0
TABLE
  2
LTYPE
 70
    17
  0
LTYPE
  2
CONTINUOUS
 70
     0
  3
Solid line
 72
    65
 73
     0
 40
0.0
  0
LTYPE
  2
CENTER2
 70
     0
  3
Center (.5x) ___ _ ___ _ ___ _ ___ _ ___ _ ___
 72
    65
 73
     4
 40
28.574999999999989
 49
19.050000000000001
 49
-3.174999999999998
 49
3.174999999999998
 49
-3.174999999999998
  0
LTYPE
  2
PHANTOM2
 70
     0
  3
Phantom (.5x) ___ _ _ ___ _ _ ___ _ _ ___ _ _
 72
    65
 73
     6
 40
31.75
 49
15.875
 49
-3.174999999999998
 49
3.174999999999998
 49
-3.174999999999998
 49
3.174999999999998
 49
-3.174999999999998
  0
LTYPE
  2
DASHED2
 70
     0
  3
Dashed (.5x) _ _ _ _ _ _ _ _ _ _ _ _ _ _ _ _ _
 72
    65
 73
     2
 40
9.5249999999999986
 49
6.349999999999997
 49
-3.174999999999998
  0
ENDTAB
  0
TABLE
  2
LAYER
 70
     4
  0
LAYER
  2
0
 70
     0
 62
     7
  6
CONTINUOUS
  0
LAYER
  2
SU
 70
     0
 62
     7
  6
CONTINUOUS
  0
LAYER
  2
KI
 70
     0
 62
     7
  6
CONTINUOUS
  0
LAYER
  2
OS
 70
     0
 62
     7
  6
CONTINUOUS
  0
ENDTAB
  0
TABLE
  2
STYLE
 70
     4
  0
STYLE
  2
STANDARD
 70
     0
 40
0.0
 41
0.8299999999999999
 50
0.0
 71
     0
 42
2.5
  3
txt.shx
  4
extfont.shx
  0
ENDTAB
  0
TABLE
  2
VIEW
 70
     6
  0
VIEW
  2
AM_VIEW1
 70
     0
 40
148.9999998536185
 10
126.61001776470241
 20
223.4999997804278
 41
253.2200355294051
 11
0.0
 21
0.0
 31
1.0
 12
0.0
 22
0.0
 32
0.0
 42
50.0
 43
0.0
 44
0.0
 50
0.0
 71
    16
  0
VIEW
  2
AM_VIEW2
 70
     0
 40
148.9999998536185
 10
294.38998139545481
 20
223.4999997804278
 41
253.2200355294051
 11
0.0
 21
0.0
 31
1.0
 12
0.0
 22
0.0
 32
0.0
 42
50.0
 43
0.0
 44
0.0
 50
0.0
 71
    16
  0
VIEW
  2
AM_VIEW3
 70
     0
 40
148.9999998536185
 10
126.61001776470241
 20
74.499999926809267
 41
253.2200355294051
 11
0.0
 21
0.0
 31
1.0
 12
0.0
 22
0.0
 32
0.0
 42
50.0
 43
0.0
 44
0.0
 50
0.0
 71
    16
  0
VIEW
  2
AM_VIEW4
 70
     0
 40
148.9999998536185
 10
294.38998139545481
 20
74.499999926809267
 41
253.2200355294051
 11
0.0
 21
0.0
 31
1.0
 12
0.0
 22
0.0
 32
0.0
 42
50.0
 43
0.0
 44
0.0
 50
0.0
 71
    16
  0
VIEW
  2
AM_VIEW5
 70
     0
 40
148.9999998536185
 10
210.49999958007871
 20
148.9999998536185
 41
253.2200355294051
 11
0.0
 21
0.0
 31
1.0
 12
0.0
 22
0.0
 32
0.0
 42
50.0
 43
0.0
 44
0.0
 50
0.0
 71
    16
  0
VIEW
  2
AM_VIEW6
 70
     0
 40
297.99701970723982
 10
210.49999958007871
 20
148.9999998536185
 41
506.43500665810018
 11
0.0
 21
0.0
 31
1.0
 12
0.0
 22
0.0
 32
0.0
 42
50.0
 43
0.0
 44
0.0
 50
0.0
 71
    16
  0
ENDTAB
  0
TABLE
  2
UCS
 70
     0
  0
ENDTAB
  0
TABLE
  2
APPID
 70
    22
  0
APPID
  2
ACAD
 70
     0
  0
APPID
  2
MCAD_NO_VIS
 70
     0
  0
APPID
  2
ACAD_TEMP_GRAPHIC
 70
     0
  0
APPID
  2
ACATTRIBSERVICES
 70
     0
  0
APPID
  2
GENIUS_GENDIMSH_14
 70
     0
  0
APPID
  2
GENIUS_GENOLIS_13
 70
     0
  0
APPID
  2
GENIUS_GENOENT_13
 70
     0
  0
APPID
  2
GENIUS_GENODEF_13
 70
     0
  0
APPID
  2
GENIUS_GENOBJ-N-TIT_13
 70
     0
  0
APPID
  2
GENIUS_GENTITLE_13
 70
     0
  0
APPID
  2
GENIUS_GENOREF_13
 70
     0
  0
APPID
  2
GENIUS_GENSCREG_15
 70
     0
  0
APPID
  2
GENIUS_GENOBJ-N-SDF_13
 70
     0
  0
APPID
  2
GENIUS_GENOBJ-N-FIL_13
 70
     0
  0
APPID
  2
GENIUS_GENREC_14
 70
     0
  0
APPID
  2
GENIUS_GENOBJ-N-REC_13
 70
     0
  0
APPID
  2
GENIUS_GENDTOL_13
 70
     0
  0
APPID
  2
GENIUS_GENOBJ-N-CEN_13
 70
     0
  0
APPID
  2
GENIUS_GENOBJ-N-HTC_13
 70
     0
  0
APPID
  2
GENIUS_GENHATCH_13
 70
     0
  0
APPID
  2
GENIUS_GENFIL_13
 70
     0
  0
APPID
  2
GENIUS_GENOBJ-N-CHA_13
 70
     0
  0
ENDTAB
  0
TABLE
  2
DIMSTYLE
 70
     7
  0
DIMSTYLE
  2
SANKYO
 70
     0
  3

  4
"
  5

  6

  7

 40
1.0
 41
2.399999999999999
 42
3.0
 43
7.0
 44
3.0
 45
0.0
 46
0.0
 47
0.1
 48
0.1
140
4.0
141
0.0
142
0.0
143
0.0393701
144
1.0
145
0.0
146
0.71
147
1.3
 71
     0
 72
     0
 73
     0
 74
     0
 75
     0
 76
     0
 77
     1
 78
     8
170
     0
171
     2
172
     1
173
     0
174
     0
175
     0
176
   256
177
   256
178
   256
  0
ENDTAB
  0
ENDSEC
  0
SECTION
  2
BLOCKS
  0
BLOCK
  8
0
  2
$MODEL_SPACE
 70
     0
 10
0.0
 20
0.0
 30
0.0
  3
$MODEL_SPACE
  1

  0
ENDBLK
  5
19ABA
  8
0
  0
BLOCK
 67
     1
  8
0
  2
$PAPER_SPACE
 70
     0
 10
0.0
 20
0.0
 30
0.0
  3
$PAPER_SPACE
  1

  0
ENDBLK
  5
19AB6
 67
     1
  8
0
  0
BLOCK
  8
0
  2
_DOTSMALL
 70
     0
 10
0.0
 20
0.0
 30
0.0
  3
_DOTSMALL
  1

  0
POLYLINE
  5
19B02
  8
0
  6
BYBLOCK
 62
     0
 66
     1
 10
0.0
 20
0.0
 30
0.0
 70
     1
 40
1.0
 41
1.0
  0
VERTEX
  5
19B03
  8
0
  6
BYBLOCK
 62
     0
 10
-0.125
 20
0.0
 30
0.0
 42
1.0
  0
VERTEX
  5
19B04
  8
0
  6
BYBLOCK
 62
     0
 10
0.125
 20
0.0
 30
0.0
 42
1.0
  0
SEQEND
  5
19B05
  8
0
  6
BYBLOCK
 62
     0
  0
ENDBLK
  5
19B06
  8
0
  0
ENDSEC
  0
SECTION
  2
ENTITIES
  0
TEXT
  5
19B0B
  8
KI
  6
CONTINUOUS
 62
     7
 10
217.70790036644311
 20
-269.30914795167661
 30
0.0
 40
7.0
  1
dt09a002
 41
0.84552428
  0
LINE
  5
19B0C
  8
SU
  6
CONTINUOUS
 62
     3
 10
-298.95494213423979
 20
-120.1185008118612
 30
0.0
 11
-258.60210068923072
 21
-168.20914472639441
 31
0.0
  0
LINE
  5
19B0D
  8
SU
  6
CONTINUOUS
 62
     3
 10
-302.52706589429448
 20
-5.4621055025886562
 30
0.0
 11
-287.58066847568682
 21
-23.274528378506371
 31
0.0
  0
LINE
  5
19B0E
  8
KI
  6
CONTINUOUS
 62
     7
 10
-216.2771231565701
 20
-85.126469696385584
 30
0.0
 11
-216.2771231565701
 21
-160.12646969638541
 31
0.0
  0
LINE
  5
19B0F
  8
KI
  6
CONTINUOUS
 62
     7
 10
-284.7771231565701
 20
-85.126469696385584
 30
0.0
 11
-284.77712315656998
 21
-157.12646969640139
 31
0.0
  0
LINE
  5
19B10
  8
KI
  6
CONTINUOUS
 62
     7
 10
-383.2771231565701
 20
-85.126469696385584
 30
0.0
 11
-383.2771231565701
 21
-160.12646969638541
 31
0.0
  0
LINE
  5
19B11
  8
KI
  6
CONTINUOUS
 62
     7
 10
-216.27712315657021
 20
52.67547104827571
 30
0.0
 11
-216.2771231565701
 21
-25.574528951724169
 31
0.0
  0
LINE
  5
19B12
  8
KI
  6
CONTINUOUS
 62
     7
 10
-383.2771231565701
 20
52.67547104827571
 30
0.0
 11
-383.2771231565701
 21
-25.574528951724169
 31
0.0
  0
LINE
  5
19B13
  8
KI
  6
CONTINUOUS
 62
     7
 10
-260.77712315657021
 20
52.67547104827571
 30
0.0
 11
-260.77712315657021
 21
-23.274528760989369
 31
0.0
  0
LINE
  5
19B14
  8
KI
  6
CONTINUOUS
 62
     7
 10
-284.7771231565701
 20
52.67547104827571
 30
0.0
 11
-284.77712315656998
 21
-23.082772140580119
 31
0.0
  0
LINE
  5
19B15
  8
KI
  6
CONTINUOUS
 62
     7
 10
-284.77712315656998
 20
-27.96182574784893
 30
0.0
 11
-284.77712315656998
 21
-37.574528951716047
 31
0.0
  0
LINE
  5
19B16
  8
KI
  6
CONTINUOUS
 62
     7
 10
-380.27712315657033
 20
174.4254715667758
 30
0.0
 11
-383.27712315657021
 21
174.4254715667758
 31
0.0
  0
LINE
  5
19B17
  8
KI
  6
CONTINUOUS
 62
     7
 10
-383.27712315657021
 20
54.67547104827571
 30
0.0
 11
-383.27712315657021
 21
174.42547190658291
 31
0.0
  0
LINE
  5
19B18
  8
KI
  6
CONTINUOUS
 62
     7
 10
-216.27712315657021
 20
174.42547104827551
 30
0.0
 11
-216.27712315657021
 21
54.67547104827571
 31
0.0
  0
LINE
  5
19B19
  8
KI
  6
CONTINUOUS
 62
     7
 10
-284.7770666778581
 20
150.42547232732181
 30
0.0
 11
-284.7770666778581
 21
54.67547104827571
 31
0.0
  0
LINE
  5
19B1A
  8
KI
  6
CONTINUOUS
 62
     7
 10
-260.7770666778581
 20
150.42547232732181
 30
0.0
 11
-260.7770666778581
 21
54.67547104827571
 31
0.0
  0
LINE
  5
19B1B
  8
KI
  6
CONTINUOUS
 62
     7
 10
-216.27712315657021
 20
174.42547104827551
 30
0.0
 11
-219.27712315657021
 21
174.42547104827551
 31
0.0
  0
LINE
  5
19B1C
  8
KI
  6
DASHED2
 62
     7
 10
-383.2771231565701
 20
-25.574528951724211
 30
0.0
 11
-383.2771231565701
 21
-37.574528951716047
 31
0.0
  0
LINE
  5
19B1D
  8
KI
  6
DASHED2
 62
     7
 10
-216.2771231565701
 20
-25.574528951724169
 30
0.0
 11
-216.2771231565701
 21
-37.57452895171599
 31
0.0
  0
LINE
  5
19B1E
  8
KI
  6
DASHED2
 62
     7
 10
-260.77712315657021
 20
-25.574528951724211
 30
0.0
 11
-260.77712315657021
 21
-37.574528951716047
 31
0.0
  0
LINE
  5
19B1F
  8
KI
  6
CONTINUOUS
 62
     7
 10
-260.77712315657021
 20
-24.574527998050371
 30
0.0
 11
-260.77712315657021
 21
-25.574528951723991
 31
0.0
  0
LINE
  5
19B20
  8
KI
  6
DASHED2
 62
     7
 10
-383.2771231565701
 20
-160.12646969638541
 30
0.0
 11
-383.2771231565701
 21
-172.12646969637709
 31
0.0
  0
LINE
  5
19B21
  8
KI
  6
DASHED2
 62
     7
 10
-216.2771231565701
 20
-160.12646969640139
 30
0.0
 11
-216.2771231565701
 21
-172.12646969639351
 31
0.0
  0
LINE
  5
19B22
  8
KI
  6
CONTINUOUS
 62
     7
 10
-260.77712315657021
 20
-85.126469696385584
 30
0.0
 11
-260.77712315657021
 21
-157.12646969640139
 31
0.0
  0
LINE
  5
19B23
  8
SU
  6
CONTINUOUS
 62
     3
 10
-352.72473331347419
 20
-5.4621055025886562
 30
0.0
 11
-302.52706589429448
 21
-5.4621055025886562
 31
0.0
  0
LINE
  5
19B24
  8
SU
  6
CONTINUOUS
 62
     3
 10
-336.05047405017791
 20
-120.1185008118612
 30
0.0
 11
-298.95494221404488
 21
-120.1185008118612
 31
0.0
  0
TEXT
  5
19B25
  8
KI
  6
CONTINUOUS
 62
     7
 10
218.88580397979399
 20
-259.93514613332559
 30
0.0
 40
7.0
  1
4寸柱対応枠（ノンケーシング枠）
 41
0.84552428
  0
TEXT
  5
19B26
  8
KI
  6
CONTINUOUS
 62
     7
 10
218.88580397979399
 20
-241.54262090445351
 30
0.0
 40
7.0
  1
D TOS多機能商品シリーズ
 41
0.84552428
  0
TEXT
  5
19B27
  8
KI
  6
CONTINUOUS
 62
     7
 10
218.88580397979399
 20
-251.011853671859
 30
0.0
 40
7.0
  1
室内ドア　中折れドア
 41
0.84552428
  0
TEXT
  5
19B28
  8
KI
  6
CONTINUOUS
 62
     7
 10
-398.8182722094063
 20
264.4641329653623
 30
0.0
 40
7.0
  1
●標準たて枠
 41
0.84552428
  0
LINE
  5
19B29
  8
OS
  6
CONTINUOUS
 62
     2
 10
-199.7771231565701
 20
-286.83097039672822
 30
0.0
 11
-399.7771231565701
 21
-286.83097039672822
 31
0.0
  0
LINE
  5
19B2A
  8
OS
  6
CONTINUOUS
 62
     2
 10
-199.7771231565701
 20
-283.83097039672822
 30
0.0
 11
-399.7771231565701
 21
-283.83097039672822
 31
0.0
  0
LINE
  5
19B2B
  8
OS
  6
CONTINUOUS
 62
     2
 10
-199.7771231565701
 20
-280.83097039672822
 30
0.0
 11
-399.7771231565701
 21
-280.83097039672822
 31
0.0
  0
LINE
  5
19B2C
  8
OS
  6
CONTINUOUS
 62
     2
 10
-199.7771231565701
 20
-289.83097039672822
 30
0.0
 11
-399.7771231565701
 21
-289.83097039672822
 31
0.0
  0
LINE
  5
19B2D
  8
SU
  6
CONTINUOUS
 62
     3
 10
-307.86139399781069
 20
-252.48442205253161
 30
0.0
 11
-289.17319965898071
 21
-274.75614486488962
 31
0.0
  0
LINE
  5
19B2E
  8
OS
  6
CONTINUOUS
 62
     2
 10
-199.7771231565701
 20
-277.83097039672822
 30
0.0
 11
-399.7771231565701
 21
-277.83097039672822
 31
0.0
  0
LINE
  5
19B2F
  8
SU
  6
CONTINUOUS
 62
     3
 10
-358.05906141699012
 20
-252.48442205253161
 30
0.0
 11
-307.86139399781069
 21
-252.48442205253161
 31
0.0
  0
LINE
  5
19B30
  8
KI
  6
CONTINUOUS
 62
     7
 10
-216.2771231565701
 20
-217.8309703967364
 30
0.0
 11
-216.2771231565701
 21
-277.83097039672822
 31
0.0
  0
LINE
  5
19B31
  8
KI
  6
CONTINUOUS
 62
     7
 10
-260.77712315657021
 20
-217.8309703967364
 30
0.0
 11
-260.77712315657021
 21
-273.03097039672809
 31
0.0
  0
LINE
  5
19B32
  8
KI
  6
CONTINUOUS
 62
     7
 10
-284.7771231565701
 20
-217.8309703967364
 30
0.0
 11
-284.77712315656998
 21
-273.03097039672809
 31
0.0
  0
LINE
  5
19B33
  8
KI
  6
CONTINUOUS
 62
     7
 10
-383.2771231565701
 20
-217.8309703967364
 30
0.0
 11
-383.2771231565701
 21
-277.83097039672822
 31
0.0
  0
LINE
  5
19B34
  8
KI
  6
DASHED2
 62
     7
 10
-383.2771231565701
 20
-277.83097039672822
 30
0.0
 11
-383.2771231565701
 21
-289.83097039671998
 31
0.0
  0
LINE
  5
19B35
  8
KI
  6
DASHED2
 62
     7
 10
-216.2771231565701
 20
-277.83097039674442
 30
0.0
 11
-216.2771231565701
 21
-289.83097039673601
 31
0.0
  0
LINE
  5
19B36
  8
KI
  6
CONTINUOUS
 62
     7
 10
366.514229453572
 20
-9.6465094192050156
 30
0.0
 11
299.86403653216962
 21
-9.6465094192050156
 31
0.0
  0
LINE
  5
19B37
  8
KI
  6
CONTINUOUS
 62
     7
 10
229.2138436107675
 20
-42.646509419205017
 30
0.0
 11
297.86403653216962
 21
-42.646509419205017
 31
0.0
  0
LINE
  5
19B38
  8
KI
  6
CONTINUOUS
 62
     7
 10
220.2138436107673
 20
-9.6465094192050156
 30
0.0
 11
103.3641248879368
 21
-9.6465094192050156
 31
0.0
  0
LINE
  5
19B39
  8
KI
  6
CONTINUOUS
 62
     7
 10
-21.485593834895141
 20
-42.646509419205017
 30
0.0
 11
101.3641248879368
 21
-42.646509419205017
 31
0.0
  0
LINE
  5
19B3A
  8
KI
  6
CONTINUOUS
 62
     7
 10
-23.485593834892288
 20
-11.64650941920511
 30
0.0
 11
-23.48559383489502
 21
-40.64650941920501
 31
0.0
  0
ARC
  5
19B3B
  8
KI
  6
CONTINUOUS
 62
     7
 10
-21.485593834895141
 20
-40.64650941920501
 30
0.0
 40
2.0000000000001421
 50
180.0
 51
270.0
  0
ARC
  5
19B3C
  8
KI
  6
CONTINUOUS
 62
     7
 10
-21.48559383489172
 20
-11.64650941920511
 30
0.0
 40
2.0000000000000551
 50
90.0
 51
180.0
  0
LINE
  5
19B3D
  8
KI
  6
CONTINUOUS
 62
     7
 10
229.2138436107675
 20
-9.6465094192050156
 30
0.0
 11
229.2138436107675
 21
-42.646509419205017
 31
0.0
  0
LINE
  5
19B3E
  8
KI
  6
CONTINUOUS
 62
     7
 10
228.2138436107675
 20
-42.646509419205017
 30
0.0
 11
228.2138436107675
 21
-9.6465094192050156
 31
0.0
  0
LINE
  5
19B3F
  8
KI
  6
CONTINUOUS
 62
     7
 10
224.21384361076741
 20
-15.64650941920501
 30
0.0
 11
220.2138436107673
 21
-15.64650941920501
 31
0.0
  0
LINE
  5
19B40
  8
KI
  6
CONTINUOUS
 62
     7
 10
236.21384361076741
 20
0.35349058079521
 30
0.0
 11
218.21384361076781
 21
0.35349058079521
 31
0.0
  0
LINE
  5
19B41
  8
KI
  6
CONTINUOUS
 62
     7
 10
222.2138436107675
 20
-15.14650941920501
 30
0.0
 11
224.11384361076841
 21
-13.64650941920501
 31
0.0
  0
LINE
  5
19B42
  8
KI
  6
CONTINUOUS
 62
     7
 10
214.2138436107675
 20
-3.646509419205016
 30
0.0
 11
214.2138436107675
 21
-9.6465094192050156
 31
0.0
  0
LINE
  5
19B43
  8
KI
  6
CONTINUOUS
 62
     7
 10
220.2138436107673
 20
-9.6465094192050156
 30
0.0
 11
220.2138436107673
 21
-15.64650941920501
 31
0.0
  0
LINE
  5
19B44
  8
KI
  6
CONTINUOUS
 62
     7
 10
214.2138436107675
 20
-9.6465094192050156
 30
0.0
 11
220.7138436107675
 21
-9.6465094192050156
 31
0.0
  0
LINE
  5
19B45
  8
KI
  6
CONTINUOUS
 62
     7
 10
220.7138436107675
 20
-9.6465094192050156
 30
0.0
 11
220.7138436107675
 21
-10.646509419205231
 31
0.0
  0
LINE
  5
19B46
  8
KI
  6
CONTINUOUS
 62
     7
 10
220.7138436107675
 20
-10.646509419205231
 30
0.0
 11
220.31384361076761
 21
-11.64650941920511
 31
0.0
  0
LINE
  5
19B47
  8
KI
  6
CONTINUOUS
 62
     7
 10
220.31384361076761
 20
-11.64650941920511
 30
0.0
 11
220.7138436107675
 21
-12.14650941920501
 31
0.0
  0
LINE
  5
19B48
  8
KI
  6
CONTINUOUS
 62
     7
 10
220.7138436107675
 20
-12.14650941920501
 30
0.0
 11
220.31384361076761
 21
-12.646509419204779
 31
0.0
  0
LINE
  5
19B49
  8
KI
  6
CONTINUOUS
 62
     7
 10
220.31384361076761
 20
-12.646509419204779
 30
0.0
 11
220.7138436107675
 21
-13.64650941920501
 31
0.0
  0
LINE
  5
19B4A
  8
KI
  6
CONTINUOUS
 62
     7
 10
220.7138436107675
 20
-13.64650941920501
 30
0.0
 11
220.31384361076761
 21
-13.64650941920501
 31
0.0
  0
LINE
  5
19B4B
  8
KI
  6
CONTINUOUS
 62
     7
 10
220.31384361076761
 20
-13.64650941920501
 30
0.0
 11
222.2138436107675
 21
-15.14650941920501
 31
0.0
  0
LINE
  5
19B4C
  8
KI
  6
CONTINUOUS
 62
     7
 10
217.21384361076761
 20
-0.6465094192047901
 30
0.0
 11
218.21384361076781
 21
0.35349058079521
 31
0.0
  0
LINE
  5
19B4D
  8
KI
  6
CONTINUOUS
 62
     7
 10
217.21384361076761
 20
-0.6465094192047901
 30
0.0
 11
217.21384361076761
 21
-2.6465094192051311
 31
0.0
  0
LINE
  5
19B4E
  8
KI
  6
CONTINUOUS
 62
     7
 10
217.21384361076761
 20
-2.6465094192051311
 30
0.0
 11
215.21384361076781
 21
-2.6465094192051311
 31
0.0
  0
LINE
  5
19B4F
  8
KI
  6
CONTINUOUS
 62
     7
 10
214.2138436107675
 20
-3.646509419205016
 30
0.0
 11
215.21384361076781
 21
-2.6465094192051311
 31
0.0
  0
LINE
  5
19B50
  8
KI
  6
CONTINUOUS
 62
     7
 10
240.21384361076761
 20
-8.9465094192048582
 30
0.0
 11
240.21384361076761
 21
-3.646509419205016
 31
0.0
  0
LINE
  5
19B51
  8
KI
  6
CONTINUOUS
 62
     7
 10
228.2138436107675
 20
-8.9465094192048582
 30
0.0
 11
240.21384361076761
 21
-8.9465094192048582
 31
0.0
  0
LINE
  5
19B52
  8
KI
  6
CONTINUOUS
 62
     7
 10
228.2138436107675
 20
-9.6465094192050156
 30
0.0
 11
224.21384361076741
 21
-9.6465094192050156
 31
0.0
  0
LINE
  5
19B53
  8
KI
  6
CONTINUOUS
 62
     7
 10
224.21384361076741
 20
-9.6465094192050156
 30
0.0
 11
224.21384361076741
 21
-15.64650941920501
 31
0.0
  0
LINE
  5
19B54
  8
KI
  6
CONTINUOUS
 62
     7
 10
228.2138436107675
 20
-9.6465094192050156
 30
0.0
 11
224.21384361076741
 21
-9.6465094192050156
 31
0.0
  0
LINE
  5
19B55
  8
KI
  6
CONTINUOUS
 62
     7
 10
223.71384361076761
 20
-10.646509419205231
 30
0.0
 11
223.71384361076761
 21
-9.6465094192050156
 31
0.0
  0
LINE
  5
19B56
  8
KI
  6
CONTINUOUS
 62
     7
 10
224.11384361076841
 20
-11.64650941920511
 30
0.0
 11
223.71384361076761
 21
-10.646509419205231
 31
0.0
  0
LINE
  5
19B57
  8
KI
  6
CONTINUOUS
 62
     7
 10
223.71384361076761
 20
-12.14650941920501
 30
0.0
 11
224.11384361076841
 21
-11.64650941920511
 31
0.0
  0
LINE
  5
19B58
  8
KI
  6
CONTINUOUS
 62
     7
 10
224.11384361076841
 20
-12.646509419204779
 30
0.0
 11
223.71384361076761
 21
-12.14650941920501
 31
0.0
  0
LINE
  5
19B59
  8
KI
  6
CONTINUOUS
 62
     7
 10
223.71384361076761
 20
-13.64650941920501
 30
0.0
 11
224.11384361076841
 21
-12.646509419204779
 31
0.0
  0
LINE
  5
19B5A
  8
KI
  6
CONTINUOUS
 62
     7
 10
224.11384361076841
 20
-13.64650941920501
 30
0.0
 11
223.71384361076761
 21
-13.64650941920501
 31
0.0
  0
LINE
  5
19B5B
  8
KI
  6
CONTINUOUS
 62
     7
 10
228.2138436107675
 20
-9.6465094192050156
 30
0.0
 11
228.2138436107675
 21
-8.9465094192048582
 31
0.0
  0
LINE
  5
19B5C
  8
KI
  6
CONTINUOUS
 62
     7
 10
223.71384361076761
 20
-9.6465094192050156
 30
0.0
 11
228.2138436107675
 21
-9.6465094192050156
 31
0.0
  0
LINE
  5
19B5D
  8
KI
  6
CONTINUOUS
 62
     7
 10
236.21384361076741
 20
0.35349058079521
 30
0.0
 11
237.2138436107675
 21
-0.6465094192047901
 31
0.0
  0
LINE
  5
19B5E
  8
KI
  6
CONTINUOUS
 62
     7
 10
239.21384361076781
 20
-2.6465094192051311
 30
0.0
 11
237.2138436107675
 21
-2.6465094192051311
 31
0.0
  0
LINE
  5
19B5F
  8
KI
  6
CONTINUOUS
 62
     7
 10
237.2138436107675
 20
-2.6465094192051311
 30
0.0
 11
237.2138436107675
 21
-0.6465094192047901
 31
0.0
  0
LINE
  5
19B60
  8
KI
  6
CONTINUOUS
 62
     7
 10
239.21384361076781
 20
-2.6465094192051311
 30
0.0
 11
240.21384361076761
 21
-3.646509419205016
 31
0.0
  0
LINE
  5
19B61
  8
KI
  6
PHANTOM2
 62
     7
 10
288.01422945357189
 20
83.153876423599399
 30
0.0
 11
288.01422945357189
 21
-168.5455610220618
 31
0.0
  0
LINE
  5
19B62
  8
KI
  6
PHANTOM2
 62
     7
 10
321.014229453572
 20
-168.5455610220618
 30
0.0
 11
321.014229453572
 21
83.153876423600309
 31
0.0
  0
LINE
  5
19B63
  8
KI
  6
PHANTOM2
 62
     7
 10
288.01422945357189
 20
-168.5455610220618
 30
0.0
 11
321.014229453572
 21
-168.5455610220618
 31
0.0
  0
LINE
  5
19B64
  8
KI
  6
CONTINUOUS
 62
     7
 10
368.514229453572
 20
-40.64650941920501
 30
0.0
 11
368.514229453572
 21
-11.64650941920511
 31
0.0
  0
LINE
  5
19B65
  8
KI
  6
PHANTOM2
 62
     7
 10
322.01422945357177
 20
83.153876423599371
 30
0.0
 11
322.01422945357177
 21
-56.14650941920501
 31
0.0
  0
LINE
  5
19B66
  8
KI
  6
PHANTOM2
 62
     7
 10
355.01422945357177
 20
-56.14650941920501
 30
0.0
 11
355.01422945357177
 21
83.153876423599371
 31
0.0
  0
LINE
  5
19B67
  8
KI
  6
CENTER2
 62
     7
 10
304.514229453572
 20
-34.39650941920501
 30
0.0
 11
304.514229453572
 21
-17.89650941920501
 31
0.0
  0
LINE
  5
19B68
  8
KI
  6
CENTER2
 62
     7
 10
338.51422945357223
 20
-34.39650941920501
 30
0.0
 11
338.51422945357223
 21
-17.89650941920501
 31
0.0
  0
LINE
  5
19B69
  8
KI
  6
PHANTOM2
 62
     7
 10
322.01422945357177
 20
-56.14650941920501
 30
0.0
 11
355.01422945357177
 21
-56.14650941920501
 31
0.0
  0
ARC
  5
19B6A
  8
KI
  6
CONTINUOUS
 62
     7
 10
366.514229453572
 20
-40.64650941920501
 30
0.0
 40
1.9999999999998861
 50
270.0
 51
0.0
  0
LINE
  5
19B6B
  8
KI
  6
PHANTOM2
 62
     7
 10
355.01422945357177
 20
83.153876423599371
 30
0.0
 11
322.01422945357177
 21
83.153876423599371
 31
0.0
  0
LINE
  5
19B6C
  8
KI
  6
CENTER2
 62
     7
 10
330.26422945357189
 20
-26.14650941920501
 30
0.0
 11
346.76422945357177
 21
-26.14650941920501
 31
0.0
  0
LINE
  5
19B6D
  8
KI
  6
CENTER2
 62
     7
 10
296.264229453572
 20
-26.14650941920501
 30
0.0
 11
312.764229453572
 21
-26.14650941920501
 31
0.0
  0
LINE
  5
19B6E
  8
KI
  6
PHANTOM2
 62
     7
 10
321.014229453572
 20
83.153876423600309
 30
0.0
 11
288.01422945357189
 21
83.153876423599399
 31
0.0
  0
ARC
  5
19B6F
  8
KI
  6
CONTINUOUS
 62
     7
 10
366.514229453572
 20
-11.64650941920511
 30
0.0
 40
2.000000000000397
 50
0.0
 51
90.0
  0
LINE
  5
19B70
  8
KI
  6
CONTINUOUS
 62
     7
 10
-223.7771231565701
 20
-17.574528433224131
 30
0.0
 11
-223.7771231565701
 21
52.675472401482111
 31
0.0
  0
LINE
  5
19B71
  8
KI
  6
CONTINUOUS
 62
     7
 10
-256.77712315656942
 20
52.675472401482111
 30
0.0
 11
-256.77712315656942
 21
-17.574528433224131
 31
0.0
  0
LINE
  5
19B72
  8
KI
  6
CONTINUOUS
 62
     7
 10
-256.77712315656942
 20
-17.574528433224131
 30
0.0
 11
-223.7771231565701
 21
-17.574528433224131
 31
0.0
  0
LINE
  5
19B73
  8
KI
  6
CONTINUOUS
 62
     7
 10
-237.5771231565688
 20
-20.074528433222209
 30
0.0
 11
-242.9771231565683
 21
-20.074528433222209
 31
0.0
  0
LINE
  5
19B74
  8
KI
  6
CONTINUOUS
 62
     7
 10
-237.5771231565688
 20
-20.074528433222209
 30
0.0
 11
-242.9771231565683
 21
-20.074528433222209
 31
0.0
  0
LINE
  5
19B75
  8
KI
  6
CONTINUOUS
 62
     7
 10
-244.2771231565695
 20
-20.574528433223119
 30
0.0
 11
-236.27712315656751
 21
-20.574528433223119
 31
0.0
  0
LINE
  5
19B76
  8
KI
  6
CONTINUOUS
 62
     7
 10
-236.27712315656751
 20
-20.07452843322304
 30
0.0
 11
-244.2771231565695
 21
-20.074528433222209
 31
0.0
  0
LINE
  5
19B77
  8
KI
  6
CONTINUOUS
 62
     7
 10
-230.2771231565695
 20
-20.574528433224131
 30
0.0
 11
-250.277123156568
 21
-20.574528433223119
 31
0.0
  0
LINE
  5
19B78
  8
KI
  6
CONTINUOUS
 62
     7
 10
-230.2771231565695
 20
-25.574528433224199
 30
0.0
 11
-250.277123156568
 21
-25.574528433224199
 31
0.0
  0
LINE
  5
19B79
  8
KI
  6
CONTINUOUS
 62
     7
 10
-230.2771231565695
 20
-23.574528433224131
 30
0.0
 11
-250.277123156568
 21
-23.574528433224131
 31
0.0
  0
LINE
  5
19B7A
  8
KI
  6
CONTINUOUS
 62
     7
 10
-243.2771231565695
 20
-19.774528433221288
 30
0.0
 11
-243.2771231565695
 21
-17.574528433224131
 31
0.0
  0
LINE
  5
19B7B
  8
KI
  6
CONTINUOUS
 62
     7
 10
-244.2771231565695
 20
-20.074528433222209
 30
0.0
 11
-244.2771231565695
 21
-20.574528433223119
 31
0.0
  0
ARC
  5
19B7C
  8
KI
  6
CONTINUOUS
 62
     7
 10
-242.9771231565683
 20
-19.774528433221288
 30
0.0
 40
0.3000000000010914
 50
180.0
 51
270.0
  0
ARC
  5
19B7D
  8
KI
  6
CONTINUOUS
 62
     7
 10
-242.9771231565683
 20
-19.774528433221288
 30
0.0
 40
0.3000000000010914
 50
180.0
 51
270.0
  0
LINE
  5
19B7E
  8
KI
  6
CONTINUOUS
 62
     7
 10
-250.277123156568
 20
-25.574528433224199
 30
0.0
 11
-250.277123156568
 21
-20.574528433223119
 31
0.0
  0
LINE
  5
19B7F
  8
KI
  6
CONTINUOUS
 62
     7
 10
-230.2771231565695
 20
-20.574528433224131
 30
0.0
 11
-230.2771231565695
 21
-25.574528433224199
 31
0.0
  0
LINE
  5
19B80
  8
KI
  6
CONTINUOUS
 62
     7
 10
-237.27712315656771
 20
-17.574528433224131
 30
0.0
 11
-237.27712315656771
 21
-19.774528433221288
 31
0.0
  0
LINE
  5
19B81
  8
KI
  6
CONTINUOUS
 62
     7
 10
-236.27712315656751
 20
-20.574528433223119
 30
0.0
 11
-236.27712315656751
 21
-20.07452843322304
 31
0.0
  0
ARC
  5
19B82
  8
KI
  6
CONTINUOUS
 62
     7
 10
-237.5771231565688
 20
-19.774528433221288
 30
0.0
 40
0.3000000000009209
 50
270.0
 51
0.0
  0
ARC
  5
19B83
  8
KI
  6
CONTINUOUS
 62
     7
 10
-237.5771231565688
 20
-19.774528433221288
 30
0.0
 40
0.3000000000009209
 50
270.0
 51
0.0
  0
LINE
  5
19B84
  8
KI
  6
CONTINUOUS
 62
     7
 10
-223.7771231565701
 20
54.675472401482132
 30
0.0
 11
-223.7771231565701
 21
121.9254715667758
 31
0.0
  0
LINE
  5
19B85
  8
KI
  6
CONTINUOUS
 62
     7
 10
-256.77712315656981
 20
121.9254715667758
 30
0.0
 11
-256.77712315656942
 21
54.675472401482132
 31
0.0
  0
LINE
  5
19B86
  8
KI
  6
CONTINUOUS
 62
     7
 10
-226.27712315657061
 20
150.4254715667758
 30
0.0
 11
-254.27712315656959
 21
150.4254715667758
 31
0.0
  0
LINE
  5
19B87
  8
KI
  6
CONTINUOUS
 62
     7
 10
-256.77712315656981
 20
121.9254715667758
 30
0.0
 11
-223.7771231565701
 21
121.9254715667758
 31
0.0
  0
LINE
  5
19B88
  8
KI
  6
CONTINUOUS
 62
     7
 10
-234.77712315657001
 20
128.9254715667758
 30
0.0
 11
-226.27712315657061
 21
128.9254715667758
 31
0.0
  0
ARC
  5
19B89
  8
KI
  6
CONTINUOUS
 62
     7
 10
-231.8934098669404
 20
136.1870490548686
 30
0.0
 40
5.9999999999989511
 50
241.27417005117121
 51
317.39582687510108
  0
LINE
  5
19B8A
  8
KI
  6
CONTINUOUS
 62
     7
 10
-227.47712315656941
 20
132.12547156677601
 30
0.0
 11
-227.47712315656941
 21
149.2254715667745
 31
0.0
  0
LINE
  5
19B8B
  8
KI
  6
CONTINUOUS
 62
     7
 10
-253.077123156569
 20
149.2254715667745
 30
0.0
 11
-253.077123156569
 21
132.12547156677601
 31
0.0
  0
LINE
  5
19B8C
  8
KI
  6
CONTINUOUS
 62
     7
 10
-254.27712315656959
 20
150.4254715667758
 30
0.0
 11
-254.27712315656959
 21
128.9254715667758
 31
0.0
  0
LINE
  5
19B8D
  8
KI
  6
CONTINUOUS
 62
     7
 10
-251.87712315657001
 20
147.18704905486851
 30
0.0
 11
-251.87712315657001
 21
131.18704905486851
 31
0.0
  0
LINE
  5
19B8E
  8
KI
  6
CONTINUOUS
 62
     7
 10
-245.87712315657029
 20
131.18704905486851
 30
0.0
 11
-245.87712315657029
 21
147.18704905486851
 31
0.0
  0
LINE
  5
19B8F
  8
KI
  6
CONTINUOUS
 62
     7
 10
-245.3771231565695
 20
143.4370490548686
 30
0.0
 11
-245.3771231565695
 21
134.93704905486851
 31
0.0
  0
LINE
  5
19B90
  8
KI
  6
CONTINUOUS
 62
     7
 10
-228.6771231565703
 20
131.18704905486851
 30
0.0
 11
-228.6771231565703
 21
147.18704905486851
 31
0.0
  0
LINE
  5
19B91
  8
KI
  6
CONTINUOUS
 62
     7
 10
-234.6771231565703
 20
147.18704905486851
 30
0.0
 11
-234.6771231565703
 21
131.18704905486851
 31
0.0
  0
LINE
  5
19B92
  8
KI
  6
CONTINUOUS
 62
     7
 10
-235.1771231565709
 20
134.93704905486851
 30
0.0
 11
-235.1771231565709
 21
143.4370490548686
 31
0.0
  0
LINE
  5
19B93
  8
KI
  6
CONTINUOUS
 62
     7
 10
-235.1771231565709
 20
143.1870490548684
 30
0.0
 11
-235.1771231565709
 21
135.18704905486871
 31
0.0
  0
LINE
  5
19B94
  8
KI
  6
CONTINUOUS
 62
     7
 10
-245.3771231565695
 20
135.18704905486871
 30
0.0
 11
-245.3771231565695
 21
143.1870490548684
 31
0.0
  0
LINE
  5
19B95
  8
KI
  6
CONTINUOUS
 62
     7
 10
-235.77712315656959
 20
133.1870490548686
 30
0.0
 11
-235.77712315656959
 21
143.68704905486851
 31
0.0
  0
LINE
  5
19B96
  8
KI
  6
CONTINUOUS
 62
     7
 10
-244.7771231565693
 20
133.1870490548686
 30
0.0
 11
-244.7771231565693
 21
143.68704905486851
 31
0.0
  0
LINE
  5
19B97
  8
KI
  6
CONTINUOUS
 62
     7
 10
-254.27712315656959
 20
128.9254715667758
 30
0.0
 11
-245.77712315657021
 21
128.9254715667758
 31
0.0
  0
ARC
  5
19B98
  8
KI
  6
CONTINUOUS
 62
     7
 10
-248.660836446198
 20
136.1870490548686
 30
0.0
 40
5.9999999999989804
 50
222.60417312489281
 51
298.72582994881981
  0
ARC
  5
19B99
  8
KI
  6
CONTINUOUS
 62
     7
 10
-248.87712315657041
 20
135.18704905486871
 30
0.0
 40
4.999999999999134
 50
233.13010200000841
 51
306.86989799999151
  0
LINE
  5
19B9A
  8
KI
  6
CONTINUOUS
 62
     7
 10
-243.77712315656959
 20
129.18704905486871
 30
0.0
 11
-236.77712315657061
 21
129.18704905486871
 31
0.0
  0
LINE
  5
19B9B
  8
KI
  6
CONTINUOUS
 62
     7
 10
-243.77712315656959
 20
132.18704905486871
 30
0.0
 11
-236.77712315657061
 21
132.18704905486871
 31
0.0
  0
LINE
  5
19B9C
  8
KI
  6
CONTINUOUS
 62
     7
 10
-243.77712315656959
 20
134.68704905486851
 30
0.0
 11
-236.77712315657061
 21
134.68704905486851
 31
0.0
  0
LINE
  5
19B9D
  8
KI
  6
CONTINUOUS
 62
     7
 10
-245.77712315657021
 20
130.9254715667758
 30
0.0
 11
-245.77712315657021
 21
128.9254715667758
 31
0.0
  0
LINE
  5
19B9E
  8
KI
  6
CONTINUOUS
 62
     7
 10
-243.2771231565695
 20
121.9254715667758
 30
0.0
 11
-243.2771231565695
 21
129.18704905486871
 31
0.0
  0
LINE
  5
19B9F
  8
KI
  6
CONTINUOUS
 62
     7
 10
-245.3771231565695
 20
134.93704905486851
 30
0.0
 11
-245.87712315657029
 21
134.93704905486851
 31
0.0
  0
LINE
  5
19BA0
  8
KI
  6
CONTINUOUS
 62
     7
 10
-245.3771231565695
 20
135.18704905486871
 30
0.0
 11
-245.27712315657001
 21
135.18704905486871
 31
0.0
  0
ARC
  5
19BA1
  8
KI
  6
CONTINUOUS
 62
     7
 10
-243.77712315656959
 20
130.18704905486851
 30
0.0
 40
0.9999999999999431
 50
180.0
 51
270.0
  0
ARC
  5
19BA2
  8
KI
  6
CONTINUOUS
 62
     7
 10
-243.77712315656959
 20
133.1870490548686
 30
0.0
 40
0.9999999999999431
 50
180.0
 51
270.0
  0
ARC
  5
19BA3
  8
KI
  6
CONTINUOUS
 62
     7
 10
-243.77712315656959
 20
135.68704905486851
 30
0.0
 40
0.9999999999999431
 50
180.0
 51
270.0
  0
ARC
  5
19BA4
  8
KI
  6
CONTINUOUS
 62
     7
 10
-246.7771231565695
 20
130.18704905486851
 30
0.0
 40
2.0000000000000551
 50
0.0
 51
63.256869000008017
  0
ARC
  5
19BA5
  8
KI
  6
CONTINUOUS
 62
     7
 10
-245.27712315657001
 20
134.68704905486851
 30
0.0
 40
0.500000000000057
 50
0.0
 51
90.0
  0
ARC
  5
19BA6
  8
KI
  6
CONTINUOUS
 62
     7
 10
-245.27712315657001
 20
134.68704905486851
 30
0.0
 40
0.500000000000057
 50
0.0
 51
90.0
  0
LINE
  5
19BA7
  8
KI
  6
CONTINUOUS
 62
     7
 10
-234.77712315657001
 20
130.9254715667758
 30
0.0
 11
-234.77712315657001
 21
128.9254715667758
 31
0.0
  0
LINE
  5
19BA8
  8
KI
  6
CONTINUOUS
 62
     7
 10
-237.2771231565701
 20
129.18704905486871
 30
0.0
 11
-237.2771231565701
 21
121.9254715667758
 31
0.0
  0
LINE
  5
19BA9
  8
KI
  6
CONTINUOUS
 62
     7
 10
-234.6771231565703
 20
134.93704905486851
 30
0.0
 11
-235.1771231565709
 21
134.93704905486851
 31
0.0
  0
LINE
  5
19BAA
  8
KI
  6
CONTINUOUS
 62
     7
 10
-235.27712315657021
 20
135.18704905486871
 30
0.0
 11
-235.1771231565709
 21
135.18704905486871
 31
0.0
  0
ARC
  5
19BAB
  8
KI
  6
CONTINUOUS
 62
     7
 10
-233.7771231565699
 20
130.18704905486851
 30
0.0
 40
2.0000000000010441
 50
116.7431310000123
 51
180.0
  0
ARC
  5
19BAC
  8
KI
  6
CONTINUOUS
 62
     7
 10
-236.77712315657061
 20
130.18704905486851
 30
0.0
 40
0.9999999999998575
 50
270.0
 51
0.0
  0
ARC
  5
19BAD
  8
KI
  6
CONTINUOUS
 62
     7
 10
-236.77712315657061
 20
133.1870490548686
 30
0.0
 40
0.9999999999998575
 50
270.0
 51
0.0
  0
ARC
  5
19BAE
  8
KI
  6
CONTINUOUS
 62
     7
 10
-236.77712315657061
 20
135.68704905486851
 30
0.0
 40
0.9999999999999431
 50
270.0
 51
0.0
  0
ARC
  5
19BAF
  8
KI
  6
CONTINUOUS
 62
     7
 10
-235.27712315657021
 20
134.68704905486851
 30
0.0
 40
0.5000000000001421
 50
90.0
 51
180.0
  0
ARC
  5
19BB0
  8
KI
  6
CONTINUOUS
 62
     7
 10
-231.67712315656959
 20
135.18704905486871
 30
0.0
 40
4.9999999999998472
 50
233.13010199999019
 51
306.86989799999992
  0
LINE
  5
19BB1
  8
KI
  6
CONTINUOUS
 62
     7
 10
-245.27712315657001
 20
149.2254715667745
 30
0.0
 11
-253.077123156569
 21
149.2254715667745
 31
0.0
  0
ARC
  5
19BB2
  8
KI
  6
CONTINUOUS
 62
     7
 10
-248.87712315657041
 20
143.1870490548684
 30
0.0
 40
4.9999999999996101
 50
53.130102000018262
 51
126.869897999983
  0
LINE
  5
19BB3
  8
KI
  6
CONTINUOUS
 62
     7
 10
-236.2771231565695
 20
149.2254715667745
 30
0.0
 11
-244.2771231565699
 21
149.2254715667745
 31
0.0
  0
LINE
  5
19BB4
  8
KI
  6
CONTINUOUS
 62
     7
 10
-234.6771231565703
 20
144.6870490548684
 30
0.0
 11
-245.87712315657029
 21
144.6870490548684
 31
0.0
  0
LINE
  5
19BB5
  8
KI
  6
CONTINUOUS
 62
     7
 10
-244.2771231565699
 20
147.62547156677579
 30
0.0
 11
-244.2771231565699
 21
149.2254715667745
 31
0.0
  0
LINE
  5
19BB6
  8
KI
  6
CONTINUOUS
 62
     7
 10
-245.27712315657001
 20
147.62547156677579
 30
0.0
 11
-244.2771231565699
 21
147.62547156677579
 31
0.0
  0
LINE
  5
19BB7
  8
KI
  6
CONTINUOUS
 62
     7
 10
-245.27712315657001
 20
149.2254715667745
 30
0.0
 11
-245.27712315657001
 21
147.62547156677579
 31
0.0
  0
LINE
  5
19BB8
  8
KI
  6
CONTINUOUS
 62
     7
 10
-245.87712315657029
 20
143.4370490548686
 30
0.0
 11
-245.3771231565695
 21
143.4370490548686
 31
0.0
  0
LINE
  5
19BB9
  8
KI
  6
CONTINUOUS
 62
     7
 10
-245.27712315657001
 20
143.1870490548684
 30
0.0
 11
-245.3771231565695
 21
143.1870490548684
 31
0.0
  0
ARC
  5
19BBA
  8
KI
  6
CONTINUOUS
 62
     7
 10
-243.77712315656959
 20
143.68704905486851
 30
0.0
 40
0.9999999999999431
 50
90.0
 51
180.0
  0
ARC
  5
19BBB
  8
KI
  6
CONTINUOUS
 62
     7
 10
-245.27712315657001
 20
143.68704905486851
 30
0.0
 40
0.500000000000057
 50
270.0
 51
0.0
  0
LINE
  5
19BBC
  8
KI
  6
CONTINUOUS
 62
     7
 10
-235.27712315657021
 20
147.62547156677579
 30
0.0
 11
-235.27712315657021
 21
149.2254715667745
 31
0.0
  0
LINE
  5
19BBD
  8
KI
  6
CONTINUOUS
 62
     7
 10
-236.2771231565695
 20
147.62547156677579
 30
0.0
 11
-235.27712315657021
 21
147.62547156677579
 31
0.0
  0
LINE
  5
19BBE
  8
KI
  6
CONTINUOUS
 62
     7
 10
-236.2771231565695
 20
149.2254715667745
 30
0.0
 11
-236.2771231565695
 21
147.62547156677579
 31
0.0
  0
LINE
  5
19BBF
  8
KI
  6
CONTINUOUS
 62
     7
 10
-235.1771231565709
 20
143.4370490548686
 30
0.0
 11
-234.6771231565703
 21
143.4370490548686
 31
0.0
  0
LINE
  5
19BC0
  8
KI
  6
CONTINUOUS
 62
     7
 10
-235.1771231565709
 20
143.1870490548684
 30
0.0
 11
-235.27712315657021
 21
143.1870490548684
 31
0.0
  0
ARC
  5
19BC1
  8
KI
  6
CONTINUOUS
 62
     7
 10
-236.77712315657061
 20
143.68704905486851
 30
0.0
 40
1.000000000000113
 50
0.0
 51
90.0
  0
ARC
  5
19BC2
  8
KI
  6
CONTINUOUS
 62
     7
 10
-235.27712315657021
 20
143.68704905486851
 30
0.0
 40
0.4999999999998864
 50
180.0
 51
270.0
  0
LINE
  5
19BC3
  8
KI
  6
CONTINUOUS
 62
     7
 10
-227.47712315656941
 20
149.2254715667745
 30
0.0
 11
-235.27712315657021
 21
149.2254715667745
 31
0.0
  0
ARC
  5
19BC4
  8
KI
  6
CONTINUOUS
 62
     7
 10
-231.67712315656959
 20
143.1870490548684
 30
0.0
 40
5.0000000000001243
 50
53.130102000008492
 51
126.86989799999991
  0
LINE
  5
19BC5
  8
KI
  6
CONTINUOUS
 62
     7
 10
-226.27712315657061
 20
128.9254715667758
 30
0.0
 11
-226.27712315657061
 21
150.4254715667758
 31
0.0
  0
LINE
  5
19BC6
  8
KI
  6
CONTINUOUS
 62
     7
 10
-256.77712315656942
 20
-149.1264696964015
 30
0.0
 11
-223.7771231565701
 21
-149.1264696964015
 31
0.0
  0
LINE
  5
19BC7
  8
KI
  6
CONTINUOUS
 62
     7
 10
-230.2771231565695
 20
-152.1264696964015
 30
0.0
 11
-250.277123156568
 21
-152.12646969640059
 31
0.0
  0
LINE
  5
19BC8
  8
KI
  6
CONTINUOUS
 62
     7
 10
-230.2771231565695
 20
-157.12646969640139
 30
0.0
 11
-250.277123156568
 21
-157.12646969640139
 31
0.0
  0
LINE
  5
19BC9
  8
KI
  6
CONTINUOUS
 62
     7
 10
-230.2771231565695
 20
-155.1264696964015
 30
0.0
 11
-250.277123156568
 21
-155.1264696964015
 31
0.0
  0
LINE
  5
19BCA
  8
KI
  6
CONTINUOUS
 62
     7
 10
-256.77712315656942
 20
-85.126469696385584
 30
0.0
 11
-256.77712315656942
 21
-149.1264696964015
 31
0.0
  0
LINE
  5
19BCB
  8
KI
  6
CONTINUOUS
 62
     7
 10
-250.277123156568
 20
-157.12646969640139
 30
0.0
 11
-250.277123156568
 21
-152.12646969640059
 31
0.0
  0
LINE
  5
19BCC
  8
KI
  6
CONTINUOUS
 62
     7
 10
-223.7771231565701
 20
-149.1264696964015
 30
0.0
 11
-223.7771231565701
 21
-85.126469696385584
 31
0.0
  0
LINE
  5
19BCD
  8
KI
  6
CONTINUOUS
 62
     7
 10
-237.5771231565688
 20
-151.62646969639971
 30
0.0
 11
-242.9771231565683
 21
-151.62646969639971
 31
0.0
  0
LINE
  5
19BCE
  8
KI
  6
CONTINUOUS
 62
     7
 10
-237.5771231565688
 20
-151.62646969639971
 30
0.0
 11
-242.9771231565683
 21
-151.62646969639971
 31
0.0
  0
LINE
  5
19BCF
  8
KI
  6
CONTINUOUS
 62
     7
 10
-244.2771231565695
 20
-152.12646969640059
 30
0.0
 11
-236.27712315656751
 21
-152.12646969640059
 31
0.0
  0
LINE
  5
19BD0
  8
KI
  6
CONTINUOUS
 62
     7
 10
-236.27712315656751
 20
-151.62646969640051
 30
0.0
 11
-244.2771231565695
 21
-151.62646969639971
 31
0.0
  0
LINE
  5
19BD1
  8
KI
  6
CONTINUOUS
 62
     7
 10
-244.2771231565695
 20
-151.62646969639971
 30
0.0
 11
-244.2771231565695
 21
-152.12646969640059
 31
0.0
  0
ARC
  5
19BD2
  8
KI
  6
CONTINUOUS
 62
     7
 10
-242.9771231565683
 20
-151.32646969639879
 30
0.0
 40
0.3000000000010914
 50
180.0
 51
270.0
  0
ARC
  5
19BD3
  8
KI
  6
CONTINUOUS
 62
     7
 10
-242.9771231565683
 20
-151.32646969639879
 30
0.0
 40
0.3000000000010914
 50
180.0
 51
270.0
  0
LINE
  5
19BD4
  8
KI
  6
CONTINUOUS
 62
     7
 10
-243.2771231565695
 20
-151.32646969639879
 30
0.0
 11
-243.2771231565695
 21
-149.1264696964015
 31
0.0
  0
LINE
  5
19BD5
  8
KI
  6
CONTINUOUS
 62
     7
 10
-236.27712315656751
 20
-152.12646969640059
 30
0.0
 11
-236.27712315656751
 21
-151.62646969640051
 31
0.0
  0
ARC
  5
19BD6
  8
KI
  6
CONTINUOUS
 62
     7
 10
-237.5771231565688
 20
-151.32646969639879
 30
0.0
 40
0.3000000000009209
 50
270.0
 51
0.0
  0
ARC
  5
19BD7
  8
KI
  6
CONTINUOUS
 62
     7
 10
-237.5771231565688
 20
-151.32646969639879
 30
0.0
 40
0.3000000000009209
 50
270.0
 51
0.0
  0
LINE
  5
19BD8
  8
KI
  6
CONTINUOUS
 62
     7
 10
-230.2771231565695
 20
-152.1264696964015
 30
0.0
 11
-230.2771231565695
 21
-157.12646969640139
 31
0.0
  0
LINE
  5
19BD9
  8
KI
  6
CONTINUOUS
 62
     7
 10
-237.27712315656771
 20
-149.1264696964015
 30
0.0
 11
-237.27712315656771
 21
-151.32646969639879
 31
0.0
  0
LINE
  5
19BDA
  8
KI
  6
CONTINUOUS
 62
     7
 10
-230.2771231565695
 20
-275.83097039672811
 30
0.0
 11
-250.277123156568
 21
-275.83097039672811
 31
0.0
  0
LINE
  5
19BDB
  8
KI
  6
CONTINUOUS
 62
     7
 10
-230.2771231565695
 20
-277.83097039672822
 30
0.0
 11
-250.277123156568
 21
-277.83097039672822
 31
0.0
  0
LINE
  5
19BDC
  8
KI
  6
CONTINUOUS
 62
     7
 10
-230.2771231565695
 20
-272.83097039672811
 30
0.0
 11
-250.277123156568
 21
-272.83097039672708
 31
0.0
  0
LINE
  5
19BDD
  8
KI
  6
CONTINUOUS
 62
     7
 10
-256.77712315656981
 20
-269.83097039672799
 30
0.0
 11
-223.7771231565701
 21
-269.83097039672799
 31
0.0
  0
LINE
  5
19BDE
  8
KI
  6
CONTINUOUS
 62
     7
 10
-256.77712315656981
 20
-217.8309703967364
 30
0.0
 11
-256.77712315656981
 21
-269.83097039672799
 31
0.0
  0
LINE
  5
19BDF
  8
KI
  6
CONTINUOUS
 62
     7
 10
-250.277123156568
 20
-277.83097039672822
 30
0.0
 11
-250.277123156568
 21
-272.83097039672708
 31
0.0
  0
LINE
  5
19BE0
  8
KI
  6
CONTINUOUS
 62
     7
 10
-223.7771231565701
 20
-269.83097039672799
 30
0.0
 11
-223.7771231565701
 21
-217.8309703967364
 31
0.0
  0
LINE
  5
19BE1
  8
KI
  6
CONTINUOUS
 62
     7
 10
-236.27712315656751
 20
-272.33097039672703
 30
0.0
 11
-244.2771231565699
 21
-272.33097039672612
 31
0.0
  0
LINE
  5
19BE2
  8
KI
  6
CONTINUOUS
 62
     7
 10
-244.2771231565699
 20
-272.83097039672708
 30
0.0
 11
-236.27712315656751
 21
-272.83097039672708
 31
0.0
  0
LINE
  5
19BE3
  8
KI
  6
CONTINUOUS
 62
     7
 10
-237.5771231565688
 20
-272.33097039672612
 30
0.0
 11
-242.9771231565683
 21
-272.33097039672612
 31
0.0
  0
LINE
  5
19BE4
  8
KI
  6
CONTINUOUS
 62
     7
 10
-237.5771231565688
 20
-272.33097039672612
 30
0.0
 11
-242.9771231565683
 21
-272.33097039672612
 31
0.0
  0
LINE
  5
19BE5
  8
KI
  6
CONTINUOUS
 62
     7
 10
-243.2771231565695
 20
-272.03097039672508
 30
0.0
 11
-243.2771231565695
 21
-269.83097039672799
 31
0.0
  0
ARC
  5
19BE6
  8
KI
  6
CONTINUOUS
 62
     7
 10
-242.9771231565683
 20
-272.03097039672508
 30
0.0
 40
0.3000000000010914
 50
180.0
 51
270.0
  0
ARC
  5
19BE7
  8
KI
  6
CONTINUOUS
 62
     7
 10
-242.9771231565683
 20
-272.03097039672508
 30
0.0
 40
0.3000000000010914
 50
180.0
 51
270.0
  0
LINE
  5
19BE8
  8
KI
  6
CONTINUOUS
 62
     7
 10
-244.2771231565699
 20
-272.33097039672612
 30
0.0
 11
-244.2771231565699
 21
-272.83097039672708
 31
0.0
  0
LINE
  5
19BE9
  8
KI
  6
CONTINUOUS
 62
     7
 10
-237.27712315656771
 20
-269.83097039672799
 30
0.0
 11
-237.27712315656771
 21
-272.03097039672508
 31
0.0
  0
LINE
  5
19BEA
  8
KI
  6
CONTINUOUS
 62
     7
 10
-230.2771231565695
 20
-272.83097039672811
 30
0.0
 11
-230.2771231565695
 21
-277.83097039672822
 31
0.0
  0
ARC
  5
19BEB
  8
KI
  6
CONTINUOUS
 62
     7
 10
-237.5771231565688
 20
-272.03097039672508
 30
0.0
 40
0.3000000000009209
 50
270.0
 51
0.0
  0
ARC
  5
19BEC
  8
KI
  6
CONTINUOUS
 62
     7
 10
-237.5771231565688
 20
-272.03097039672508
 30
0.0
 40
0.3000000000009209
 50
270.0
 51
0.0
  0
LINE
  5
19BED
  8
KI
  6
CONTINUOUS
 62
     7
 10
-236.27712315656751
 20
-272.83097039672708
 30
0.0
 11
-236.27712315656751
 21
-272.33097039672703
 31
0.0
  0
LINE
  5
19BEE
  8
KI
  6
CONTINUOUS
 62
     7
 10
297.86403653216962
 20
-9.6465094192050156
 30
0.0
 11
229.2138436107675
 21
-9.6465094192050156
 31
0.0
  0
LINE
  5
19BEF
  8
KI
  6
CONTINUOUS
 62
     7
 10
299.86403653216962
 20
-42.646509419205017
 30
0.0
 11
366.514229453572
 21
-42.646509419205017
 31
0.0
  0
LINE
  5
19BF0
  8
KI
  6
CONTINUOUS
 62
     7
 10
101.3641248879368
 20
-9.6465094192050156
 30
0.0
 11
-21.48559383489172
 21
-9.6465094192050156
 31
0.0
  0
LINE
  5
19BF1
  8
KI
  6
CONTINUOUS
 62
     7
 10
103.3641248879368
 20
-42.646509419205017
 30
0.0
 11
228.2138436107675
 21
-42.646509419205017
 31
0.0
  0
ARC
  5
19BF2
  8
KI
  6
DASHED2
 62
     7
 10
-240.27712315657001
 20
86.825471566777026
 30
0.0
 40
7.900000000000996
 50
180.0
 51
0.0
  0
LINE
  5
19BF3
  8
KI
  6
DASHED2
 62
     7
 10
-248.1771231565705
 20
121.9254715667758
 30
0.0
 11
-232.37712315657041
 21
121.9254715667758
 31
0.0
  0
LINE
  5
19BF4
  8
KI
  6
DASHED2
 62
     7
 10
-248.1771231565705
 20
121.9254715667758
 30
0.0
 11
-232.37712315657041
 21
121.9254715667758
 31
0.0
  0
LINE
  5
19BF5
  8
KI
  6
DASHED2
 62
     7
 10
-248.1771231565705
 20
87.325471566776514
 30
0.0
 11
-248.1771231565705
 21
121.9254715667758
 31
0.0
  0
LINE
  5
19BF6
  8
KI
  6
DASHED2
 62
     7
 10
-248.1771231565705
 20
86.825471566777026
 30
0.0
 11
-248.1771231565705
 21
121.9254715667758
 31
0.0
  0
LINE
  5
19BF7
  8
KI
  6
DASHED2
 62
     7
 10
-232.37712315657041
 20
121.9254715667758
 30
0.0
 11
-232.37712315657041
 21
87.325471566776514
 31
0.0
  0
LINE
  5
19BF8
  8
KI
  6
DASHED2
 62
     7
 10
-232.37712315657041
 20
121.9254715667758
 30
0.0
 11
-232.37712315657041
 21
86.825471566777026
 31
0.0
  0
LINE
  5
19BF9
  8
KI
  6
DASHED2
 62
     7
 10
-232.3771231565685
 20
-17.574528433224192
 30
0.0
 11
-248.17712315656971
 21
-17.574528433224192
 31
0.0
  0
LINE
  5
19BFA
  8
KI
  6
DASHED2
 62
     7
 10
-232.3771231565685
 20
-17.574528433224192
 30
0.0
 11
-248.17712315656971
 21
-17.574528433224192
 31
0.0
  0
ARC
  5
19BFB
  8
KI
  6
DASHED2
 62
     7
 10
-240.27712315657001
 20
17.525471566777629
 30
0.0
 40
7.9000000000020218
 50
0.0
 51
180.0
  0
LINE
  5
19BFC
  8
KI
  6
DASHED2
 62
     7
 10
-248.17712315656971
 20
-17.574528433224192
 30
0.0
 11
-248.17712315656971
 21
17.525471566777629
 31
0.0
  0
LINE
  5
19BFD
  8
KI
  6
DASHED2
 62
     7
 10
-248.17712315656971
 20
-17.574528433224192
 30
0.0
 11
-248.17712315656971
 21
17.02547156677673
 31
0.0
  0
LINE
  5
19BFE
  8
KI
  6
DASHED2
 62
     7
 10
-232.3771231565685
 20
17.525471566777629
 30
0.0
 11
-232.3771231565685
 21
-17.574528433224192
 31
0.0
  0
LINE
  5
19BFF
  8
KI
  6
DASHED2
 62
     7
 10
-232.3771231565685
 20
17.02547156677673
 30
0.0
 11
-232.3771231565685
 21
-17.574528433224192
 31
0.0
  0
LINE
  5
19C00
  8
KI
  6
DASHED2
 62
     7
 10
-232.3771231565685
 20
-114.0264696963998
 30
0.0
 11
-232.3771231565685
 21
-149.1264696964017
 31
0.0
  0
LINE
  5
19C01
  8
KI
  6
DASHED2
 62
     7
 10
-248.17712315656971
 20
-149.1264696964017
 30
0.0
 11
-248.17712315656971
 21
-114.0264696963998
 31
0.0
  0
LINE
  5
19C02
  8
KI
  6
DASHED2
 62
     7
 10
-232.3771231565685
 20
-149.1264696964017
 30
0.0
 11
-248.17712315656971
 21
-149.1264696964017
 31
0.0
  0
LINE
  5
19C03
  8
KI
  6
DASHED2
 62
     7
 10
-232.3771231565685
 20
-149.1264696964017
 30
0.0
 11
-248.17712315656971
 21
-149.1264696964017
 31
0.0
  0
LINE
  5
19C04
  8
KI
  6
DASHED2
 62
     7
 10
-248.17712315656971
 20
-149.1264696964017
 30
0.0
 11
-248.17712315656971
 21
-114.5264696964007
 31
0.0
  0
LINE
  5
19C05
  8
KI
  6
DASHED2
 62
     7
 10
-232.3771231565685
 20
-114.5264696964007
 30
0.0
 11
-232.3771231565685
 21
-149.1264696964017
 31
0.0
  0
ARC
  5
19C06
  8
KI
  6
DASHED2
 62
     7
 10
-240.27712315657001
 20
-114.0264696963998
 30
0.0
 40
7.9000000000020218
 50
0.0
 51
180.0
  0
LINE
  5
19C07
  8
KI
  6
DASHED2
 62
     7
 10
-232.3771231565685
 20
-234.73097039672609
 30
0.0
 11
-232.3771231565685
 21
-269.83097039672799
 31
0.0
  0
LINE
  5
19C08
  8
KI
  6
DASHED2
 62
     7
 10
-248.17712315656971
 20
-269.83097039672799
 30
0.0
 11
-248.17712315656971
 21
-235.23097039672709
 31
0.0
  0
LINE
  5
19C09
  8
KI
  6
DASHED2
 62
     7
 10
-248.17712315656971
 20
-269.83097039672799
 30
0.0
 11
-248.17712315656971
 21
-234.73097039672609
 31
0.0
  0
LINE
  5
19C0A
  8
KI
  6
DASHED2
 62
     7
 10
-232.3771231565685
 20
-269.83097039672799
 30
0.0
 11
-248.17712315656971
 21
-269.83097039672799
 31
0.0
  0
ARC
  5
19C0B
  8
KI
  6
DASHED2
 62
     7
 10
-240.27712315657001
 20
-234.73097039672609
 30
0.0
 40
7.9000000000020218
 50
0.0
 51
180.0
  0
LINE
  5
19C0C
  8
SU
  6
CONTINUOUS
 62
     3
 10
-381.27712315657021
 20
150.42547104827551
 30
0.0
 11
-406.27712315657033
 21
150.42547104827551
 31
0.0
  0
LINE
  5
19C0D
  8
SU
  6
CONTINUOUS
 62
     3
 10
-285.7770666778581
 20
137.4254776482752
 30
0.0
 11
-406.27712315657033
 21
137.4254776482752
 31
0.0
  0
LINE
  5
19C0E
  8
SU
  6
CONTINUOUS
 62
     3
 10
-403.27712315657021
 20
150.42547104827551
 30
0.0
 11
-403.27712315657021
 21
137.4254776482752
 31
0.0
  0
LINE
  5
19C0F
  8
SU
  6
CONTINUOUS
 62
     3
 10
-403.27712315657021
 20
137.4254776482752
 30
0.0
 11
-403.27712315657021
 21
120.5999538387517
 31
0.0
  0
LINE
  5
19C10
  8
SU
  6
CONTINUOUS
 62
     3
 10
-384.27712315657021
 20
174.42547104827551
 30
0.0
 11
-406.27712315657033
 21
174.42547104827551
 31
0.0
  0
LINE
  5
19C11
  8
SU
  6
CONTINUOUS
 62
     3
 10
-381.27712315657021
 20
150.42547104827551
 30
0.0
 11
-406.27712315657033
 21
150.42547104827551
 31
0.0
  0
LINE
  5
19C12
  8
SU
  6
CONTINUOUS
 62
     3
 10
-403.27712315657021
 20
174.42547104827551
 30
0.0
 11
-403.27712315657021
 21
150.42547104827551
 31
0.0
  0
LINE
  5
19C13
  8
KI
  6
CONTINUOUS
 62
     7
 10
-282.7771217060602
 20
150.4254715667758
 30
0.0
 11
-377.77712315657021
 21
150.4254715667758
 31
0.0
  0
LINE
  5
19C14
  8
KI
  6
CONTINUOUS
 62
     7
 10
-380.27712315657158
 20
174.4254715667758
 30
0.0
 11
-219.27712315657021
 21
174.4254715667758
 31
0.0
  0
LINE
  5
19C15
  8
KI
  6
CONTINUOUS
 62
     7
 10
-380.27712315657033
 20
152.9254715667758
 30
0.0
 11
-377.77712315657021
 21
150.4254715667758
 31
0.0
1001
GENIUS_GENFIL_13
1070
     0
1040
2.5
1040
2.5
1040
20.0
1040
0.0
1002
{
1002
}
1001
GENIUS_GENOBJ-N-CHA_13
1002
{
1000
OWNER
1000
GEN
1002
}
1001
GENIUS_GENODEF_13
1002
{
1000
HIER
1070
     0
1002
}
1002
{
1000
MANEDIT
1070
     0
1002
}
1002
{
1000
NOSEL
1070
     0
1002
}
1002
{
1000
BEHIND
1070
     0
1002
}
1002
{
1000
OTHER
1070
     0
1002
}
1002
{
1000
REACTOR
1002
}
  0
LINE
  5
19C16
  8
KI
  6
CONTINUOUS
 62
     7
 10
-380.27712315657033
 20
152.9254715667758
 30
0.0
 11
-380.27712315657033
 21
174.4254715667758
 31
0.0
  0
LINE
  5
19C17
  8
KI
  6
CONTINUOUS
 62
     7
 10
-221.77712315657021
 20
150.4254715667758
 30
0.0
 11
-262.7771217060602
 21
150.4254715667758
 31
0.0
  0
LINE
  5
19C18
  8
KI
  6
CONTINUOUS
 62
     7
 10
-219.27712315657021
 20
152.9254715667758
 30
0.0
 11
-221.77712315657021
 21
150.4254715667758
 31
0.0
1001
GENIUS_GENFIL_13
1070
     0
1040
2.5
1040
2.5
1040
20.0
1040
0.0
1002
{
1002
}
1001
GENIUS_GENOBJ-N-CHA_13
1002
{
1000
OWNER
1000
GEN
1002
}
1001
GENIUS_GENODEF_13
1002
{
1000
HIER
1070
     0
1002
}
1002
{
1000
MANEDIT
1070
     0
1002
}
1002
{
1000
NOSEL
1070
     0
1002
}
1002
{
1000
BEHIND
1070
     0
1002
}
1002
{
1000
OTHER
1070
     0
1002
}
1002
{
1000
REACTOR
1002
}
  0
LINE
  5
19C19
  8
KI
  6
CONTINUOUS
 62
     7
 10
-219.27712315657021
 20
174.4254715667758
 30
0.0
 11
-219.27712315657021
 21
152.9254715667758
 31
0.0
  0
LINE
  5
19C1A
  8
KI
  6
CONTINUOUS
 62
     7
 10
-262.7771217060602
 20
150.4254715667758
 30
0.0
 11
-262.7771217060602
 21
159.4254715667758
 31
0.0
  0
LINE
  5
19C1B
  8
KI
  6
CONTINUOUS
 62
     7
 10
-266.17712170606012
 20
150.4254715667758
 30
0.0
 11
-266.17712170606012
 21
159.4254715667758
 31
0.0
  0
LINE
  5
19C1C
  8
KI
  6
CONTINUOUS
 62
     7
 10
-282.7771217060602
 20
159.4254715667758
 30
0.0
 11
-282.7771217060602
 21
150.4254715667758
 31
0.0
  0
LINE
  5
19C1D
  8
KI
  6
CONTINUOUS
 62
     7
 10
-279.37712170606011
 20
159.4254715667758
 30
0.0
 11
-279.37712170606011
 21
150.4254715667758
 31
0.0
  0
LINE
  5
19C1E
  8
KI
  6
CONTINUOUS
 62
     7
 10
-266.17712170606012
 20
150.4254715667758
 30
0.0
 11
-279.37712170606011
 21
150.4254715667758
 31
0.0
  0
LINE
  5
19C1F
  8
KI
  6
CONTINUOUS
 62
     7
 10
-279.37712170606011
 20
159.4254715667758
 30
0.0
 11
-282.7771217060602
 21
159.4254715667758
 31
0.0
  0
LINE
  5
19C20
  8
KI
  6
CONTINUOUS
 62
     7
 10
-262.7771217060602
 20
159.4254715667758
 30
0.0
 11
-266.17712170606012
 21
159.4254715667758
 31
0.0
  0
LINE
  5
19C21
  8
OS
  6
CONTINUOUS
 62
     2
 10
-380.27712315657033
 20
171.83323342236631
 30
0.0
 11
-377.68488501216069
 21
174.42547156677571
 31
0.0
  0
LINE
  5
19C22
  8
OS
  6
CONTINUOUS
 62
     2
 10
-380.2771231565701
 20
161.93373848575439
 30
0.0
 11
-367.785390075549
 21
174.42547156677571
 31
0.0
  0
LINE
  5
19C23
  8
OS
  6
CONTINUOUS
 62
     2
 10
-379.83150914775348
 20
152.47985755795921
 30
0.0
 11
-357.88589513893743
 21
174.42547156677571
 31
0.0
  0
LINE
  5
19C24
  8
OS
  6
CONTINUOUS
 62
     2
 10
-371.98640020232551
 20
150.42547156677571
 30
0.0
 11
-347.98640020232551
 21
174.42547156677571
 31
0.0
  0
LINE
  5
19C25
  8
OS
  6
CONTINUOUS
 62
     2
 10
-362.08690526571399
 20
150.4254715667758
 30
0.0
 11
-338.08690526571422
 21
174.42547156677571
 31
0.0
  0
LINE
  5
19C26
  8
OS
  6
CONTINUOUS
 62
     2
 10
-352.18741032910248
 20
150.42547156677571
 30
0.0
 11
-328.18741032910231
 21
174.4254715667758
 31
0.0
  0
LINE
  5
19C27
  8
OS
  6
CONTINUOUS
 62
     2
 10
-342.28791539249062
 20
150.42547156677571
 30
0.0
 11
-318.28791539249079
 21
174.42547156677571
 31
0.0
  0
LINE
  5
19C28
  8
OS
  6
CONTINUOUS
 62
     2
 10
-332.3884204558791
 20
150.42547156677571
 30
0.0
 11
-308.3884204558791
 21
174.42547156677571
 31
0.0
  0
LINE
  5
19C29
  8
OS
  6
CONTINUOUS
 62
     2
 10
-322.48892551926741
 20
150.42547156677571
 30
0.0
 11
-298.48892551926741
 21
174.4254715667758
 31
0.0
  0
LINE
  5
19C2A
  8
OS
  6
CONTINUOUS
 62
     2
 10
-312.58943058265578
 20
150.4254715667758
 30
0.0
 11
-288.58943058265589
 21
174.4254715667758
 31
0.0
  0
LINE
  5
19C2B
  8
OS
  6
CONTINUOUS
 62
     2
 10
-302.6899356460442
 20
150.42547156677571
 30
0.0
 11
-278.6899356460442
 21
174.42547156677571
 31
0.0
  0
LINE
  5
19C2C
  8
OS
  6
CONTINUOUS
 62
     2
 10
-292.79044070943212
 20
150.42547156677571
 30
0.0
 11
-268.7904407094324
 21
174.4254715667758
 31
0.0
  0
LINE
  5
19C2D
  8
OS
  6
CONTINUOUS
 62
     2
 10
-282.89094577282083
 20
150.4254715667758
 30
0.0
 11
-282.7771217060602
 21
150.5392956335364
 31
0.0
  0
LINE
  5
19C2E
  8
OS
  6
CONTINUOUS
 62
     2
 10
-272.99145083620908
 20
150.4254715667758
 30
0.0
 11
-266.17712170606012
 21
157.23980069692459
 31
0.0
  0
LINE
  5
19C2F
  8
OS
  6
CONTINUOUS
 62
     2
 10
-262.7771217060602
 20
150.74030576031291
 30
0.0
 11
-239.09195589959711
 21
174.42547156677571
 31
0.0
  0
LINE
  5
19C30
  8
OS
  6
CONTINUOUS
 62
     2
 10
-253.19246096298559
 20
150.4254715667758
 30
0.0
 11
-229.19246096298559
 21
174.4254715667758
 31
0.0
  0
LINE
  5
19C31
  8
OS
  6
CONTINUOUS
 62
     2
 10
-243.2929660263741
 20
150.42547156677571
 30
0.0
 11
-219.29296602637399
 21
174.42547156677571
 31
0.0
  0
LINE
  5
19C32
  8
OS
  6
CONTINUOUS
 62
     2
 10
-233.3934710897623
 20
150.4254715667758
 30
0.0
 11
-219.2771231565699
 21
164.5418194999678
 31
0.0
  0
LINE
  5
19C33
  8
OS
  6
CONTINUOUS
 62
     2
 10
-223.49397615315081
 20
150.4254715667758
 30
0.0
 11
-219.27712315657021
 21
154.64232456335631
 31
0.0
  0
LINE
  5
19C34
  8
OS
  6
CONTINUOUS
 62
     2
 10
-279.37712170606011
 20
153.9392956335364
 30
0.0
 11
-258.89094577282083
 21
174.42547156677571
 31
0.0
  0
LINE
  5
19C35
  8
OS
  6
CONTINUOUS
 62
     2
 10
-263.99145083620903
 20
159.4254715667758
 30
0.0
 11
-248.9914508362092
 21
174.42547156677571
 31
0.0
  0
LINE
  5
19C36
  8
SU
  6
CONTINUOUS
 62
     3
 10
288.01422945357189
 20
84.153876423599399
 30
0.0
 11
288.01422945357189
 21
139.85349058077861
 31
0.0
  0
LINE
  5
19C37
  8
SU
  6
CONTINUOUS
 62
     3
 10
-14.48559385048056
 20
136.85349058077861
 30
0.0
 11
288.01422945357189
 21
136.85349058077861
 31
0.0
  0
LINE
  5
19C38
  8
KI
  6
CONTINUOUS
 62
     7
 10
363.11440810951751
 20
-4.0465041192224991
 30
0.0
 11
363.11440810951751
 21
6.3534906007771283
 31
0.0
  0
LINE
  5
19C39
  8
KI
  6
CONTINUOUS
 62
     7
 10
361.51441274951748
 20
6.3534906007771204
 30
0.0
 11
361.51441274951748
 21
-4.6464961992211284
 31
0.0
  0
LINE
  5
19C3A
  8
KI
  6
CONTINUOUS
 62
     7
 10
372.76832226951751
 20
16.75348532077745
 30
0.0
 11
363.11440810951751
 21
16.75348532077745
 31
0.0
  0
LINE
  5
19C3B
  8
KI
  6
CONTINUOUS
 62
     7
 10
374.5144061495177
 20
18.353480680778318
 30
0.0
 11
362.51441602951752
 21
18.353480680778318
 31
0.0
  0
LINE
  5
19C3C
  8
KI
  6
CONTINUOUS
 62
     7
 10
363.11440810951751
 20
16.75348532077745
 30
0.0
 11
363.11440810951751
 21
6.3534906007771283
 31
0.0
  0
LINE
  5
19C3D
  8
KI
  6
CONTINUOUS
 62
     7
 10
361.51441274951748
 20
6.3534906007771204
 30
0.0
 11
361.51441274951748
 21
17.353477400779159
 31
0.0
  0
ARC
  5
19C3E
  8
KI
  6
CONTINUOUS
 62
     7
 10
362.51441602951752
 20
17.353477400779141
 30
0.0
 40
0.9999999999999218
 50
90.0
 51
180.0
  0
LINE
  5
19C3F
  8
KI
  6
CONTINUOUS
 62
     7
 10
382.51440778951758
 20
13.853490600777461
 30
0.0
 11
381.01440282951711
 21
13.35351368077869
 31
0.0
  0
LINE
  5
19C40
  8
KI
  6
CONTINUOUS
 62
     7
 10
382.51440778951758
 20
15.853497200778831
 30
0.0
 11
381.01440282951711
 21
16.353474080777652
 31
0.0
  0
LINE
  5
19C41
  8
KI
  6
CONTINUOUS
 62
     7
 10
376.51441274951748
 20
13.853490600777461
 30
0.0
 11
372.51459746951753
 21
13.853490600777461
 31
0.0
  0
LINE
  5
19C42
  8
KI
  6
CONTINUOUS
 62
     7
 10
376.51441274951748
 20
15.853497200778831
 30
0.0
 11
374.29569406951708
 21
15.853497200778831
 31
0.0
  0
LINE
  5
19C43
  8
KI
  6
CONTINUOUS
 62
     7
 10
374.29569406951708
 20
15.853497200778831
 30
0.0
 11
374.5144061495177
 21
18.353480680778318
 31
0.0
  0
LINE
  5
19C44
  8
KI
  6
CONTINUOUS
 62
     7
 10
372.51459746951753
 20
13.853490600777461
 30
0.0
 11
372.76832226951751
 21
16.75348532077745
 31
0.0
  0
LINE
  5
19C45
  8
KI
  6
CONTINUOUS
 62
     7
 10
379.5143978695175
 20
13.35351368077869
 30
0.0
 11
379.5143978695175
 21
13.853490600777461
 31
0.0
  0
LINE
  5
19C46
  8
KI
  6
CONTINUOUS
 62
     7
 10
378.01441766951768
 20
13.35351368077869
 30
0.0
 11
379.5143978695175
 21
13.853490600777461
 31
0.0
  0
LINE
  5
19C47
  8
KI
  6
CONTINUOUS
 62
     7
 10
379.5143978695175
 20
13.35351368077869
 30
0.0
 11
381.01440282951711
 21
13.853490600777461
 31
0.0
  0
LINE
  5
19C48
  8
KI
  6
CONTINUOUS
 62
     7
 10
381.01440282951711
 20
13.35351368077869
 30
0.0
 11
381.01440282951711
 21
13.853490600777461
 31
0.0
  0
LINE
  5
19C49
  8
KI
  6
CONTINUOUS
 62
     7
 10
378.01441766951768
 20
13.853490600777461
 30
0.0
 11
378.01441766951768
 21
13.35351368077869
 31
0.0
  0
LINE
  5
19C4A
  8
KI
  6
CONTINUOUS
 62
     7
 10
376.51441274951748
 20
13.35351368077869
 30
0.0
 11
376.51441274951748
 21
13.853490600777461
 31
0.0
  0
LINE
  5
19C4B
  8
KI
  6
CONTINUOUS
 62
     7
 10
378.01441766951768
 20
13.853490600777461
 30
0.0
 11
376.51441274951748
 21
13.35351368077869
 31
0.0
  0
LINE
  5
19C4C
  8
KI
  6
CONTINUOUS
 62
     7
 10
379.5143978695175
 20
16.353474080777652
 30
0.0
 11
379.5143978695175
 21
15.85349720077882
 31
0.0
  0
LINE
  5
19C4D
  8
KI
  6
CONTINUOUS
 62
     7
 10
378.01441766951768
 20
16.353474080777652
 30
0.0
 11
379.5143978695175
 21
15.85349720077882
 31
0.0
  0
LINE
  5
19C4E
  8
KI
  6
CONTINUOUS
 62
     7
 10
379.5143978695175
 20
16.353474080777652
 30
0.0
 11
381.01440282951711
 21
15.85349720077882
 31
0.0
  0
LINE
  5
19C4F
  8
KI
  6
CONTINUOUS
 62
     7
 10
381.01440282951711
 20
16.353474080777652
 30
0.0
 11
381.01440282951711
 21
15.85349720077882
 31
0.0
  0
LINE
  5
19C50
  8
KI
  6
CONTINUOUS
 62
     7
 10
378.01441766951768
 20
15.85349720077882
 30
0.0
 11
378.01441766951768
 21
16.353474080777652
 31
0.0
  0
LINE
  5
19C51
  8
KI
  6
CONTINUOUS
 62
     7
 10
376.51441274951748
 20
16.353474080777652
 30
0.0
 11
376.51441274951748
 21
15.853497200778831
 31
0.0
  0
LINE
  5
19C52
  8
KI
  6
CONTINUOUS
 62
     7
 10
378.01441766951768
 20
15.85349720077882
 30
0.0
 11
376.51441274951748
 21
16.353474080777652
 31
0.0
  0
LINE
  5
19C53
  8
KI
  6
CONTINUOUS
 62
     7
 10
382.51440778951758
 20
13.853490600777461
 30
0.0
 11
382.51440778951758
 21
15.853497200778831
 31
0.0
  0
LINE
  5
19C54
  8
KI
  6
CONTINUOUS
 62
     7
 10
372.76832226951751
 20
-4.0465041192224991
 30
0.0
 11
363.11440810951751
 21
-4.0465041192224991
 31
0.0
  0
LINE
  5
19C55
  8
KI
  6
CONTINUOUS
 62
     7
 10
374.5144061495177
 20
-5.6464995192222851
 30
0.0
 11
362.51441602951752
 21
-5.6464995192222851
 31
0.0
  0
ARC
  5
19C56
  8
KI
  6
CONTINUOUS
 62
     7
 10
372.17865846652558
 20
1.8575013856849401
 30
0.0
 40
10.69122105122808
 50
224.57835668230149
 51
270.42869406124839
  0
ARC
  5
19C57
  8
KI
  6
CONTINUOUS
 62
     7
 10
372.29883048012562
 20
1.8945695451319
 30
0.0
 40
11.577295993930599
 50
220.64471820006369
 51
274.53565778094941
  0
ARC
  5
19C58
  8
KI
  6
CONTINUOUS
 62
     7
 10
362.51441602951752
 20
-4.6464961992211284
 30
0.0
 40
0.9999999999999431
 50
180.0
 51
270.0
  0
LINE
  5
19C59
  8
KI
  6
CONTINUOUS
 62
     7
 10
382.51440778951758
 20
-1.1465093992228521
 30
0.0
 11
381.01440282951711
 21
-0.64653251922232
 31
0.0
  0
LINE
  5
19C5A
  8
KI
  6
CONTINUOUS
 62
     7
 10
382.51440778951758
 20
-3.1465159992225131
 30
0.0
 11
381.01440282951711
 21
-3.646492919221255
 31
0.0
  0
LINE
  5
19C5B
  8
KI
  6
CONTINUOUS
 62
     7
 10
372.51459746951753
 20
-1.146509399222849
 30
0.0
 11
372.76832226951751
 21
-4.0465041192224991
 31
0.0
  0
LINE
  5
19C5C
  8
KI
  6
CONTINUOUS
 62
     7
 10
376.51441274951748
 20
-1.146509399222849
 30
0.0
 11
372.51459746951753
 21
-1.146509399222849
 31
0.0
  0
LINE
  5
19C5D
  8
KI
  6
CONTINUOUS
 62
     7
 10
379.5143978695175
 20
-0.64653251922232
 30
0.0
 11
379.5143978695175
 21
-1.146509399222849
 31
0.0
  0
LINE
  5
19C5E
  8
KI
  6
CONTINUOUS
 62
     7
 10
378.01441766951768
 20
-0.64653251922232
 30
0.0
 11
379.5143978695175
 21
-1.146509399222849
 31
0.0
  0
LINE
  5
19C5F
  8
KI
  6
CONTINUOUS
 62
     7
 10
379.5143978695175
 20
-0.64653251922232
 30
0.0
 11
381.01440282951711
 21
-1.146509399222849
 31
0.0
  0
LINE
  5
19C60
  8
KI
  6
CONTINUOUS
 62
     7
 10
381.01440282951711
 20
-0.64653251922232
 30
0.0
 11
381.01440282951711
 21
-1.146509399222849
 31
0.0
  0
LINE
  5
19C61
  8
KI
  6
CONTINUOUS
 62
     7
 10
378.01441766951768
 20
-1.146509399222849
 30
0.0
 11
378.01441766951768
 21
-0.64653251922232
 31
0.0
  0
LINE
  5
19C62
  8
KI
  6
CONTINUOUS
 62
     7
 10
376.51441274951748
 20
-0.6465325192223193
 30
0.0
 11
376.51441274951748
 21
-1.146509399222849
 31
0.0
  0
LINE
  5
19C63
  8
KI
  6
CONTINUOUS
 62
     7
 10
378.01441766951768
 20
-1.146509399222849
 30
0.0
 11
376.51441274951748
 21
-0.6465325192223193
 31
0.0
  0
LINE
  5
19C64
  8
KI
  6
CONTINUOUS
 62
     7
 10
376.51441274951748
 20
-3.1465159992225118
 30
0.0
 11
374.29569406951708
 21
-3.1465159992225118
 31
0.0
  0
LINE
  5
19C65
  8
KI
  6
CONTINUOUS
 62
     7
 10
371.6967099095163
 20
-5.6464995192222851
 30
0.0
 11
372.25864574951748
 21
-8.8334254392221911
 31
0.0
  0
LINE
  5
19C66
  8
KI
  6
CONTINUOUS
 62
     7
 10
372.5090548295172
 20
-5.6464995192222851
 30
0.0
 11
373.2143573095168
 21
-9.6464631992210954
 31
0.0
  0
LINE
  5
19C67
  8
KI
  6
CONTINUOUS
 62
     7
 10
374.29569406951708
 20
-3.1465159992225118
 30
0.0
 11
374.5144061495177
 21
-5.6464995192222851
 31
0.0
  0
LINE
  5
19C68
  8
KI
  6
CONTINUOUS
 62
     7
 10
372.5090548295172
 20
-5.6464995192222851
 30
0.0
 11
371.6967099095163
 21
-5.6464995192222851
 31
0.0
  0
LINE
  5
19C69
  8
KI
  6
CONTINUOUS
 62
     7
 10
379.5143978695175
 20
-3.6464929192212572
 30
0.0
 11
379.5143978695175
 21
-3.1465159992225131
 31
0.0
  0
LINE
  5
19C6A
  8
KI
  6
CONTINUOUS
 62
     7
 10
378.01441766951768
 20
-3.6464929192212558
 30
0.0
 11
379.5143978695175
 21
-3.1465159992225131
 31
0.0
  0
LINE
  5
19C6B
  8
KI
  6
CONTINUOUS
 62
     7
 10
379.5143978695175
 20
-3.6464929192212572
 30
0.0
 11
381.01440282951711
 21
-3.1465159992225109
 31
0.0
  0
LINE
  5
19C6C
  8
KI
  6
CONTINUOUS
 62
     7
 10
381.01440282951711
 20
-3.646492919221255
 30
0.0
 11
381.01440282951711
 21
-3.1465159992225109
 31
0.0
  0
LINE
  5
19C6D
  8
KI
  6
CONTINUOUS
 62
     7
 10
378.01441766951768
 20
-3.1465159992225118
 30
0.0
 11
378.01441766951768
 21
-3.6464929192212558
 31
0.0
  0
LINE
  5
19C6E
  8
KI
  6
CONTINUOUS
 62
     7
 10
376.51441274951748
 20
-3.6464929192212558
 30
0.0
 11
376.51441274951748
 21
-3.1465159992225118
 31
0.0
  0
LINE
  5
19C6F
  8
KI
  6
CONTINUOUS
 62
     7
 10
378.01441766951768
 20
-3.1465159992225118
 30
0.0
 11
376.51441274951748
 21
-3.6464929192212558
 31
0.0
  0
LINE
  5
19C70
  8
KI
  6
CONTINUOUS
 62
     7
 10
382.51440778951758
 20
-1.1465093992228521
 30
0.0
 11
382.51440778951758
 21
-3.1465159992225131
 31
0.0
  0
LINE
  5
19C71
  8
KI
  6
CONTINUOUS
 62
     7
 10
374.51440614951753
 20
16.353490580779098
 30
0.0
 11
374.51440614951753
 21
114.3534905807789
 31
0.0
  0
LINE
  5
19C72
  8
KI
  6
CONTINUOUS
 62
     7
 10
374.51440614951753
 20
-47.646509419220934
 30
0.0
 11
374.51440614951753
 21
-3.1465094192209322
 31
0.0
  0
LINE
  5
19C73
  8
KI
  6
CONTINUOUS
 62
     7
 10
377.01440614951753
 20
116.853490580779
 30
0.0
 11
398.51440614951758
 21
116.853490580779
 31
0.0
  0
LINE
  5
19C74
  8
KI
  6
CONTINUOUS
 62
     7
 10
377.01440614951753
 20
116.853490580779
 30
0.0
 11
374.51440614951753
 21
114.3534905807789
 31
0.0
1001
GENIUS_GENFIL_13
1070
     0
1040
2.5
1040
2.5
1040
20.0
1040
0.0
1002
{
1002
}
1001
GENIUS_GENOBJ-N-CHA_13
1002
{
1000
OWNER
1000
GEN
1002
}
1001
GENIUS_GENODEF_13
1002
{
1000
HIER
1070
     0
1002
}
1002
{
1000
MANEDIT
1070
     0
1002
}
1002
{
1000
NOSEL
1070
     0
1002
}
1002
{
1000
BEHIND
1070
     0
1002
}
1002
{
1000
OTHER
1070
     0
1002
}
1002
{
1000
REACTOR
1002
}
  0
LINE
  5
19C75
  8
KI
  6
CONTINUOUS
 62
     7
 10
398.51440614951758
 20
116.8534905807804
 30
0.0
 11
398.51440614951758
 21
-50.146509419220934
 31
0.0
  0
LINE
  5
19C76
  8
KI
  6
CONTINUOUS
 62
     7
 10
398.51440614951758
 20
-50.146509419220934
 30
0.0
 11
377.01440614951753
 21
-50.146509419220934
 31
0.0
  0
LINE
  5
19C77
  8
KI
  6
CONTINUOUS
 62
     7
 10
377.01440614951753
 20
-50.146509419220934
 30
0.0
 11
374.51440614951753
 21
-47.646509419220934
 31
0.0
1001
GENIUS_GENFIL_13
1070
     0
1040
2.5
1040
2.5
1040
20.0
1040
0.0
1002
{
1002
}
1001
GENIUS_GENOBJ-N-CHA_13
1002
{
1000
OWNER
1000
GEN
1002
}
1001
GENIUS_GENODEF_13
1002
{
1000
HIER
1070
     0
1002
}
1002
{
1000
MANEDIT
1070
     0
1002
}
1002
{
1000
NOSEL
1070
     0
1002
}
1002
{
1000
BEHIND
1070
     0
1002
}
1002
{
1000
OTHER
1070
     0
1002
}
1002
{
1000
REACTOR
1002
}
  0
LINE
  5
19C78
  8
KI
  6
CONTINUOUS
 62
     7
 10
374.51440614951753
 20
-0.2465094192209349
 30
0.0
 11
374.51440614951753
 21
12.95349058077905
 31
0.0
  0
LINE
  5
19C79
  8
KI
  6
CONTINUOUS
 62
     7
 10
374.51440614951753
 20
-0.2465094192209065
 30
0.0
 11
383.51440614951753
 21
-0.2465094192209065
 31
0.0
  0
LINE
  5
19C7A
  8
KI
  6
CONTINUOUS
 62
     7
 10
374.51440614951753
 20
-3.646509419220882
 30
0.0
 11
383.51440614951753
 21
-3.646509419220882
 31
0.0
  0
LINE
  5
19C7B
  8
KI
  6
CONTINUOUS
 62
     7
 10
383.51440614951753
 20
-3.646509419220882
 30
0.0
 11
383.51440614951753
 21
-0.2465094192209065
 31
0.0
  0
LINE
  5
19C7C
  8
KI
  6
CONTINUOUS
 62
     7
 10
383.51440614951753
 20
12.953490580779009
 30
0.0
 11
374.51440614951753
 21
12.953490580779009
 31
0.0
  0
LINE
  5
19C7D
  8
KI
  6
CONTINUOUS
 62
     7
 10
383.51440614951753
 20
16.353490580779098
 30
0.0
 11
374.51440614951753
 21
16.353490580779098
 31
0.0
  0
LINE
  5
19C7E
  8
KI
  6
CONTINUOUS
 62
     7
 10
383.51440614951753
 20
12.953490580779009
 30
0.0
 11
383.51440614951753
 21
16.353490580779098
 31
0.0
  0
LINE
  5
19C7F
  8
OS
  6
CONTINUOUS
 62
     2
 10
396.54011528583572
 20
-50.146509419220912
 30
0.0
 11
398.51440614951741
 21
-48.17221855553916
 31
0.0
  0
LINE
  5
19C80
  8
OS
  6
CONTINUOUS
 62
     2
 10
386.64062034922398
 20
-50.146509419221019
 30
0.0
 11
398.51440614951758
 21
-38.272723618927522
 31
0.0
  0
LINE
  5
19C81
  8
OS
  6
CONTINUOUS
 62
     2
 10
376.87776578106491
 20
-50.009869050768387
 30
0.0
 11
398.51440614951758
 21
-28.37322868231578
 31
0.0
  0
LINE
  5
19C82
  8
OS
  6
CONTINUOUS
 62
     2
 10
374.5144061495177
 20
-42.473733745704237
 30
0.0
 11
398.51440614951758
 21
-18.473733745704141
 31
0.0
  0
LINE
  5
19C83
  8
OS
  6
CONTINUOUS
 62
     2
 10
374.51440614951753
 20
-32.57423880909252
 30
0.0
 11
398.51440614951758
 21
-8.5742388090925203
 31
0.0
  0
LINE
  5
19C84
  8
OS
  6
CONTINUOUS
 62
     2
 10
374.51440614951753
 20
-22.674743872480761
 30
0.0
 11
398.51440614951758
 21
1.3252561275192241
 31
0.0
  0
LINE
  5
19C85
  8
OS
  6
CONTINUOUS
 62
     2
 10
374.5144061495177
 20
-12.77524893586925
 30
0.0
 11
398.51440614951758
 21
11.224751064130841
 31
0.0
  0
LINE
  5
19C86
  8
OS
  6
CONTINUOUS
 62
     2
 10
377.143650729554
 20
-0.2465094192209065
 30
0.0
 11
398.51440614951758
 21
21.124246000742481
 31
0.0
  0
LINE
  5
19C87
  8
OS
  6
CONTINUOUS
 62
     2
 10
374.51440614951753
 20
7.023740937354205
 30
0.0
 11
380.44415579294218
 21
12.953490580779009
 31
0.0
  0
LINE
  5
19C88
  8
OS
  6
CONTINUOUS
 62
     2
 10
374.5144061495177
 20
16.923235873965751
 30
0.0
 11
398.51440614951758
 21
40.923235873965851
 31
0.0
  0
LINE
  5
19C89
  8
OS
  6
CONTINUOUS
 62
     2
 10
374.51440614951753
 20
26.82273081057749
 30
0.0
 11
398.51440614951758
 21
50.82273081057749
 31
0.0
  0
LINE
  5
19C8A
  8
OS
  6
CONTINUOUS
 62
     2
 10
374.51440614951753
 20
36.722225747189242
 30
0.0
 11
398.51440614951741
 21
60.722225747189128
 31
0.0
  0
LINE
  5
19C8B
  8
OS
  6
CONTINUOUS
 62
     2
 10
374.51440614951753
 20
46.621720683800753
 30
0.0
 11
398.51440614951758
 21
70.621720683800874
 31
0.0
  0
LINE
  5
19C8C
  8
OS
  6
CONTINUOUS
 62
     2
 10
374.51440614951753
 20
56.521215620412512
 30
0.0
 11
398.51440614951758
 21
80.521215620412505
 31
0.0
  0
LINE
  5
19C8D
  8
OS
  6
CONTINUOUS
 62
     2
 10
374.51440614951753
 20
66.42071055702425
 30
0.0
 11
398.51440614951741
 21
90.420710557024137
 31
0.0
  0
LINE
  5
19C8E
  8
OS
  6
CONTINUOUS
 62
     2
 10
374.51440614951753
 20
76.320205493635783
 30
0.0
 11
398.51440614951758
 21
100.3202054936357
 31
0.0
  0
LINE
  5
19C8F
  8
OS
  6
CONTINUOUS
 62
     2
 10
374.51440614951753
 20
86.219700430247514
 30
0.0
 11
398.51440614951758
 21
110.2197004302474
 31
0.0
  0
LINE
  5
19C90
  8
OS
  6
CONTINUOUS
 62
     2
 10
374.51440614951753
 20
96.119195366859245
 30
0.0
 11
395.24870136343742
 21
116.853490580779
 31
0.0
  0
LINE
  5
19C91
  8
OS
  6
CONTINUOUS
 62
     2
 10
374.51440614951753
 20
106.01869030347071
 30
0.0
 11
385.34920642682567
 21
116.8534905807789
 31
0.0
  0
LINE
  5
19C92
  8
OS
  6
CONTINUOUS
 62
     2
 10
383.51440614951753
 20
16.023740937354201
 30
0.0
 11
398.51440614951741
 21
31.02374093735412
 31
0.0
  0
LINE
  5
19C93
  8
KI
  6
CONTINUOUS
 62
     7
 10
-27.48559385048058
 20
16.353490580777748
 30
0.0
 11
-27.48559385048058
 21
114.3534905807777
 31
0.0
  0
LINE
  5
19C94
  8
KI
  6
CONTINUOUS
 62
     7
 10
-27.48559385048058
 20
-47.646509419222291
 30
0.0
 11
-27.48559385048058
 21
-3.146509419222296
 31
0.0
  0
LINE
  5
19C95
  8
KI
  6
CONTINUOUS
 62
     7
 10
-29.985593850480569
 20
116.8534905807774
 30
0.0
 11
-51.485593850480569
 21
116.8534905807774
 31
0.0
  0
LINE
  5
19C96
  8
KI
  6
CONTINUOUS
 62
     7
 10
-29.985593850480569
 20
116.8534905807774
 30
0.0
 11
-27.48559385048058
 21
114.3534905807777
 31
0.0
1001
GENIUS_GENFIL_13
1070
     0
1040
2.5
1040
2.5
1040
20.0
1040
0.0
1002
{
1002
}
1001
GENIUS_GENOBJ-N-CHA_13
1002
{
1000
OWNER
1000
GEN
1002
}
1001
GENIUS_GENODEF_13
1002
{
1000
HIER
1070
     0
1002
}
1002
{
1000
MANEDIT
1070
     0
1002
}
1002
{
1000
NOSEL
1070
     0
1002
}
1002
{
1000
BEHIND
1070
     0
1002
}
1002
{
1000
OTHER
1070
     0
1002
}
1002
{
1000
REACTOR
1002
}
  0
LINE
  5
19C97
  8
KI
  6
CONTINUOUS
 62
     7
 10
-51.485593850480569
 20
116.853490580779
 30
0.0
 11
-51.485593850480569
 21
-50.146509419222298
 31
0.0
  0
LINE
  5
19C98
  8
KI
  6
CONTINUOUS
 62
     7
 10
-51.485593850480569
 20
-50.146509419222298
 30
0.0
 11
-29.985593850480569
 21
-50.146509419222298
 31
0.0
  0
LINE
  5
19C99
  8
KI
  6
CONTINUOUS
 62
     7
 10
-29.985593850480569
 20
-50.146509419222298
 30
0.0
 11
-27.48559385048058
 21
-47.646509419222291
 31
0.0
1001
GENIUS_GENFIL_13
1070
     0
1040
2.5
1040
2.5
1040
20.0
1040
0.0
1002
{
1002
}
1001
GENIUS_GENOBJ-N-CHA_13
1002
{
1000
OWNER
1000
GEN
1002
}
1001
GENIUS_GENODEF_13
1002
{
1000
HIER
1070
     0
1002
}
1002
{
1000
MANEDIT
1070
     0
1002
}
1002
{
1000
NOSEL
1070
     0
1002
}
1002
{
1000
BEHIND
1070
     0
1002
}
1002
{
1000
OTHER
1070
     0
1002
}
1002
{
1000
REACTOR
1002
}
  0
LINE
  5
19C9A
  8
KI
  6
CONTINUOUS
 62
     7
 10
-27.485593850480551
 20
-0.2465094192222992
 30
0.0
 11
-27.485593850480551
 21
12.953490580777681
 31
0.0
  0
LINE
  5
19C9B
  8
KI
  6
CONTINUOUS
 62
     7
 10
-27.485593850480551
 20
-0.2465094192222708
 30
0.0
 11
-36.485593850480541
 21
-0.2465094192222708
 31
0.0
  0
LINE
  5
19C9C
  8
KI
  6
CONTINUOUS
 62
     7
 10
-27.485593850480551
 20
-3.646509419222248
 30
0.0
 11
-36.485593850480541
 21
-3.646509419222248
 31
0.0
  0
LINE
  5
19C9D
  8
KI
  6
CONTINUOUS
 62
     7
 10
-36.485593850480541
 20
-3.646509419222248
 30
0.0
 11
-36.485593850480541
 21
-0.2465094192222708
 31
0.0
  0
LINE
  5
19C9E
  8
KI
  6
CONTINUOUS
 62
     7
 10
-36.485593850480541
 20
12.953490580777659
 30
0.0
 11
-27.485593850480551
 21
12.953490580777659
 31
0.0
  0
LINE
  5
19C9F
  8
KI
  6
CONTINUOUS
 62
     7
 10
-36.485593850480541
 20
16.353490580777748
 30
0.0
 11
-27.485593850480551
 21
16.353490580777748
 31
0.0
  0
LINE
  5
19CA0
  8
KI
  6
CONTINUOUS
 62
     7
 10
-36.485593850480541
 20
12.953490580777659
 30
0.0
 11
-36.485593850480541
 21
16.353490580777748
 31
0.0
  0
LINE
  5
19CA1
  8
OS
  6
CONTINUOUS
 62
     2
 10
-49.511302986798711
 20
-50.146509419222262
 30
0.0
 11
-51.48559385048047
 21
-48.172218555540518
 31
0.0
  0
LINE
  5
19CA2
  8
OS
  6
CONTINUOUS
 62
     2
 10
-39.611808050187093
 20
-50.146509419222383
 30
0.0
 11
-51.485593850480697
 21
-38.272723618928893
 31
0.0
  0
LINE
  5
19CA3
  8
OS
  6
CONTINUOUS
 62
     2
 10
-29.84895348202808
 20
-50.009869050769773
 30
0.0
 11
-51.485593850480569
 21
-28.373228682317141
 31
0.0
  0
LINE
  5
19CA4
  8
OS
  6
CONTINUOUS
 62
     2
 10
-27.485593850480701
 20
-42.47373374570563
 30
0.0
 11
-51.485593850480697
 21
-18.473733745705481
 31
0.0
  0
LINE
  5
19CA5
  8
OS
  6
CONTINUOUS
 62
     2
 10
-27.48559385048058
 20
-32.57423880909387
 30
0.0
 11
-51.485593850480697
 21
-8.5742388090938846
 31
0.0
  0
LINE
  5
19CA6
  8
OS
  6
CONTINUOUS
 62
     2
 10
-27.48559385048058
 20
-22.674743872482129
 30
0.0
 11
-51.485593850480569
 21
1.32525612751786
 31
0.0
  0
LINE
  5
19CA7
  8
OS
  6
CONTINUOUS
 62
     2
 10
-27.485593850480701
 20
-12.77524893587062
 30
0.0
 11
-51.485593850480697
 21
11.224751064129491
 31
0.0
  0
LINE
  5
19CA8
  8
OS
  6
CONTINUOUS
 62
     2
 10
-30.114838430517189
 20
-0.2465094192222708
 30
0.0
 11
-51.485593850480569
 21
21.12424600074112
 31
0.0
  0
LINE
  5
19CA9
  8
OS
  6
CONTINUOUS
 62
     2
 10
-27.485593850480551
 20
7.0237409373528381
 30
0.0
 11
-33.415343493905368
 21
12.953490580777659
 31
0.0
  0
LINE
  5
19CAA
  8
OS
  6
CONTINUOUS
 62
     2
 10
-27.485593850480701
 20
16.92323587396438
 30
0.0
 11
-51.485593850480697
 21
40.923235873964487
 31
0.0
  0
LINE
  5
19CAB
  8
OS
  6
CONTINUOUS
 62
     2
 10
-27.48559385048058
 20
26.822730810576122
 30
0.0
 11
-51.485593850480569
 21
50.822730810576132
 31
0.0
  0
LINE
  5
19CAC
  8
OS
  6
CONTINUOUS
 62
     2
 10
-27.48559385048058
 20
36.722225747187871
 30
0.0
 11
-51.48559385048047
 21
60.72222574718775
 31
0.0
  0
LINE
  5
19CAD
  8
OS
  6
CONTINUOUS
 62
     2
 10
-27.48559385048058
 20
46.621720683799381
 30
0.0
 11
-51.485593850480697
 21
70.621720683799495
 31
0.0
  0
LINE
  5
19CAE
  8
OS
  6
CONTINUOUS
 62
     2
 10
-27.48559385048058
 20
56.521215620411141
 30
0.0
 11
-51.485593850480569
 21
80.521215620411127
 31
0.0
  0
LINE
  5
19CAF
  8
OS
  6
CONTINUOUS
 62
     2
 10
-27.48559385048058
 20
66.420710557022886
 30
0.0
 11
-51.48559385048047
 21
90.420710557022787
 31
0.0
  0
LINE
  5
19CB0
  8
OS
  6
CONTINUOUS
 62
     2
 10
-27.48559385048058
 20
76.320205493634404
 30
0.0
 11
-51.485593850480697
 21
100.3202054936344
 31
0.0
  0
LINE
  5
19CB1
  8
OS
  6
CONTINUOUS
 62
     2
 10
-27.48559385048058
 20
86.219700430246164
 30
0.0
 11
-51.485593850480569
 21
110.21970043024611
 31
0.0
  0
LINE
  5
19CB2
  8
OS
  6
CONTINUOUS
 62
     2
 10
-27.48559385048058
 20
96.119195366857852
 30
0.0
 11
-48.219889064400427
 21
116.8534905807774
 31
0.0
  0
LINE
  5
19CB3
  8
OS
  6
CONTINUOUS
 62
     2
 10
-27.48559385048058
 20
106.0186903034694
 30
0.0
 11
-38.320394127788788
 21
116.8534905807774
 31
0.0
  0
LINE
  5
19CB4
  8
OS
  6
CONTINUOUS
 62
     2
 10
-36.485593850480562
 20
16.023740937352841
 30
0.0
 11
-51.48559385048047
 21
31.023740937352731
 31
0.0
  0
LINE
  5
19CB5
  8
KI
  6
CONTINUOUS
 62
     7
 10
-16.085595810480569
 20
-4.0465041192238651
 30
0.0
 11
-16.085595810480569
 21
6.353490600775757
 31
0.0
  0
LINE
  5
19CB6
  8
KI
  6
CONTINUOUS
 62
     7
 10
-14.48560045048052
 20
6.3534906007757499
 30
0.0
 11
-14.48560045048052
 21
-4.646496199222498
 31
0.0
  0
LINE
  5
19CB7
  8
KI
  6
CONTINUOUS
 62
     7
 10
-25.739509970480679
 20
16.75348532077609
 30
0.0
 11
-16.085595810480559
 21
16.753485320776079
 31
0.0
  0
LINE
  5
19CB8
  8
KI
  6
CONTINUOUS
 62
     7
 10
-27.48559385048069
 20
18.353480680776968
 30
0.0
 11
-15.48560373048057
 21
18.353480680776968
 31
0.0
  0
LINE
  5
19CB9
  8
KI
  6
CONTINUOUS
 62
     7
 10
-16.085595810480559
 20
16.753485320776079
 30
0.0
 11
-16.085595810480569
 21
6.353490600775757
 31
0.0
  0
LINE
  5
19CBA
  8
KI
  6
CONTINUOUS
 62
     7
 10
-14.48560045048052
 20
6.3534906007757499
 30
0.0
 11
-14.48560045048052
 21
17.353477400777791
 31
0.0
  0
ARC
  5
19CBB
  8
KI
  6
CONTINUOUS
 62
     7
 10
-15.48560373048057
 20
17.353477400777749
 30
0.0
 40
0.9999999999999218
 50
0.0
 51
90.0
  0
LINE
  5
19CBC
  8
KI
  6
CONTINUOUS
 62
     7
 10
-35.485595490480627
 20
13.8534906007761
 30
0.0
 11
-33.985590530480103
 21
13.35351368077734
 31
0.0
  0
LINE
  5
19CBD
  8
KI
  6
CONTINUOUS
 62
     7
 10
-35.485595490480627
 20
15.85349720077747
 30
0.0
 11
-33.985590530480103
 21
16.353474080776291
 31
0.0
  0
LINE
  5
19CBE
  8
KI
  6
CONTINUOUS
 62
     7
 10
-29.485600450480518
 20
13.85349060077608
 30
0.0
 11
-25.485785170480511
 21
13.85349060077608
 31
0.0
  0
LINE
  5
19CBF
  8
KI
  6
CONTINUOUS
 62
     7
 10
-29.485600450480518
 20
15.853497200777459
 30
0.0
 11
-27.26688177048025
 21
15.853497200777459
 31
0.0
  0
LINE
  5
19CC0
  8
KI
  6
CONTINUOUS
 62
     7
 10
-27.26688177048025
 20
15.853497200777459
 30
0.0
 11
-27.48559385048069
 21
18.353480680776968
 31
0.0
  0
LINE
  5
19CC1
  8
KI
  6
CONTINUOUS
 62
     7
 10
-25.485785170480511
 20
13.85349060077608
 30
0.0
 11
-25.739509970480679
 21
16.75348532077609
 31
0.0
  0
LINE
  5
19CC2
  8
KI
  6
CONTINUOUS
 62
     7
 10
-32.485585570480829
 20
13.35351368077734
 30
0.0
 11
-32.485585570480829
 21
13.85349060077608
 31
0.0
  0
LINE
  5
19CC3
  8
KI
  6
CONTINUOUS
 62
     7
 10
-30.98560537048072
 20
13.35351368077734
 30
0.0
 11
-32.485585570480829
 21
13.85349060077608
 31
0.0
  0
LINE
  5
19CC4
  8
KI
  6
CONTINUOUS
 62
     7
 10
-32.485585570480829
 20
13.35351368077734
 30
0.0
 11
-33.985590530480103
 21
13.85349060077608
 31
0.0
  0
LINE
  5
19CC5
  8
KI
  6
CONTINUOUS
 62
     7
 10
-33.985590530480103
 20
13.35351368077734
 30
0.0
 11
-33.985590530480103
 21
13.85349060077608
 31
0.0
  0
LINE
  5
19CC6
  8
KI
  6
CONTINUOUS
 62
     7
 10
-30.98560537048072
 20
13.85349060077608
 30
0.0
 11
-30.98560537048072
 21
13.35351368077734
 31
0.0
  0
LINE
  5
19CC7
  8
KI
  6
CONTINUOUS
 62
     7
 10
-29.485600450480518
 20
13.35351368077734
 30
0.0
 11
-29.485600450480518
 21
13.85349060077608
 31
0.0
  0
LINE
  5
19CC8
  8
KI
  6
CONTINUOUS
 62
     7
 10
-30.98560537048072
 20
13.85349060077608
 30
0.0
 11
-29.485600450480518
 21
13.35351368077734
 31
0.0
  0
LINE
  5
19CC9
  8
KI
  6
CONTINUOUS
 62
     7
 10
-32.485585570480829
 20
16.353474080776291
 30
0.0
 11
-32.485585570480829
 21
15.853497200777459
 31
0.0
  0
LINE
  5
19CCA
  8
KI
  6
CONTINUOUS
 62
     7
 10
-30.98560537048072
 20
16.353474080776291
 30
0.0
 11
-32.485585570480829
 21
15.853497200777459
 31
0.0
  0
LINE
  5
19CCB
  8
KI
  6
CONTINUOUS
 62
     7
 10
-32.485585570480829
 20
16.353474080776291
 30
0.0
 11
-33.985590530480103
 21
15.853497200777459
 31
0.0
  0
LINE
  5
19CCC
  8
KI
  6
CONTINUOUS
 62
     7
 10
-33.985590530480103
 20
16.353474080776291
 30
0.0
 11
-33.985590530480103
 21
15.853497200777459
 31
0.0
  0
LINE
  5
19CCD
  8
KI
  6
CONTINUOUS
 62
     7
 10
-30.98560537048072
 20
15.853497200777459
 30
0.0
 11
-30.98560537048072
 21
16.353474080776291
 31
0.0
  0
LINE
  5
19CCE
  8
KI
  6
CONTINUOUS
 62
     7
 10
-29.485600450480518
 20
16.353474080776291
 30
0.0
 11
-29.485600450480518
 21
15.853497200777459
 31
0.0
  0
LINE
  5
19CCF
  8
KI
  6
CONTINUOUS
 62
     7
 10
-30.98560537048072
 20
15.853497200777459
 30
0.0
 11
-29.485600450480518
 21
16.353474080776291
 31
0.0
  0
LINE
  5
19CD0
  8
KI
  6
CONTINUOUS
 62
     7
 10
-35.485595490480627
 20
13.8534906007761
 30
0.0
 11
-35.485595490480627
 21
15.85349720077747
 31
0.0
  0
LINE
  5
19CD1
  8
KI
  6
CONTINUOUS
 62
     7
 10
-25.739509970480679
 20
-4.046504119223866
 30
0.0
 11
-16.085595810480569
 21
-4.0465041192238651
 31
0.0
  0
LINE
  5
19CD2
  8
KI
  6
CONTINUOUS
 62
     7
 10
-27.485593850480701
 20
-5.646499519223652
 30
0.0
 11
-15.48560373048057
 21
-5.646499519223652
 31
0.0
  0
ARC
  5
19CD3
  8
KI
  6
CONTINUOUS
 62
     7
 10
-25.149846167488679
 20
1.857501385683574
 30
0.0
 40
10.69122105122808
 50
269.57130593875138
 51
315.42164331769942
  0
ARC
  5
19CD4
  8
KI
  6
CONTINUOUS
 62
     7
 10
-25.270018181088961
 20
1.8945695451305351
 30
0.0
 40
11.577295993930599
 50
265.46434221905042
 51
319.35528179993622
  0
ARC
  5
19CD5
  8
KI
  6
CONTINUOUS
 62
     7
 10
-15.48560373048057
 20
-4.646496199222498
 30
0.0
 40
0.9999999999999431
 50
270.0
 51
0.0
  0
LINE
  5
19CD6
  8
KI
  6
CONTINUOUS
 62
     7
 10
-35.485595490480627
 20
-1.146509399224211
 30
0.0
 11
-33.985590530480103
 21
-0.6465325192236815
 31
0.0
  0
LINE
  5
19CD7
  8
KI
  6
CONTINUOUS
 62
     7
 10
-35.485595490480627
 20
-3.146515999223876
 30
0.0
 11
-33.985590530480103
 21
-3.6464929192226201
 31
0.0
  0
LINE
  5
19CD8
  8
KI
  6
CONTINUOUS
 62
     7
 10
-25.485785170480511
 20
-1.146509399224213
 30
0.0
 11
-25.739509970480679
 21
-4.046504119223866
 31
0.0
  0
LINE
  5
19CD9
  8
KI
  6
CONTINUOUS
 62
     7
 10
-29.485600450480529
 20
-1.146509399224213
 30
0.0
 11
-25.485785170480511
 21
-1.146509399224213
 31
0.0
  0
LINE
  5
19CDA
  8
KI
  6
CONTINUOUS
 62
     7
 10
-32.485585570480829
 20
-0.6465325192236824
 30
0.0
 11
-32.485585570480829
 21
-1.146509399224213
 31
0.0
  0
LINE
  5
19CDB
  8
KI
  6
CONTINUOUS
 62
     7
 10
-30.98560537048072
 20
-0.6465325192236824
 30
0.0
 11
-32.485585570480829
 21
-1.146509399224213
 31
0.0
  0
LINE
  5
19CDC
  8
KI
  6
CONTINUOUS
 62
     7
 10
-32.485585570480829
 20
-0.6465325192236824
 30
0.0
 11
-33.985590530480103
 21
-1.146509399224211
 31
0.0
  0
LINE
  5
19CDD
  8
KI
  6
CONTINUOUS
 62
     7
 10
-33.985590530480103
 20
-0.6465325192236815
 30
0.0
 11
-33.985590530480103
 21
-1.146509399224211
 31
0.0
  0
LINE
  5
19CDE
  8
KI
  6
CONTINUOUS
 62
     7
 10
-30.98560537048072
 20
-1.146509399224213
 30
0.0
 11
-30.98560537048072
 21
-0.6465325192236824
 31
0.0
  0
LINE
  5
19CDF
  8
KI
  6
CONTINUOUS
 62
     7
 10
-29.485600450480529
 20
-0.6465325192236824
 30
0.0
 11
-29.485600450480529
 21
-1.146509399224213
 31
0.0
  0
LINE
  5
19CE0
  8
KI
  6
CONTINUOUS
 62
     7
 10
-30.98560537048072
 20
-1.146509399224213
 30
0.0
 11
-29.485600450480529
 21
-0.6465325192236824
 31
0.0
  0
LINE
  5
19CE1
  8
KI
  6
CONTINUOUS
 62
     7
 10
-29.485600450480529
 20
-3.1465159992238791
 30
0.0
 11
-27.26688177048025
 21
-3.1465159992238791
 31
0.0
  0
LINE
  5
19CE2
  8
KI
  6
CONTINUOUS
 62
     7
 10
-24.667897610479461
 20
-5.6464995192236511
 30
0.0
 11
-25.229833450480541
 21
-8.8334254392235572
 31
0.0
  0
LINE
  5
19CE3
  8
KI
  6
CONTINUOUS
 62
     7
 10
-25.480242530480371
 20
-5.646499519223652
 30
0.0
 11
-26.185545010479839
 21
-9.6464631992224632
 31
0.0
  0
LINE
  5
19CE4
  8
KI
  6
CONTINUOUS
 62
     7
 10
-27.26688177048025
 20
-3.1465159992238791
 30
0.0
 11
-27.485593850480701
 21
-5.646499519223652
 31
0.0
  0
LINE
  5
19CE5
  8
KI
  6
CONTINUOUS
 62
     7
 10
-25.480242530480371
 20
-5.646499519223652
 30
0.0
 11
-24.667897610479461
 21
-5.6464995192236511
 31
0.0
  0
LINE
  5
19CE6
  8
KI
  6
CONTINUOUS
 62
     7
 10
-32.485585570480829
 20
-3.646492919222621
 30
0.0
 11
-32.485585570480829
 21
-3.146515999223876
 31
0.0
  0
LINE
  5
19CE7
  8
KI
  6
CONTINUOUS
 62
     7
 10
-30.98560537048072
 20
-3.646492919222621
 30
0.0
 11
-32.485585570480829
 21
-3.146515999223876
 31
0.0
  0
LINE
  5
19CE8
  8
KI
  6
CONTINUOUS
 62
     7
 10
-32.485585570480829
 20
-3.646492919222621
 30
0.0
 11
-33.985590530480103
 21
-3.146515999223876
 31
0.0
  0
LINE
  5
19CE9
  8
KI
  6
CONTINUOUS
 62
     7
 10
-33.985590530480103
 20
-3.6464929192226201
 30
0.0
 11
-33.985590530480103
 21
-3.146515999223876
 31
0.0
  0
LINE
  5
19CEA
  8
KI
  6
CONTINUOUS
 62
     7
 10
-30.98560537048072
 20
-3.146515999223876
 30
0.0
 11
-30.98560537048072
 21
-3.646492919222621
 31
0.0
  0
LINE
  5
19CEB
  8
KI
  6
CONTINUOUS
 62
     7
 10
-29.485600450480529
 20
-3.6464929192226232
 30
0.0
 11
-29.485600450480529
 21
-3.1465159992238791
 31
0.0
  0
LINE
  5
19CEC
  8
KI
  6
CONTINUOUS
 62
     7
 10
-30.98560537048072
 20
-3.146515999223876
 30
0.0
 11
-29.485600450480529
 21
-3.6464929192226232
 31
0.0
  0
LINE
  5
19CED
  8
KI
  6
CONTINUOUS
 62
     7
 10
-35.485595490480627
 20
-1.146509399224211
 30
0.0
 11
-35.485595490480627
 21
-3.146515999223876
 31
0.0
  0
LINE
  5
19CEE
  8
KI
  6
CONTINUOUS
 62
     7
 10
-262.3771270060584
 20
139.0254735267759
 30
0.0
 11
-272.77712172605828
 21
139.0254735267759
 31
0.0
  0
LINE
  5
19CEF
  8
KI
  6
CONTINUOUS
 62
     7
 10
-272.77712172605828
 20
137.4254781667758
 30
0.0
 11
-261.77713492605972
 21
137.4254781667758
 31
0.0
  0
LINE
  5
19CF0
  8
KI
  6
CONTINUOUS
 62
     7
 10
-283.17711644605862
 20
148.67938768677601
 30
0.0
 11
-283.17711644605862
 21
139.0254735267759
 31
0.0
  0
LINE
  5
19CF1
  8
KI
  6
CONTINUOUS
 62
     7
 10
-284.77711180605951
 20
150.42547156677591
 30
0.0
 11
-284.77711180605951
 21
138.4254814467759
 31
0.0
  0
LINE
  5
19CF2
  8
KI
  6
CONTINUOUS
 62
     7
 10
-283.17711644605862
 20
139.0254735267759
 30
0.0
 11
-272.77712172605828
 21
139.0254735267759
 31
0.0
  0
LINE
  5
19CF3
  8
KI
  6
CONTINUOUS
 62
     7
 10
-272.77712172605828
 20
137.4254781667758
 30
0.0
 11
-283.77710852606032
 21
137.4254781667758
 31
0.0
  0
ARC
  5
19CF4
  8
KI
  6
CONTINUOUS
 62
     7
 10
-283.77710852606032
 20
138.4254814467759
 30
0.0
 40
0.9999999999999218
 50
180.0
 51
270.0
  0
LINE
  5
19CF5
  8
KI
  6
CONTINUOUS
 62
     7
 10
-280.27712172605862
 20
158.42547320677591
 30
0.0
 11
-279.77714480605982
 21
156.92546824677541
 31
0.0
  0
LINE
  5
19CF6
  8
KI
  6
CONTINUOUS
 62
     7
 10
-282.27712832605982
 20
158.42547320677591
 30
0.0
 11
-282.77710520605882
 21
156.92546824677541
 31
0.0
  0
LINE
  5
19CF7
  8
KI
  6
CONTINUOUS
 62
     7
 10
-280.27712172605862
 20
152.4254781667758
 30
0.0
 11
-280.27712172605862
 21
148.4256628867758
 31
0.0
  0
LINE
  5
19CF8
  8
KI
  6
CONTINUOUS
 62
     7
 10
-282.27712832605982
 20
152.4254781667758
 30
0.0
 11
-282.27712832605982
 21
150.2067594867755
 31
0.0
  0
LINE
  5
19CF9
  8
KI
  6
CONTINUOUS
 62
     7
 10
-282.27712832605982
 20
150.2067594867755
 30
0.0
 11
-284.77711180605951
 21
150.42547156677591
 31
0.0
  0
LINE
  5
19CFA
  8
KI
  6
CONTINUOUS
 62
     7
 10
-280.27712172605862
 20
148.4256628867758
 30
0.0
 11
-283.17711644605862
 21
148.67938768677601
 31
0.0
  0
LINE
  5
19CFB
  8
KI
  6
CONTINUOUS
 62
     7
 10
-279.77714480605982
 20
155.42546328677611
 30
0.0
 11
-280.27712172605862
 21
155.42546328677611
 31
0.0
  0
LINE
  5
19CFC
  8
KI
  6
CONTINUOUS
 62
     7
 10
-279.77714480605982
 20
153.92548308677601
 30
0.0
 11
-280.27712172605862
 21
155.42546328677611
 31
0.0
  0
LINE
  5
19CFD
  8
KI
  6
CONTINUOUS
 62
     7
 10
-279.77714480605982
 20
155.42546328677611
 30
0.0
 11
-280.27712172605862
 21
156.92546824677541
 31
0.0
  0
LINE
  5
19CFE
  8
KI
  6
CONTINUOUS
 62
     7
 10
-279.77714480605982
 20
156.92546824677541
 30
0.0
 11
-280.27712172605862
 21
156.92546824677541
 31
0.0
  0
LINE
  5
19CFF
  8
KI
  6
CONTINUOUS
 62
     7
 10
-280.27712172605862
 20
153.92548308677601
 30
0.0
 11
-279.77714480605982
 21
153.92548308677601
 31
0.0
  0
LINE
  5
19D00
  8
KI
  6
CONTINUOUS
 62
     7
 10
-279.77714480605982
 20
152.4254781667758
 30
0.0
 11
-280.27712172605862
 21
152.4254781667758
 31
0.0
  0
LINE
  5
19D01
  8
KI
  6
CONTINUOUS
 62
     7
 10
-280.27712172605862
 20
153.92548308677601
 30
0.0
 11
-279.77714480605982
 21
152.4254781667758
 31
0.0
  0
LINE
  5
19D02
  8
KI
  6
CONTINUOUS
 62
     7
 10
-282.77710520605882
 20
155.42546328677611
 30
0.0
 11
-282.27712832605982
 21
155.42546328677611
 31
0.0
  0
LINE
  5
19D03
  8
KI
  6
CONTINUOUS
 62
     7
 10
-282.77710520605882
 20
153.92548308677601
 30
0.0
 11
-282.27712832605982
 21
155.42546328677611
 31
0.0
  0
LINE
  5
19D04
  8
KI
  6
CONTINUOUS
 62
     7
 10
-282.77710520605882
 20
155.42546328677611
 30
0.0
 11
-282.27712832605982
 21
156.92546824677541
 31
0.0
  0
LINE
  5
19D05
  8
KI
  6
CONTINUOUS
 62
     7
 10
-282.77710520605882
 20
156.92546824677541
 30
0.0
 11
-282.27712832605982
 21
156.92546824677541
 31
0.0
  0
LINE
  5
19D06
  8
KI
  6
CONTINUOUS
 62
     7
 10
-282.27712832605982
 20
153.92548308677601
 30
0.0
 11
-282.77710520605882
 21
153.92548308677601
 31
0.0
  0
LINE
  5
19D07
  8
KI
  6
CONTINUOUS
 62
     7
 10
-282.77710520605882
 20
152.4254781667758
 30
0.0
 11
-282.27712832605982
 21
152.4254781667758
 31
0.0
  0
LINE
  5
19D08
  8
KI
  6
CONTINUOUS
 62
     7
 10
-282.27712832605982
 20
153.92548308677601
 30
0.0
 11
-282.77710520605882
 21
152.4254781667758
 31
0.0
  0
LINE
  5
19D09
  8
KI
  6
CONTINUOUS
 62
     7
 10
-280.27712172605862
 20
158.42547320677591
 30
0.0
 11
-282.27712832605982
 21
158.42547320677591
 31
0.0
  0
LINE
  5
19D0A
  8
KI
  6
CONTINUOUS
 62
     7
 10
-262.3771270060584
 20
148.67938768677601
 30
0.0
 11
-262.3771270060584
 21
139.0254735267759
 31
0.0
  0
LINE
  5
19D0B
  8
KI
  6
CONTINUOUS
 62
     7
 10
-260.77713160605862
 20
150.42547156677591
 30
0.0
 11
-260.77713160605862
 21
138.4254814467759
 31
0.0
  0
ARC
  5
19D0C
  8
KI
  6
CONTINUOUS
 62
     7
 10
-268.28113251096607
 20
148.08972388378399
 30
0.0
 40
10.69122105122808
 50
314.57835668230018
 51
0.428694061248581
  0
ARC
  5
19D0D
  8
KI
  6
CONTINUOUS
 62
     7
 10
-268.31820067041281
 20
148.209895897384
 30
0.0
 40
11.577295993930599
 50
310.64471820006332
 51
4.5356577809495091
  0
ARC
  5
19D0E
  8
KI
  6
CONTINUOUS
 62
     7
 10
-261.77713492605972
 20
138.4254814467759
 30
0.0
 40
0.9999999999999431
 50
270.0
 51
0.0
  0
LINE
  5
19D0F
  8
KI
  6
CONTINUOUS
 62
     7
 10
-265.27712172605823
 20
158.42547320677591
 30
0.0
 11
-265.77709860605881
 21
156.92546824677541
 31
0.0
  0
LINE
  5
19D10
  8
KI
  6
CONTINUOUS
 62
     7
 10
-263.27711512605862
 20
158.42547320677591
 30
0.0
 11
-262.77713820605982
 21
156.92546824677541
 31
0.0
  0
LINE
  5
19D11
  8
KI
  6
CONTINUOUS
 62
     7
 10
-265.27712172605823
 20
148.4256628867758
 30
0.0
 11
-262.3771270060584
 21
148.67938768677601
 31
0.0
  0
LINE
  5
19D12
  8
KI
  6
CONTINUOUS
 62
     7
 10
-265.27712172605823
 20
152.4254781667758
 30
0.0
 11
-265.27712172605823
 21
148.4256628867758
 31
0.0
  0
LINE
  5
19D13
  8
KI
  6
CONTINUOUS
 62
     7
 10
-265.77709860605881
 20
155.42546328677611
 30
0.0
 11
-265.27712172605823
 21
155.42546328677611
 31
0.0
  0
LINE
  5
19D14
  8
KI
  6
CONTINUOUS
 62
     7
 10
-265.77709860605881
 20
153.92548308677601
 30
0.0
 11
-265.27712172605823
 21
155.42546328677611
 31
0.0
  0
LINE
  5
19D15
  8
KI
  6
CONTINUOUS
 62
     7
 10
-265.77709860605881
 20
155.42546328677611
 30
0.0
 11
-265.27712172605823
 21
156.92546824677541
 31
0.0
  0
LINE
  5
19D16
  8
KI
  6
CONTINUOUS
 62
     7
 10
-265.77709860605881
 20
156.92546824677541
 30
0.0
 11
-265.27712172605823
 21
156.92546824677541
 31
0.0
  0
LINE
  5
19D17
  8
KI
  6
CONTINUOUS
 62
     7
 10
-265.27712172605823
 20
153.92548308677601
 30
0.0
 11
-265.77709860605881
 21
153.92548308677601
 31
0.0
  0
LINE
  5
19D18
  8
KI
  6
CONTINUOUS
 62
     7
 10
-265.77709860605881
 20
152.4254781667758
 30
0.0
 11
-265.27712172605823
 21
152.4254781667758
 31
0.0
  0
LINE
  5
19D19
  8
KI
  6
CONTINUOUS
 62
     7
 10
-265.27712172605823
 20
153.92548308677601
 30
0.0
 11
-265.77709860605881
 21
152.4254781667758
 31
0.0
  0
LINE
  5
19D1A
  8
KI
  6
CONTINUOUS
 62
     7
 10
-263.27711512605862
 20
152.4254781667758
 30
0.0
 11
-263.27711512605862
 21
150.2067594867755
 31
0.0
  0
LINE
  5
19D1B
  8
KI
  6
CONTINUOUS
 62
     7
 10
-260.77713160605862
 20
147.60777532677471
 30
0.0
 11
-257.59020568605882
 21
148.16971116677581
 31
0.0
  0
LINE
  5
19D1C
  8
KI
  6
CONTINUOUS
 62
     7
 10
-260.77713160605862
 20
148.42012024677541
 30
0.0
 11
-256.77716792606009
 21
149.12542272677479
 31
0.0
  0
LINE
  5
19D1D
  8
KI
  6
CONTINUOUS
 62
     7
 10
-263.27711512605862
 20
150.2067594867755
 30
0.0
 11
-260.77713160605862
 21
150.42547156677591
 31
0.0
  0
LINE
  5
19D1E
  8
KI
  6
CONTINUOUS
 62
     7
 10
-260.77713160605862
 20
148.42012024677541
 30
0.0
 11
-260.77713160605862
 21
147.60777532677471
 31
0.0
  0
LINE
  5
19D1F
  8
KI
  6
CONTINUOUS
 62
     7
 10
-262.77713820605982
 20
155.42546328677611
 30
0.0
 11
-263.27711512605862
 21
155.42546328677611
 31
0.0
  0
LINE
  5
19D20
  8
KI
  6
CONTINUOUS
 62
     7
 10
-262.77713820605982
 20
153.92548308677601
 30
0.0
 11
-263.27711512605862
 21
155.42546328677611
 31
0.0
  0
LINE
  5
19D21
  8
KI
  6
CONTINUOUS
 62
     7
 10
-262.77713820605982
 20
155.42546328677611
 30
0.0
 11
-263.27711512605862
 21
156.92546824677541
 31
0.0
  0
LINE
  5
19D22
  8
KI
  6
CONTINUOUS
 62
     7
 10
-262.77713820605982
 20
156.92546824677541
 30
0.0
 11
-263.27711512605862
 21
156.92546824677541
 31
0.0
  0
LINE
  5
19D23
  8
KI
  6
CONTINUOUS
 62
     7
 10
-263.27711512605862
 20
153.92548308677601
 30
0.0
 11
-262.77713820605982
 21
153.92548308677601
 31
0.0
  0
LINE
  5
19D24
  8
KI
  6
CONTINUOUS
 62
     7
 10
-262.77713820605982
 20
152.4254781667758
 30
0.0
 11
-263.27711512605862
 21
152.4254781667758
 31
0.0
  0
LINE
  5
19D25
  8
KI
  6
CONTINUOUS
 62
     7
 10
-263.27711512605862
 20
153.92548308677601
 30
0.0
 11
-262.77713820605982
 21
152.4254781667758
 31
0.0
  0
LINE
  5
19D26
  8
KI
  6
CONTINUOUS
 62
     7
 10
-265.27712172605823
 20
158.42547320677591
 30
0.0
 11
-263.27711512605862
 21
158.42547320677591
 31
0.0
  0
LINE
  5
19D27
  8
SU
  6
CONTINUOUS
 62
     3
 10
-198.7771231565701
 20
-289.83097039672822
 30
0.0
 11
-163.27712304306871
 21
-289.83097039672822
 31
0.0
  0
LINE
  5
19D28
  8
SU
  6
CONTINUOUS
 62
     3
 10
-166.27712304306871
 20
-277.83097039672822
 30
0.0
 11
-166.27712304306871
 21
-289.83097039672822
 31
0.0
  0
LINE
  5
19D29
  8
SU
  6
CONTINUOUS
 62
     3
 10
-216.2771231565701
 20
-290.83097039673601
 30
0.0
 11
-216.2771231565701
 21
-309.83097039673601
 31
0.0
  0
LINE
  5
19D2A
  8
SU
  6
CONTINUOUS
 62
     3
 10
-240.27712315657121
 20
-278.83097039673612
 30
0.0
 11
-240.27712315657121
 21
-309.83097039673601
 31
0.0
  0
LINE
  5
19D2B
  8
SU
  6
CONTINUOUS
 62
     3
 10
-216.2771231565701
 20
-306.83097039673601
 30
0.0
 11
-240.27712315657121
 21
-306.83097039673601
 31
0.0
  0
TEXT
  5
19D2C
  8
SU
  6
CONTINUOUS
 62
     3
 10
-356.62708485025757
 20
-251.15108871919841
 30
0.0
 40
4.0
  1
直張り沓摺（床先張り用）
 41
0.8299999999999999
  0
TEXT
  5
19D2D
  8
SU
  6
CONTINUOUS
 62
     3
 10
-345.48137056454323
 20
-257.8177553858651
 30
0.0
 40
4.0
  1
〔オプション〕
 41
0.8299999999999999
  0
LINE
  5
19D2E
  8
SU
  6
CONTINUOUS
 62
     3
 10
-172.27712304306871
 20
-267.83097039672799
 30
0.0
 11
-166.27712304306871
 21
-277.83097039672799
 31
0.0
  0
LINE
  5
19D2F
  8
SU
  6
CONTINUOUS
 62
     3
 10
-160.27712304306871
 20
-267.83097039672799
 30
0.0
 11
-166.27712304306871
 21
-277.83097039672799
 31
0.0
  0
LINE
  5
19D30
  8
SU
  6
CONTINUOUS
 62
     3
 10
-172.27712304306871
 20
-267.83097039672799
 30
0.0
 11
-160.27712304306871
 21
-267.83097039672799
 31
0.0
  0
LINE
  5
19D31
  8
SU
  6
CONTINUOUS
 62
     3
 10
-257.77712315657152
 20
-273.03097039672809
 30
0.0
 11
-178.27712304306709
 21
-273.03097039672809
 31
0.0
  0
LINE
  5
19D32
  8
SU
  6
CONTINUOUS
 62
     3
 10
-181.27712304306741
 20
-273.03097039672809
 30
0.0
 11
-181.27712304306741
 21
-277.83097039672822
 31
0.0
  0
LINE
  5
19D33
  8
SU
  6
CONTINUOUS
 62
     3
 10
-181.27712304306741
 20
-277.83097039672822
 30
0.0
 11
-181.27712304306741
 21
-291.49458944434713
 31
0.0
  0
LINE
  5
19D34
  8
SU
  6
CONTINUOUS
 62
     3
 10
-198.7771231565701
 20
-277.83097039672822
 30
0.0
 11
-163.27712304306871
 21
-277.83097039672822
 31
0.0
  0
LINE
  5
19D35
  8
SU
  6
CONTINUOUS
 62
     3
 10
-166.27712304306871
 20
-217.83097039672799
 30
0.0
 11
-166.27712304306871
 21
-277.83097039672822
 31
0.0
  0
LINE
  5
19D36
  8
SU
  6
CONTINUOUS
 62
     3
 10
-222.77712315657121
 20
-269.83097039672799
 30
0.0
 11
-178.27712304306701
 21
-269.83097039672799
 31
0.0
  0
LINE
  5
19D37
  8
SU
  6
CONTINUOUS
 62
     3
 10
-181.27712304306741
 20
-217.83097039672799
 30
0.0
 11
-181.27712304306741
 21
-269.83097039672799
 31
0.0
  0
LINE
  5
19D38
  8
SU
  6
CONTINUOUS
 62
     3
 10
-181.27712304306741
 20
-269.83097039672799
 30
0.0
 11
-181.27712304306741
 21
-273.03097039672809
 31
0.0
  0
LINE
  5
19D39
  8
SU
  6
CONTINUOUS
 62
     3
 10
-181.27712304306741
 20
-271.43097039672813
 30
0.0
 11
-196.2766554979859
 21
-259.87882494262141
 31
0.0
  0
LINE
  5
19D3A
  8
SU
  6
CONTINUOUS
 62
     3
 10
-196.2766554979859
 20
-259.87882494262141
 30
0.0
 11
-196.2766554979859
 21
-248.61520589500239
 31
0.0
  0
LINE
  5
19D3B
  8
SU
  6
CONTINUOUS
 62
     3
 10
-253.77712315657129
 20
-255.7309702536846
 30
0.0
 11
-216.27712315657121
 21
-255.7309702536846
 31
0.0
  0
LINE
  5
19D3C
  8
SU
  6
CONTINUOUS
 62
     3
 10
-291.77712315657158
 20
-275.88708726875802
 30
0.0
 11
-291.77712315657158
 21
-252.7309702536848
 31
0.0
  0
LINE
  5
19D3D
  8
SU
  6
CONTINUOUS
 62
     3
 10
-253.77712315657129
 20
-275.88708726875802
 30
0.0
 11
-253.77712315657129
 21
-252.7309702536848
 31
0.0
  0
LINE
  5
19D3E
  8
SU
  6
CONTINUOUS
 62
     3
 10
-291.77712315657158
 20
-255.7309702536846
 30
0.0
 11
-253.77712315657129
 21
-255.7309702536846
 31
0.0
  0
LINE
  5
19D3F
  8
SU
  6
CONTINUOUS
 62
     3
 10
-289.17319959069562
 20
-274.7561448507787
 30
0.0
 11
-290.9571042842577
 21
-273.1214973685922
 31
0.0
  0
LINE
  5
19D40
  8
SU
  6
CONTINUOUS
 62
     3
 10
-289.17319959069562
 20
-274.7561448507787
 30
0.0
 11
-290.4735980834522
 21
-272.71492809219382
 31
0.0
  0
LINE
  5
19D41
  8
KI
  6
CONTINUOUS
 62
     7
 10
-279.23538072606709
 20
-276.63097039672812
 30
0.0
 11
-285.17712315657161
 21
-276.63097039672812
 31
0.0
  0
LINE
  5
19D42
  8
KI
  6
CONTINUOUS
 62
     7
 10
-285.87712315657132
 20
-277.83097039672811
 30
0.0
 11
-259.67712315657138
 21
-277.83097039672811
 31
0.0
  0
LINE
  5
19D43
  8
KI
  6
CONTINUOUS
 62
     7
 10
-285.07712315657159
 20
-274.23097039672808
 30
0.0
 11
-285.37712315657171
 21
-274.23097039672808
 31
0.0
  0
ARC
  5
19D44
  8
KI
  6
CONTINUOUS
 62
     7
 10
-285.87712315657132
 20
-277.33097039672811
 30
0.0
 40
0.5
 50
180.0
 51
270.0
1001
GENIUS_GENOBJ-N-FIL_13
1002
{
1000
OWNER
1000
GEN
1002
}
1001
GENIUS_GENODEF_13
1002
{
1000
HIER
1070
     0
1002
}
1002
{
1000
MANEDIT
1070
     0
1002
}
1002
{
1000
NOSEL
1070
     0
1002
}
1002
{
1000
BEHIND
1070
     0
1002
}
1002
{
1000
OTHER
1070
     0
1002
}
1002
{
1000
REACTOR
1002
}
  0
LINE
  5
19D45
  8
KI
  6
CONTINUOUS
 62
     7
 10
-285.47712315657162
 20
-276.33097039672799
 30
0.0
 11
-285.47712315657162
 21
-275.47262778350199
 31
0.0
  0
LINE
  5
19D46
  8
KI
  6
CONTINUOUS
 62
     7
 10
-286.37712315657171
 20
-275.2309703967282
 30
0.0
 11
-286.3771231565716
 21
-277.33097039672811
 31
0.0
  0
ARC
  5
19D47
  8
KI
  6
CONTINUOUS
 62
     7
 10
-285.17712315657161
 20
-276.33097039672799
 30
0.0
 40
0.3
 50
180.0
 51
270.0
1001
GENIUS_GENOBJ-N-FIL_13
1002
{
1000
OWNER
1000
GEN
1002
}
1001
GENIUS_GENODEF_13
1002
{
1000
HIER
1070
     0
1002
}
1002
{
1000
MANEDIT
1070
     0
1002
}
1002
{
1000
NOSEL
1070
     0
1002
}
1002
{
1000
BEHIND
1070
     0
1002
}
1002
{
1000
OTHER
1070
     0
1002
}
1002
{
1000
REACTOR
1002
}
  0
LINE
  5
19D48
  8
KI
  6
CONTINUOUS
 62
     7
 10
-285.28776318283963
 20
-275.08083348277739
 30
0.0
 11
-284.89073914081081
 21
-274.76604697716277
 31
0.0
  0
ARC
  5
19D49
  8
KI
  6
CONTINUOUS
 62
     7
 10
-284.97712315657162
 20
-275.47262778350199
 30
0.0
 40
0.5
 50
128.4096710634123
 51
180.0
1001
GENIUS_GENODEF_13
1002
{
1000
HIER
1070
     0
1002
}
1002
{
1000
MANEDIT
1070
     0
1002
}
1002
{
1000
NOSEL
1070
     0
1002
}
1002
{
1000
BEHIND
1070
     0
1002
}
1002
{
1000
OTHER
1070
     0
1002
}
1002
{
1000
REACTOR
1002
}
1001
GENIUS_GENOBJ-N-FIL_13
1002
{
1000
OWNER
1000
GEN
1002
}
  0
ARC
  5
19D4A
  8
KI
  6
CONTINUOUS
 62
     7
 10
-285.07712315657159
 20
-274.53097039672809
 30
0.0
 40
0.3
 50
308.40967106341247
 51
90.0
  0
ARC
  5
19D4B
  8
KI
  6
CONTINUOUS
 62
     7
 10
-285.37712315657171
 20
-275.2309703967282
 30
0.0
 40
1.0
 50
90.000000000003226
 51
180.0
1001
GENIUS_GENOBJ-N-FIL_13
1002
{
1000
OWNER
1000
GEN
1002
}
1001
GENIUS_GENODEF_13
1002
{
1000
HIER
1070
     0
1002
}
1002
{
1000
MANEDIT
1070
     0
1002
}
1002
{
1000
NOSEL
1070
     0
1002
}
1002
{
1000
BEHIND
1070
     0
1002
}
1002
{
1000
OTHER
1070
     0
1002
}
1002
{
1000
REACTOR
1002
}
  0
ARC
  5
19D4C
  8
KI
  6
CONTINUOUS
 62
     7
 10
-260.47712315657151
 20
-274.53097039672809
 30
0.0
 40
0.3
 50
90.0
 51
231.5903289365875
  0
LINE
  5
19D4D
  8
KI
  6
CONTINUOUS
 62
     7
 10
-260.37712315657149
 20
-276.63097039672812
 30
0.0
 11
-266.318865587076
 21
-276.63097039672812
 31
0.0
  0
ARC
  5
19D4E
  8
KI
  6
CONTINUOUS
 62
     7
 10
-272.77712315657152
 20
-276.43097039672813
 30
0.0
 40
0.5
 50
203.5781784781997
 51
336.42182152179879
  0
LINE
  5
19D4F
  8
KI
  6
CONTINUOUS
 62
     7
 10
-273.23538072606709
 20
-276.63097039672812
 30
0.0
 11
-278.31886558707589
 21
-276.63097039672812
 31
0.0
  0
ARC
  5
19D50
  8
KI
  6
CONTINUOUS
 62
     7
 10
-278.77712315657152
 20
-276.43097039672813
 30
0.0
 40
0.5
 50
203.5781784781997
 51
336.42182152179879
  0
ARC
  5
19D51
  8
KI
  6
CONTINUOUS
 62
     7
 10
-266.77712315657152
 20
-276.43097039672813
 30
0.0
 40
0.5
 50
203.5781784781997
 51
336.42182152179879
  0
LINE
  5
19D52
  8
KI
  6
CONTINUOUS
 62
     7
 10
-267.23538072606721
 20
-276.63097039672812
 30
0.0
 11
-272.318865587076
 21
-276.63097039672812
 31
0.0
  0
LINE
  5
19D53
  8
KI
  6
CONTINUOUS
 62
     7
 10
-260.47712315657151
 20
-274.23097039672808
 30
0.0
 11
-260.17712315657133
 21
-274.23097039672808
 31
0.0
  0
ARC
  5
19D54
  8
KI
  6
CONTINUOUS
 62
     7
 10
-259.67712315657138
 20
-277.33097039672811
 30
0.0
 40
0.5
 50
270.0
 51
0.0
1001
GENIUS_GENOBJ-N-FIL_13
1002
{
1000
OWNER
1000
GEN
1002
}
1001
GENIUS_GENODEF_13
1002
{
1000
HIER
1070
     0
1002
}
1002
{
1000
MANEDIT
1070
     0
1002
}
1002
{
1000
NOSEL
1070
     0
1002
}
1002
{
1000
BEHIND
1070
     0
1002
}
1002
{
1000
OTHER
1070
     0
1002
}
1002
{
1000
REACTOR
1002
}
  0
LINE
  5
19D55
  8
KI
  6
CONTINUOUS
 62
     7
 10
-260.07712315657142
 20
-276.33097039672799
 30
0.0
 11
-260.07712315657142
 21
-275.47262778350199
 31
0.0
  0
LINE
  5
19D56
  8
KI
  6
CONTINUOUS
 62
     7
 10
-259.1771231565715
 20
-275.2309703967282
 30
0.0
 11
-259.1771231565715
 21
-277.33097039672811
 31
0.0
  0
ARC
  5
19D57
  8
KI
  6
CONTINUOUS
 62
     7
 10
-260.37712315657149
 20
-276.33097039672799
 30
0.0
 40
0.3
 50
270.0
 51
0.0
1001
GENIUS_GENOBJ-N-FIL_13
1002
{
1000
OWNER
1000
GEN
1002
}
1001
GENIUS_GENODEF_13
1002
{
1000
HIER
1070
     0
1002
}
1002
{
1000
MANEDIT
1070
     0
1002
}
1002
{
1000
NOSEL
1070
     0
1002
}
1002
{
1000
BEHIND
1070
     0
1002
}
1002
{
1000
OTHER
1070
     0
1002
}
1002
{
1000
REACTOR
1002
}
  0
ARC
  5
19D58
  8
KI
  6
CONTINUOUS
 62
     7
 10
-260.57712315657142
 20
-275.47262778350199
 30
0.0
 40
0.5
 50
0.0
 51
51.590328936587497
1001
GENIUS_GENODEF_13
1002
{
1000
HIER
1070
     0
1002
}
1002
{
1000
MANEDIT
1070
     0
1002
}
1002
{
1000
NOSEL
1070
     0
1002
}
1002
{
1000
BEHIND
1070
     0
1002
}
1002
{
1000
OTHER
1070
     0
1002
}
1002
{
1000
REACTOR
1002
}
1001
GENIUS_GENOBJ-N-FIL_13
1002
{
1000
OWNER
1000
GEN
1002
}
  0
LINE
  5
19D59
  8
KI
  6
CONTINUOUS
 62
     7
 10
-260.26648313030358
 20
-275.08083348277739
 30
0.0
 11
-260.66350717233229
 21
-274.76604697716277
 31
0.0
  0
ARC
  5
19D5A
  8
KI
  6
CONTINUOUS
 62
     7
 10
-260.17712315657133
 20
-275.23097039672803
 30
0.0
 40
1.0
 50
359.9999999999967
 51
89.999999999993477
1001
GENIUS_GENOBJ-N-FIL_13
1002
{
1000
OWNER
1000
GEN
1002
}
1001
GENIUS_GENODEF_13
1002
{
1000
HIER
1070
     0
1002
}
1002
{
1000
MANEDIT
1070
     0
1002
}
1002
{
1000
NOSEL
1070
     0
1002
}
1002
{
1000
BEHIND
1070
     0
1002
}
1002
{
1000
OTHER
1070
     0
1002
}
1002
{
1000
REACTOR
1002
}
  0
LINE
  5
19D5B
  8
KI
  6
CONTINUOUS
 62
     7
 10
-253.9849707936491
 20
-276.48132009803248
 30
0.0
 11
-258.77712315657152
 21
-273.03097039672809
 31
0.0
  0
LINE
  5
19D5C
  8
KI
  6
CONTINUOUS
 62
     7
 10
-254.7197349522269
 20
-277.43097039672813
 30
0.0
 11
-259.44195717444933
 21
-274.03097039672792
 31
0.0
  0
LINE
  5
19D5D
  8
KI
  6
CONTINUOUS
 62
     7
 10
-261.77712315657152
 20
-274.03097039672792
 30
0.0
 11
-283.77712315657158
 21
-274.03097039672792
 31
0.0
  0
LINE
  5
19D5E
  8
KI
  6
CONTINUOUS
 62
     7
 10
-258.77712315657152
 20
-273.03097039672809
 30
0.0
 11
-286.77712315657158
 21
-273.03097039672809
 31
0.0
  0
ARC
  5
19D5F
  8
KI
  6
CONTINUOUS
 62
     7
 10
-291.27712315657158
 20
-276.88708726875808
 30
0.0
 40
0.5
 50
125.7538872544371
 51
180.0
1001
GENIUS_GENOBJ-N-FIL_13
1002
{
1000
OWNER
1000
GEN
1002
}
1001
GENIUS_GENODEF_13
1002
{
1000
HIER
1070
     0
1002
}
1002
{
1000
MANEDIT
1070
     0
1002
}
1002
{
1000
NOSEL
1070
     0
1002
}
1002
{
1000
BEHIND
1070
     0
1002
}
1002
{
1000
OTHER
1070
     0
1002
}
1002
{
1000
REACTOR
1002
}
  0
LINE
  5
19D60
  8
KI
  6
CONTINUOUS
 62
     7
 10
-290.834511360916
 20
-277.43097039672813
 30
0.0
 11
-286.11228913869382
 21
-274.03097039672792
 31
0.0
  0
LINE
  5
19D61
  8
KI
  6
CONTINUOUS
 62
     7
 10
-291.77712315657158
 20
-277.43097039672813
 30
0.0
 11
-290.834511360916
 21
-277.43097039672813
 31
0.0
  0
LINE
  5
19D62
  8
KI
  6
CONTINUOUS
 62
     7
 10
-291.77712315657158
 20
-277.43097039672813
 30
0.0
 11
-291.77712315657158
 21
-276.88708726875808
 31
0.0
  0
LINE
  5
19D63
  8
KI
  6
CONTINUOUS
 62
     7
 10
-291.56927551949389
 20
-276.48132009803248
 30
0.0
 11
-286.77712315657158
 21
-273.03097039672809
 31
0.0
  0
LINE
  5
19D64
  8
KI
  6
CONTINUOUS
 62
     7
 10
-284.67712315657161
 20
-274.03097039672792
 30
0.0
 11
-286.11228913869382
 21
-274.03097039672792
 31
0.0
  0
LINE
  5
19D65
  8
KI
  6
CONTINUOUS
 62
     7
 10
-284.67712315657161
 20
-274.53097039672809
 30
0.0
 11
-284.98037925035698
 21
-274.81031917797083
 31
0.0
  0
LINE
  5
19D66
  8
KI
  6
CONTINUOUS
 62
     7
 10
-285.04665881918822
 20
-275.1626917942981
 30
0.0
 11
-284.53650404006032
 21
-276.20659892682158
 31
0.0
  0
ARC
  5
19D67
  8
KI
  6
CONTINUOUS
 62
     7
 10
-284.77712315657169
 20
-275.03097039672809
 30
0.0
 40
0.3
 50
132.65017409566951
 51
206.044643039454
  0
ARC
  5
19D68
  8
KI
  6
CONTINUOUS
 62
     7
 10
-284.1771231565715
 20
-276.03097039672792
 30
0.0
 40
0.4
 50
206.044643039454
 51
0.0
  0
LINE
  5
19D69
  8
KI
  6
CONTINUOUS
 62
     7
 10
-283.77712315657158
 20
-274.03097039672792
 30
0.0
 11
-283.77712315657158
 21
-276.03097039672792
 31
0.0
  0
LINE
  5
19D6A
  8
KI
  6
CONTINUOUS
 62
     7
 10
-284.67712315657161
 20
-274.03097039672792
 30
0.0
 11
-284.67712315657161
 21
-274.53097039672809
 31
0.0
  0
ARC
  5
19D6B
  8
KI
  6
CONTINUOUS
 62
     7
 10
-260.77712315657152
 20
-275.03097039672809
 30
0.0
 40
0.3
 50
333.95535696054583
 51
47.349825904330501
  0
LINE
  5
19D6C
  8
KI
  6
CONTINUOUS
 62
     7
 10
-259.44195717444933
 20
-274.03097039672792
 30
0.0
 11
-260.87712315657132
 21
-274.03097039672792
 31
0.0
  0
LINE
  5
19D6D
  8
KI
  6
CONTINUOUS
 62
     7
 10
-260.50758749395482
 20
-275.1626917942981
 30
0.0
 11
-261.01774227308272
 21
-276.20659892682158
 31
0.0
  0
LINE
  5
19D6E
  8
KI
  6
CONTINUOUS
 62
     7
 10
-260.87712315657132
 20
-274.03097039672792
 30
0.0
 11
-260.87712315657132
 21
-274.53097039672809
 31
0.0
  0
LINE
  5
19D6F
  8
KI
  6
CONTINUOUS
 62
     7
 10
-260.87712315657132
 20
-274.53097039672809
 30
0.0
 11
-260.57386706278589
 21
-274.81031917797083
 31
0.0
  0
LINE
  5
19D70
  8
KI
  6
CONTINUOUS
 62
     7
 10
-261.77712315657152
 20
-274.03097039672792
 30
0.0
 11
-261.77712315657152
 21
-276.03097039672792
 31
0.0
  0
ARC
  5
19D71
  8
KI
  6
CONTINUOUS
 62
     7
 10
-261.3771231565716
 20
-276.03097039672792
 30
0.0
 40
0.4
 50
180.0
 51
333.95535696054583
  0
ARC
  5
19D72
  8
KI
  6
CONTINUOUS
 62
     7
 10
-254.27712315657129
 20
-276.88708726875808
 30
0.0
 40
0.5
 50
0.0
 51
54.24611274556284
1001
GENIUS_GENOBJ-N-FIL_13
1002
{
1000
OWNER
1000
GEN
1002
}
1001
GENIUS_GENODEF_13
1002
{
1000
HIER
1070
     0
1002
}
1002
{
1000
MANEDIT
1070
     0
1002
}
1002
{
1000
NOSEL
1070
     0
1002
}
1002
{
1000
BEHIND
1070
     0
1002
}
1002
{
1000
OTHER
1070
     0
1002
}
1002
{
1000
REACTOR
1002
}
  0
LINE
  5
19D73
  8
KI
  6
CONTINUOUS
 62
     7
 10
-253.77712315657129
 20
-277.43097039672813
 30
0.0
 11
-253.77712315657129
 21
-276.88708726875808
 31
0.0
  0
LINE
  5
19D74
  8
KI
  6
CONTINUOUS
 62
     7
 10
-253.77712315657129
 20
-277.43097039672813
 30
0.0
 11
-254.7197349522269
 21
-277.43097039672813
 31
0.0
  0
LINE
  5
19D75
  8
SU
  6
CONTINUOUS
 62
     3
 10
-256.2771460447542
 20
-23.274528760989352
 30
0.0
 11
-178.27712315656871
 21
-23.274528760989369
 31
0.0
  0
LINE
  5
19D76
  8
SU
  6
CONTINUOUS
 62
     3
 10
-181.27712315656871
 20
-23.274528760989369
 30
0.0
 11
-181.27712315656871
 21
-20.87452876098935
 31
0.0
  0
LINE
  5
19D77
  8
SU
  6
CONTINUOUS
 62
     3
 10
-181.27712315656871
 20
-25.574528951724329
 30
0.0
 11
-181.27712315656871
 21
-35.187862285057662
 31
0.0
  0
LINE
  5
19D78
  8
SU
  6
CONTINUOUS
 62
     3
 10
-181.27712315656871
 20
-23.274528760989369
 30
0.0
 11
-181.27712315656871
 21
-25.574528951724329
 31
0.0
  0
LINE
  5
19D79
  8
SU
  6
CONTINUOUS
 62
     3
 10
-181.27712315656871
 20
-17.57452843322416
 30
0.0
 11
-181.27712315656871
 21
-23.274528760989369
 31
0.0
  0
TEXT
  5
19D7A
  8
SU
  6
CONTINUOUS
 62
     3
 10
-336.35970367478302
 20
-118.7851674785279
 30
0.0
 40
4.0
  1
薄敷居（床後張り用）
 41
0.8299999999999999
  0
TEXT
  5
19D7B
  8
SU
  6
CONTINUOUS
 62
     3
 10
-329.19798938906871
 20
-125.4518341451944
 30
0.0
 40
4.0
  1
〔オプション〕
 41
0.8299999999999999
  0
TEXT
  5
19D7C
  8
SU
  6
CONTINUOUS
 62
     3
 10
-349.30075674674111
 20
-4.1287721692553214
 30
0.0
 40
4.0
  1
埋込敷居（床先張り用）
 41
0.8299999999999999
  0
TEXT
  5
19D7D
  8
SU
  6
CONTINUOUS
 62
     3
 10
-340.14704246102718
 20
-10.79543883592198
 30
0.0
 40
4.0
  1
〔オプション〕
 41
0.8299999999999999
  0
LINE
  5
19D7E
  8
SU
  6
CONTINUOUS
 62
     3
 10
-240.27712315657001
 20
-158.126469696377
 30
0.0
 11
-240.27712315657001
 21
-195.1264696964169
 31
0.0
  0
LINE
  5
19D7F
  8
SU
  6
CONTINUOUS
 62
     3
 10
-240.27712315657001
 20
-192.1264696964169
 30
0.0
 11
-219.2771231656973
 21
-192.1264696964169
 31
0.0
  0
LINE
  5
19D80
  8
OS
  6
CONTINUOUS
 62
     2
 10
403.51426882040761
 20
93.353680414931773
 30
0.0
 11
449.51440859804558
 21
47.353549736079742
 31
0.0
  0
LINE
  5
19D81
  8
OS
  6
CONTINUOUS
 62
     2
 10
398.51443666708758
 20
93.353543085848955
 30
0.0
 11
403.51440614951753
 21
-26.646456914151031
 31
0.0
  0
LINE
  5
19D82
  8
OS
  6
CONTINUOUS
 62
     2
 10
403.51440614951753
 20
93.353543085848955
 30
0.0
 11
403.51440614951753
 21
-26.646456914151031
 31
0.0
  0
LINE
  5
19D83
  8
OS
  6
CONTINUOUS
 62
     2
 10
449.51440859804558
 20
19.353544884465119
 30
0.0
 11
403.51428407919758
 21
-26.646578984469318
 31
0.0
  0
LINE
  5
19D84
  8
OS
  6
CONTINUOUS
 62
     2
 10
449.51440859804558
 20
-28.646456914151031
 30
0.0
 11
398.51440614951758
 21
-28.646456914151031
 31
0.0
  0
LINE
  5
19D85
  8
OS
  6
CONTINUOUS
 62
     2
 10
449.51440859804558
 20
-26.646456914151031
 30
0.0
 11
398.51440614951758
 21
-26.646456914151031
 31
0.0
  0
LINE
  5
19D86
  8
OS
  6
CONTINUOUS
 62
     2
 10
449.51440859804558
 20
-39.146456914151031
 30
0.0
 11
398.51440614951758
 21
-39.146456914151031
 31
0.0
  0
LINE
  5
19D87
  8
OS
  6
CONTINUOUS
 62
     2
 10
449.51440859804558
 20
-37.146456914151031
 30
0.0
 11
398.51440614951758
 21
-37.146456914151031
 31
0.0
  0
LINE
  5
19D88
  8
OS
  6
CONTINUOUS
 62
     2
 10
449.51440859804558
 20
95.353543085848969
 30
0.0
 11
398.51440614951758
 21
95.353543085848969
 31
0.0
  0
LINE
  5
19D89
  8
OS
  6
CONTINUOUS
 62
     2
 10
449.51440859804558
 20
93.353543085848955
 30
0.0
 11
398.51440614951758
 21
93.353543085848955
 31
0.0
  0
LINE
  5
19D8A
  8
OS
  6
CONTINUOUS
 62
     2
 10
449.51440859804558
 20
105.8535430858487
 30
0.0
 11
398.51440614951758
 21
105.8535430858487
 31
0.0
  0
LINE
  5
19D8B
  8
OS
  6
CONTINUOUS
 62
     2
 10
449.51440859804558
 20
103.8535430858489
 30
0.0
 11
398.51440614951758
 21
103.8535430858489
 31
0.0
  0
LINE
  5
19D8C
  8
OS
  6
CONTINUOUS
 62
     2
 10
-56.485456521371567
 20
93.353680414931773
 30
0.0
 11
-102.4855962990095
 21
47.353549736079742
 31
0.0
  0
LINE
  5
19D8D
  8
OS
  6
CONTINUOUS
 62
     2
 10
-51.485624368051532
 20
93.353543085848955
 30
0.0
 11
-56.48559385048155
 21
-26.646456914151031
 31
0.0
  0
LINE
  5
19D8E
  8
OS
  6
CONTINUOUS
 62
     2
 10
-56.48559385048155
 20
93.353543085848955
 30
0.0
 11
-56.48559385048155
 21
-26.646456914151031
 31
0.0
  0
LINE
  5
19D8F
  8
OS
  6
CONTINUOUS
 62
     2
 10
-102.4855962990095
 20
19.353544884465119
 30
0.0
 11
-56.485471780161539
 21
-26.646578984469318
 31
0.0
  0
LINE
  5
19D90
  8
OS
  6
CONTINUOUS
 62
     2
 10
-102.4855962990095
 20
-28.646456914151031
 30
0.0
 11
-51.485593850481493
 21
-28.646456914151031
 31
0.0
  0
LINE
  5
19D91
  8
OS
  6
CONTINUOUS
 62
     2
 10
-102.4855962990095
 20
-26.646456914151031
 30
0.0
 11
-51.485593850481493
 21
-26.646456914151031
 31
0.0
  0
LINE
  5
19D92
  8
OS
  6
CONTINUOUS
 62
     2
 10
-102.4855962990095
 20
-39.146456914151031
 30
0.0
 11
-51.485593850481493
 21
-39.146456914151031
 31
0.0
  0
LINE
  5
19D93
  8
OS
  6
CONTINUOUS
 62
     2
 10
-102.4855962990095
 20
-37.146456914151031
 30
0.0
 11
-51.485593850481493
 21
-37.146456914151031
 31
0.0
  0
LINE
  5
19D94
  8
OS
  6
CONTINUOUS
 62
     2
 10
-102.4855962990095
 20
95.353543085848969
 30
0.0
 11
-51.485593850481493
 21
95.353543085848969
 31
0.0
  0
LINE
  5
19D95
  8
OS
  6
CONTINUOUS
 62
     2
 10
-102.4855962990095
 20
93.353543085848955
 30
0.0
 11
-51.485593850481493
 21
93.353543085848955
 31
0.0
  0
LINE
  5
19D96
  8
OS
  6
CONTINUOUS
 62
     2
 10
-102.4855962990095
 20
105.8535430858487
 30
0.0
 11
-51.485593850481493
 21
105.8535430858487
 31
0.0
  0
LINE
  5
19D97
  8
OS
  6
CONTINUOUS
 62
     2
 10
-102.4855962990095
 20
103.8535430858489
 30
0.0
 11
-51.485593850481493
 21
103.8535430858489
 31
0.0
  0
LINE
  5
19D98
  8
OS
  6
CONTINUOUS
 62
     2
 10
-365.2771231565701
 20
-163.1264696964015
 30
0.0
 11
-399.7771231565701
 21
-163.1264696964015
 31
0.0
  0
LINE
  5
19D99
  8
OS
  6
CONTINUOUS
 62
     2
 10
-365.2771231565701
 20
-166.1264696964017
 30
0.0
 11
-399.7771231565701
 21
-166.1264696964017
 31
0.0
  0
LINE
  5
19D9A
  8
OS
  6
CONTINUOUS
 62
     2
 10
-365.2771231565701
 20
-169.1264696964017
 30
0.0
 11
-399.7771231565701
 21
-169.1264696964017
 31
0.0
  0
LINE
  5
19D9B
  8
OS
  6
CONTINUOUS
 62
     2
 10
-365.2771231565701
 20
-160.12646969640139
 30
0.0
 11
-399.7771231565701
 21
-160.12646969640139
 31
0.0
  0
LINE
  5
19D9C
  8
OS
  6
CONTINUOUS
 62
     2
 10
-199.7771231565701
 20
-172.12646969640139
 30
0.0
 11
-399.7771231565701
 21
-172.12646969640139
 31
0.0
  0
LINE
  5
19D9D
  8
OS
  6
CONTINUOUS
 62
     2
 10
-199.7771231565701
 20
-169.1264696964017
 30
0.0
 11
-219.2771231565699
 21
-169.1264696964017
 31
0.0
  0
LINE
  5
19D9E
  8
OS
  6
CONTINUOUS
 62
     2
 10
-199.7771231565701
 20
-166.1264696964017
 30
0.0
 11
-219.2771231565699
 21
-166.1264696964017
 31
0.0
  0
LINE
  5
19D9F
  8
OS
  6
CONTINUOUS
 62
     2
 10
-199.7771231565701
 20
-163.1264696964015
 30
0.0
 11
-219.2771231565699
 21
-163.1264696964015
 31
0.0
  0
LINE
  5
19DA0
  8
OS
  6
CONTINUOUS
 62
     2
 10
-199.7771231565701
 20
-160.12646969640139
 30
0.0
 11
-219.2771231565699
 21
-160.12646969640139
 31
0.0
  0
LINE
  5
19DA1
  8
OS
  6
CONTINUOUS
 62
     2
 10
-286.2771231565701
 20
-37.574528951716047
 30
0.0
 11
-286.2771231565701
 21
-25.574528951724211
 31
0.0
  0
LINE
  5
19DA2
  8
OS
  6
CONTINUOUS
 62
     2
 10
-199.77712315657021
 20
-37.574528951724233
 30
0.0
 11
-399.7771231565701
 21
-37.574528951724218
 31
0.0
  0
LINE
  5
19DA3
  8
OS
  6
CONTINUOUS
 62
     2
 10
-286.2771231565701
 20
-25.574528951724211
 30
0.0
 11
-399.7771231565701
 21
-25.574528951724211
 31
0.0
  0
LINE
  5
19DA4
  8
OS
  6
CONTINUOUS
 62
     2
 10
-286.2771231565701
 20
-34.574528951724233
 30
0.0
 11
-399.7771231565701
 21
-34.574528951724233
 31
0.0
  0
LINE
  5
19DA5
  8
OS
  6
CONTINUOUS
 62
     2
 10
-286.2771231565701
 20
-31.574528951724229
 30
0.0
 11
-399.7771231565701
 21
-31.574528951724229
 31
0.0
  0
LINE
  5
19DA6
  8
OS
  6
CONTINUOUS
 62
     2
 10
-286.2771231565701
 20
-28.574528951724229
 30
0.0
 11
-399.7771231565701
 21
-28.574528951724229
 31
0.0
  0
LINE
  5
19DA7
  8
OS
  6
CONTINUOUS
 62
     2
 10
-199.77712315657021
 20
-34.574528951724233
 30
0.0
 11
-261.27712315657021
 21
-34.574528951724233
 31
0.0
  0
LINE
  5
19DA8
  8
OS
  6
CONTINUOUS
 62
     2
 10
-261.27712315657021
 20
-37.574528951716047
 30
0.0
 11
-261.27712315657021
 21
-25.574528951724211
 31
0.0
  0
LINE
  5
19DA9
  8
OS
  6
CONTINUOUS
 62
     2
 10
-199.77712315657021
 20
-28.574528951724229
 30
0.0
 11
-261.27712315657021
 21
-28.574528951724229
 31
0.0
  0
LINE
  5
19DAA
  8
OS
  6
CONTINUOUS
 62
     2
 10
-199.77712315657021
 20
-31.574528951724229
 30
0.0
 11
-261.27712315657021
 21
-31.574528951724229
 31
0.0
  0
LINE
  5
19DAB
  8
OS
  6
CONTINUOUS
 62
     2
 10
-199.77712315657021
 20
-25.574528951724211
 30
0.0
 11
-261.27712315657021
 21
-25.574528951724211
 31
0.0
  0
LINE
  5
19DAC
  8
OS
  6
CONTINUOUS
 62
     2
 10
-287.77701193708111
 20
215.4254713760408
 30
0.0
 11
-359.77720448380148
 21
179.42533376083779
 31
0.0
  0
LINE
  5
19DAD
  8
OS
  6
CONTINUOUS
 62
     2
 10
-239.77706667785799
 20
174.4255159551995
 30
0.0
 11
-359.77706667785799
 21
179.4254715667758
 31
0.0
  0
LINE
  5
19DAE
  8
OS
  6
CONTINUOUS
 62
     2
 10
-239.77706667785799
 20
179.4254715667758
 30
0.0
 11
-359.77706667785799
 21
179.4254715667758
 31
0.0
  0
LINE
  5
19DAF
  8
OS
  6
CONTINUOUS
 62
     2
 10
-359.77706667785799
 20
215.4254713760408
 30
0.0
 11
-359.77706667785799
 21
174.4254715667758
 31
0.0
  0
LINE
  5
19DB0
  8
OS
  6
CONTINUOUS
 62
     2
 10
-361.77706667785799
 20
215.4254713760408
 30
0.0
 11
-361.77706667785799
 21
174.4254715667758
 31
0.0
  0
LINE
  5
19DB1
  8
OS
  6
CONTINUOUS
 62
     2
 10
-370.27706667785799
 20
215.4254713760408
 30
0.0
 11
-370.27706667785799
 21
174.4254715667758
 31
0.0
  0
LINE
  5
19DB2
  8
OS
  6
CONTINUOUS
 62
     2
 10
-372.27706667785799
 20
215.4254713760408
 30
0.0
 11
-372.27706667785799
 21
174.4254715667758
 31
0.0
  0
LINE
  5
19DB3
  8
OS
  6
CONTINUOUS
 62
     2
 10
-229.27706667785799
 20
215.4254713760408
 30
0.0
 11
-229.27706667785799
 21
174.4254715667758
 31
0.0
  0
LINE
  5
19DB4
  8
OS
  6
CONTINUOUS
 62
     2
 10
-227.27706667785799
 20
215.4254713760408
 30
0.0
 11
-227.27706667785799
 21
174.4254715667758
 31
0.0
  0
LINE
  5
19DB5
  8
OS
  6
CONTINUOUS
 62
     2
 10
-239.77706667785799
 20
215.4254713760408
 30
0.0
 11
-239.77706667785799
 21
174.4254715667758
 31
0.0
  0
LINE
  5
19DB6
  8
OS
  6
CONTINUOUS
 62
     2
 10
-237.77706667785799
 20
215.4254713760408
 30
0.0
 11
-237.77706667785799
 21
174.4254715667758
 31
0.0
  0
LINE
  5
19DB7
  8
KI
  6
CONTINUOUS
 62
     7
 10
-264.01859826185552
 20
-23.796471078475172
 30
0.0
 11
-264.97712296583529
 21
-24.774528693557841
 31
0.0
  0
LINE
  5
19DB8
  8
KI
  6
CONTINUOUS
 62
     7
 10
-283.53564805128462
 20
-23.796471078475172
 30
0.0
 11
-282.57712334730519
 21
-24.774528693557841
 31
0.0
  0
LINE
  5
19DB9
  8
KI
  6
CONTINUOUS
 62
     7
 10
-268.77712315657021
 20
-24.774528760989359
 30
0.0
 11
-264.97712296583529
 21
-24.774528760989359
 31
0.0
  0
LINE
  5
19DBA
  8
KI
  6
CONTINUOUS
 62
     7
 10
-264.17712277510049
 20
-23.474528808673082
 30
0.0
 11
-283.37712353804
 21
-23.474528808673082
 31
0.0
  0
LINE
  5
19DBB
  8
KI
  6
CONTINUOUS
 62
     7
 10
-268.77712315657021
 20
-27.174528856356801
 30
0.0
 11
-268.77712315657021
 21
-24.774528760989359
 31
0.0
  0
LINE
  5
19DBC
  8
KI
  6
CONTINUOUS
 62
     7
 10
-269.57712334730519
 20
-24.774528760989359
 30
0.0
 11
-277.97712296583512
 21
-24.774528760989359
 31
0.0
  0
LINE
  5
19DBD
  8
KI
  6
CONTINUOUS
 62
     7
 10
-268.77712315657021
 20
-27.174528856356801
 30
0.0
 11
-268.62712353804
 21
-27.261131305773912
 31
0.0
  0
LINE
  5
19DBE
  8
KI
  6
CONTINUOUS
 62
     7
 10
-282.57712334730519
 20
-24.774528760989359
 30
0.0
 11
-278.77712315657021
 21
-24.774528760989359
 31
0.0
  0
LINE
  5
19DBF
  8
KI
  6
CONTINUOUS
 62
     7
 10
-269.57712334730519
 20
-24.774528760989359
 30
0.0
 11
-269.57712334730519
 21
-28.574728031237761
 31
0.0
  0
LINE
  5
19DC0
  8
KI
  6
CONTINUOUS
 62
     7
 10
-268.48734540083279
 20
-27.598584671099829
 30
0.0
 11
-269.09812802412392
 21
-29.878056306918321
 31
0.0
  0
LINE
  5
19DC1
  8
KI
  6
CONTINUOUS
 62
     7
 10
-269.87086862661721
 20
-29.671001215060411
 30
0.0
 11
-269.57712287046792
 21
-28.574728031237761
 31
0.0
  0
LINE
  5
19DC2
  8
KI
  6
CONTINUOUS
 62
     7
 10
-278.77712315657021
 20
-24.774528760989359
 30
0.0
 11
-278.77712315657021
 21
-27.174528856356801
 31
0.0
  0
LINE
  5
19DC3
  8
KI
  6
CONTINUOUS
 62
     7
 10
-278.92712277510049
 20
-27.261131305773912
 30
0.0
 11
-278.77712315657021
 21
-27.174528856356801
 31
0.0
  0
LINE
  5
19DC4
  8
KI
  6
CONTINUOUS
 62
     7
 10
-277.97712296583512
 20
-28.574728031237761
 30
0.0
 11
-277.97712296583512
 21
-24.774528760989359
 31
0.0
  0
LINE
  5
19DC5
  8
KI
  6
CONTINUOUS
 62
     7
 10
-278.45611828901639
 20
-29.878056306918321
 30
0.0
 11
-279.06690091230752
 21
-27.598584671099829
 31
0.0
  0
LINE
  5
19DC6
  8
KI
  6
CONTINUOUS
 62
     7
 10
-277.97712344267239
 20
-28.574728031237761
 30
0.0
 11
-277.6833776865231
 21
-29.671001215060411
 31
0.0
  0
ARC
  5
19DC7
  8
KI
  6
CONTINUOUS
 62
     7
 10
-268.77712315657021
 20
-27.52093889244383
 30
0.0
 40
0.3000000119209
 50
344.99999958258519
 51
60.000001669651191
  0
ARC
  5
19DC8
  8
KI
  6
CONTINUOUS
 62
     7
 10
-269.48449820616139
 20
-29.774528760989359
 30
0.0
 40
0.4000000059605
 50
164.9999943462611
 51
345.00001301559593
  0
ARC
  5
19DC9
  8
KI
  6
CONTINUOUS
 62
     7
 10
-278.77712315657021
 20
-27.52093889244383
 30
0.0
 40
0.3000000119209
 50
120.00000333930259
 51
195.00000201127409
  0
ARC
  5
19DCA
  8
KI
  6
CONTINUOUS
 62
     7
 10
-278.06974810697909
 20
-29.774528760989359
 30
0.0
 40
0.4000000059605
 50
195.00000565373881
 51
15.00000041741464
  0
ARC
  5
19DCB
  8
KI
  6
CONTINUOUS
 62
     7
 10
-283.37712353804
 20
-23.674528737147511
 30
0.0
 40
0.2000000029802
 50
90.000002504478417
 51
217.56858627439951
  0
ARC
  5
19DCC
  8
KI
  6
CONTINUOUS
 62
     7
 10
-264.17712277510049
 20
-23.674528737147511
 30
0.0
 40
0.2000000029802
 50
322.4314084892772
 51
90.000002504478417
  0
LINE
  5
19DCD
  8
KI
  6
CONTINUOUS
 62
     7
 10
-284.13569993116721
 20
-25.654426832279331
 30
0.0
 11
-283.31559914686568
 21
-26.4745276165803
 31
0.0
  0
LINE
  5
19DCE
  8
KI
  6
CONTINUOUS
 62
     7
 10
-284.47712391950921
 20
-27.574527998049799
 30
0.0
 11
-284.47712391950921
 21
-25.795849104007289
 31
0.0
  0
LINE
  5
19DCF
  8
KI
  6
CONTINUOUS
 62
     7
 10
-263.07712620832808
 20
-25.795849104007289
 30
0.0
 11
-263.07712620832808
 21
-27.574527998049799
 31
0.0
  0
LINE
  5
19DD0
  8
KI
  6
CONTINUOUS
 62
     7
 10
-264.2386471662748
 20
-26.474529523929391
 30
0.0
 11
-263.41854638197321
 21
-25.654428739627392
 31
0.0
  0
LINE
  5
19DD1
  8
KI
  6
CONTINUOUS
 62
     7
 10
-278.77712315657021
 20
-27.174530286868389
 30
0.0
 11
-278.77712315657021
 21
-25.674530286868389
 31
0.0
  0
LINE
  5
19DD2
  8
KI
  6
CONTINUOUS
 62
     7
 10
-279.27712315657021
 20
-27.174530286868389
 30
0.0
 11
-278.77712315657021
 21
-27.174530286868389
 31
0.0
  0
LINE
  5
19DD3
  8
KI
  6
CONTINUOUS
 62
     7
 10
-280.27712315657033
 20
-35.774528760989362
 30
0.0
 11
-280.27712315657033
 21
-26.774528760989369
 31
0.0
  0
LINE
  5
19DD4
  8
KI
  6
CONTINUOUS
 62
     7
 10
-278.77712315657021
 20
-35.774528760989362
 30
0.0
 11
-274.07712239363059
 21
-35.774528760989362
 31
0.0
  0
LINE
  5
19DD5
  8
KI
  6
CONTINUOUS
 62
     7
 10
-279.27712315657021
 20
-25.174530286868389
 30
0.0
 11
-282.7771231565701
 21
-25.174530286868389
 31
0.0
  0
LINE
  5
19DD6
  8
KI
  6
CONTINUOUS
 62
     7
 10
-282.77712506391862
 20
-25.174530286868389
 30
0.0
 11
-284.53067940809512
 21
-23.420976896365332
 31
0.0
  0
LINE
  5
19DD7
  8
KI
  6
CONTINUOUS
 62
     7
 10
-274.07712188699122
 20
-35.774527330477881
 30
0.0
 11
-273.77712201860533
 21
-36.074527163584889
 31
0.0
  0
LINE
  5
19DD8
  8
KI
  6
CONTINUOUS
 62
     7
 10
-293.92709642647679
 20
-24.42217156652157
 30
0.0
 11
-290.27710408308309
 21
-23.274526853641301
 31
0.0
  0
LINE
  5
19DD9
  8
KI
  6
CONTINUOUS
 62
     7
 10
-292.2771040830832
 20
-25.274528760989369
 30
0.0
 11
-294.27712315657021
 21
-25.274528760989369
 31
0.0
  0
LINE
  5
19DDA
  8
KI
  6
CONTINUOUS
 62
     7
 10
-279.27712315657021
 20
-27.174530286868389
 30
0.0
 11
-279.27712315657021
 21
-35.274528760989362
 31
0.0
  0
LINE
  5
19DDB
  8
KI
  6
CONTINUOUS
 62
     7
 10
-290.27710408308309
 20
-23.274528760989369
 30
0.0
 11
-284.8842322263942
 21
-23.274528760989369
 31
0.0
  0
LINE
  5
19DDC
  8
KI
  6
CONTINUOUS
 62
     7
 10
-268.77712315657021
 20
-25.674530286868389
 30
0.0
 11
-268.77712315657021
 21
-27.174530286868389
 31
0.0
  0
LINE
  5
19DDD
  8
KI
  6
CONTINUOUS
 62
     7
 10
-268.77712315657021
 20
-27.174530286868389
 30
0.0
 11
-268.2771231565701
 21
-27.174530286868389
 31
0.0
  0
LINE
  5
19DDE
  8
KI
  6
CONTINUOUS
 62
     7
 10
-267.27712315657021
 20
-26.774528760989369
 30
0.0
 11
-267.27712315657021
 21
-35.774528760989362
 31
0.0
  0
LINE
  5
19DDF
  8
KI
  6
CONTINUOUS
 62
     7
 10
-273.47712391950972
 20
-35.774528760989362
 30
0.0
 11
-268.77712315657021
 21
-35.774528760989362
 31
0.0
  0
LINE
  5
19DE0
  8
KI
  6
CONTINUOUS
 62
     7
 10
-264.77712315657021
 20
-25.174530286868389
 30
0.0
 11
-268.2771231565701
 21
-25.174530286868389
 31
0.0
  0
LINE
  5
19DE1
  8
KI
  6
CONTINUOUS
 62
     7
 10
-263.02356976606802
 20
-23.420974989017392
 30
0.0
 11
-264.77712697126742
 21
-25.174531240543381
 31
0.0
  0
LINE
  5
19DE2
  8
KI
  6
CONTINUOUS
 62
     7
 10
-273.77712201860533
 20
-36.074527163584889
 30
0.0
 11
-273.47712278702141
 21
-35.774527926524343
 31
0.0
  0
LINE
  5
19DE3
  8
KI
  6
CONTINUOUS
 62
     7
 10
-257.2771460447542
 20
-23.274531622012422
 30
0.0
 11
-253.62714991640919
 21
-24.42217727484239
 31
0.0
  0
LINE
  5
19DE4
  8
KI
  6
CONTINUOUS
 62
     7
 10
-253.27712315657021
 20
-25.274528760989369
 30
0.0
 11
-255.27714604475409
 21
-25.274528760989369
 31
0.0
  0
LINE
  5
19DE5
  8
KI
  6
CONTINUOUS
 62
     7
 10
-268.2771231565701
 20
-35.274528760989362
 30
0.0
 11
-268.2771231565701
 21
-27.174530286868389
 31
0.0
  0
LINE
  5
19DE6
  8
KI
  6
CONTINUOUS
 62
     7
 10
-268.2771231565701
 20
-36.774528760989362
 30
0.0
 11
-279.27712315657021
 21
-36.774528760989362
 31
0.0
  0
LINE
  5
19DE7
  8
KI
  6
CONTINUOUS
 62
     7
 10
-262.67001408674622
 20
-23.274528760989369
 30
0.0
 11
-257.2771460447542
 21
-23.274528760989369
 31
0.0
  0
LINE
  5
19DE8
  8
KI
  6
CONTINUOUS
 62
     7
 10
-262.27712315657021
 20
-27.574527998049799
 30
0.0
 11
-262.27712315657021
 21
-24.874527235111358
 31
0.0
  0
LINE
  5
19DE9
  8
KI
  6
CONTINUOUS
 62
     7
 10
-261.97712010481303
 20
-24.574527998050371
 30
0.0
 11
-257.2771460447542
 21
-24.574527998050371
 31
0.0
  0
LINE
  5
19DEA
  8
KI
  6
CONTINUOUS
 62
     7
 10
-257.2771460447542
 20
-24.574529905399341
 30
0.0
 11
-255.27714604475409
 21
-25.274529714664361
 31
0.0
  0
LINE
  5
19DEB
  8
KI
  6
CONTINUOUS
 62
     7
 10
-264.23864811994912
 20
-26.474529523929391
 30
0.0
 11
-266.9771201048124
 21
-26.474529523929391
 31
0.0
  0
LINE
  5
19DEC
  8
KI
  6
CONTINUOUS
 62
     7
 10
-280.5771223936307
 20
-26.474529523929391
 30
0.0
 11
-283.31560200788851
 21
-26.474529523929391
 31
0.0
  0
LINE
  5
19DED
  8
KI
  6
CONTINUOUS
 62
     7
 10
-285.27712315657021
 20
-24.874527235111358
 30
0.0
 11
-285.27712315657021
 21
-27.574527998049799
 31
0.0
  0
LINE
  5
19DEE
  8
KI
  6
CONTINUOUS
 62
     7
 10
-290.27710408308309
 20
-24.574527998050371
 30
0.0
 11
-285.57712239362991
 21
-24.574527998050371
 31
0.0
  0
LINE
  5
19DEF
  8
KI
  6
CONTINUOUS
 62
     7
 10
-292.2771040830832
 20
-25.274528760989369
 30
0.0
 11
-290.27710217573508
 21
-24.574527998050371
 31
0.0
  0
ARC
  5
19DF0
  8
KI
  6
CONTINUOUS
 62
     7
 10
-263.27712315657021
 20
-25.795849104007289
 30
0.0
 40
0.2000000029802
 50
0.0
 51
135.00000034162241
  0
ARC
  5
19DF1
  8
KI
  6
CONTINUOUS
 62
     7
 10
-284.27712315657021
 20
-25.795849104007289
 30
0.0
 40
0.2000000029802
 50
45.000001252237183
 51
180.0000050089568
  0
ARC
  5
19DF2
  8
KI
  6
CONTINUOUS
 62
     7
 10
-285.57712239362991
 20
-24.874527235111358
 30
0.0
 40
0.3000000119209
 50
0.0
 51
90.000002504478417
  0
ARC
  5
19DF3
  8
KI
  6
CONTINUOUS
 62
     7
 10
-261.97712010481303
 20
-24.874527235111358
 30
0.0
 40
0.3000000119209
 50
90.000002504478417
 51
180.0000050089568
  0
ARC
  5
19DF4
  8
KI
  6
CONTINUOUS
 62
     7
 10
-280.5771223936307
 20
-26.774528760989369
 30
0.0
 40
0.3000000119209
 50
0.0
 51
90.000002504478417
  0
ARC
  5
19DF5
  8
KI
  6
CONTINUOUS
 62
     7
 10
-266.9771201048124
 20
-26.774528760989369
 30
0.0
 40
0.3000000119209
 50
90.000002504478417
 51
180.0000050089568
  0
ARC
  5
19DF6
  8
KI
  6
CONTINUOUS
 62
     7
 10
-284.8842322263942
 20
-23.774528760989359
 30
0.0
 40
0.5
 50
45.000001252237183
 51
90.000002504478417
  0
ARC
  5
19DF7
  8
KI
  6
CONTINUOUS
 62
     7
 10
-262.67001408674622
 20
-23.774528760989359
 30
0.0
 40
0.5
 50
90.000002504478417
 51
135.00000034162241
  0
ARC
  5
19DF8
  8
KI
  6
CONTINUOUS
 62
     7
 10
-279.27712315657021
 20
-25.674530286868389
 30
0.0
 40
0.5
 50
0.0
 51
90.000002504478417
  0
ARC
  5
19DF9
  8
KI
  6
CONTINUOUS
 62
     7
 10
-278.77712315657021
 20
-35.274528760989362
 30
0.0
 40
0.5
 50
179.99999134857859
 51
270.00000068324613
  0
ARC
  5
19DFA
  8
KI
  6
CONTINUOUS
 62
     7
 10
-279.27712315657021
 20
-35.774528760989362
 30
0.0
 40
1.0
 50
179.99999134857859
 51
270.00000068324613
  0
ARC
  5
19DFB
  8
KI
  6
CONTINUOUS
 62
     7
 10
-268.2771231565701
 20
-25.674530286868389
 30
0.0
 40
0.5
 50
90.000002504478417
 51
180.0000050089568
  0
ARC
  5
19DFC
  8
KI
  6
CONTINUOUS
 62
     7
 10
-268.77712315657021
 20
-35.274528760989362
 30
0.0
 40
0.5
 50
269.99999749552143
 51
0.0
  0
ARC
  5
19DFD
  8
KI
  6
CONTINUOUS
 62
     7
 10
-268.2771231565701
 20
-35.774528760989362
 30
0.0
 40
1.0
 50
269.99999749552143
 51
0.0
  0
ARC
  5
19DFE
  8
KI
  6
CONTINUOUS
 62
     7
 10
-262.67712468244929
 20
-27.574527998049799
 30
0.0
 40
0.4000000059605
 50
179.99999134857859
 51
0.0000100179073766
  0
ARC
  5
19DFF
  8
KI
  6
CONTINUOUS
 62
     7
 10
-284.87712544538829
 20
-27.574527998049799
 30
0.0
 40
0.4000000059605
 50
179.99999134857859
 51
0.0000100179073766
  0
LINE
  5
19E00
  8
KI
  6
CONTINUOUS
 62
     7
 10
-294.27712315657021
 20
-24.899149572632371
 30
0.0
 11
-294.27712315657021
 21
-25.274528760989369
 31
0.0
  0
LINE
  5
19E01
  8
KI
  6
CONTINUOUS
 62
     7
 10
-253.27712315657021
 20
-24.899155290306108
 30
0.0
 11
-253.27712315657021
 21
-25.274528760989369
 31
0.0
  0
ARC
  5
19E02
  8
KI
  6
CONTINUOUS
 62
     7
 10
-253.77712315657021
 20
-24.899155290306108
 30
0.0
 40
0.5
 50
0.0
 51
72.545611362732089
1001
GENIUS_GENODEF_13
1002
{
1000
HIER
1070
     0
1002
}
1002
{
1000
MANEDIT
1070
     0
1002
}
1002
{
1000
NOSEL
1070
     0
1002
}
1002
{
1000
BEHIND
1070
     0
1002
}
1002
{
1000
OTHER
1070
     0
1002
}
1002
{
1000
REACTOR
1002
}
1001
GENIUS_GENOBJ-N-FIL_13
1002
{
1000
OWNER
1000
GEN
1002
}
  0
ARC
  5
19E03
  8
KI
  6
CONTINUOUS
 62
     7
 10
-293.77712315657021
 20
-24.899149572632371
 30
0.0
 40
0.5
 50
107.4543922104195
 51
180.0
1001
GENIUS_GENODEF_13
1002
{
1000
HIER
1070
     0
1002
}
1002
{
1000
MANEDIT
1070
     0
1002
}
1002
{
1000
NOSEL
1070
     0
1002
}
1002
{
1000
BEHIND
1070
     0
1002
}
1002
{
1000
OTHER
1070
     0
1002
}
1002
{
1000
REACTOR
1002
}
1001
GENIUS_GENOBJ-N-FIL_13
1002
{
1000
OWNER
1000
GEN
1002
}
  0
LINE
  5
19E04
  8
KI
  6
CONTINUOUS
 62
     7
 10
-365.27712315657021
 20
-172.12646969640139
 30
0.0
 11
-312.27712315657021
 21
-172.12646969640139
 31
0.0
  0
LINE
  5
19E05
  8
KI
  6
CONTINUOUS
 62
     7
 10
-362.77712315657021
 20
-157.12646969640139
 30
0.0
 11
-221.7771231565701
 21
-157.12646969640139
 31
0.0
  0
LINE
  5
19E06
  8
KI
  6
CONTINUOUS
 62
     7
 10
-219.2771231565699
 20
-159.62647160375039
 30
0.0
 11
-219.2771231565699
 21
-172.12646969640139
 31
0.0
  0
LINE
  5
19E07
  8
KI
  6
CONTINUOUS
 62
     7
 10
-365.27712315657021
 20
-159.6264696964017
 30
0.0
 11
-365.27712315657021
 21
-172.12646969640139
 31
0.0
  0
LINE
  5
19E08
  8
KI
  6
CONTINUOUS
 62
     7
 10
-365.27711552717523
 20
-159.6264563449615
 30
0.0
 11
-362.77712315657021
 21
-157.12646492803071
 31
0.0
  0
LINE
  5
19E09
  8
KI
  6
CONTINUOUS
 62
     7
 10
-221.77713078596511
 20
-157.12646397435671
 30
0.0
 11
-219.27713841536001
 21
-159.6264563449615
 31
0.0
  0
LINE
  5
19E0A
  8
KI
  6
CONTINUOUS
 62
     7
 10
-272.2771231565701
 20
-168.62646969640139
 30
0.0
 11
-272.2771231565701
 21
-172.12646969640139
 31
0.0
  0
LINE
  5
19E0B
  8
KI
  6
CONTINUOUS
 62
     7
 10
-312.27712315657021
 20
-168.62646969640139
 30
0.0
 11
-312.27712315657021
 21
-172.12646969640139
 31
0.0
  0
LINE
  5
19E0C
  8
KI
  6
CONTINUOUS
 62
     7
 10
-312.27712315657021
 20
-168.62646969640139
 30
0.0
 11
-272.2771231565701
 21
-168.62646969640139
 31
0.0
  0
LINE
  5
19E0D
  8
KI
  6
CONTINUOUS
 62
     7
 10
-272.2771231565701
 20
-172.12646969640139
 30
0.0
 11
-219.2771231565699
 21
-172.12646969640139
 31
0.0
  0
LINE
  5
19E0E
  8
SU
  6
CONTINUOUS
 62
     3
 10
228.2138436107675
 20
-43.646509419204989
 30
0.0
 11
228.2138436107675
 21
-73.146521045043187
 31
0.0
  0
LINE
  5
19E0F
  8
SU
  6
CONTINUOUS
 62
     3
 10
228.2138436107675
 20
-70.146521045043187
 30
0.0
 11
225.81384361076749
 21
-70.146521045043187
 31
0.0
  0
LINE
  5
19E10
  8
SU
  6
CONTINUOUS
 62
     3
 10
229.2138436107675
 20
-70.146521045043187
 30
0.0
 11
237.4043198012439
 21
-70.146521045043187
 31
0.0
  0
LINE
  5
19E11
  8
SU
  6
CONTINUOUS
 62
     3
 10
228.2138436107675
 20
-70.146521045043187
 30
0.0
 11
229.2138436107675
 21
-70.146521045043187
 31
0.0
  0
LINE
  5
19E12
  8
SU
  6
CONTINUOUS
 62
     3
 10
-240.27712315657001
 20
-26.574528951724211
 30
0.0
 11
-240.27712315657001
 21
-60.574528951723387
 31
0.0
  0
LINE
  5
19E13
  8
SU
  6
CONTINUOUS
 62
     3
 10
-240.27712315657001
 20
-57.57452895172338
 30
0.0
 11
-216.2771231565701
 21
-57.57452895172338
 31
0.0
  0
LINE
  5
19E14
  8
SU
  6
CONTINUOUS
 62
     3
 10
-222.7771231565701
 20
121.9254715667758
 30
0.0
 11
-178.27712315656871
 21
121.9254715667758
 31
0.0
  0
LINE
  5
19E15
  8
SU
  6
CONTINUOUS
 62
     3
 10
-181.27712315656871
 20
128.92547156677571
 30
0.0
 11
-181.27712315656871
 21
121.9254715667758
 31
0.0
  0
LINE
  5
19E16
  8
SU
  6
CONTINUOUS
 62
     3
 10
388.51440614951912
 20
-121.1465210450433
 30
0.0
 11
398.51440614951912
 21
-115.1465210450433
 31
0.0
  0
LINE
  5
19E17
  8
SU
  6
CONTINUOUS
 62
     3
 10
388.51440614951912
 20
-109.1465210450432
 30
0.0
 11
398.51440614951912
 21
-115.1465210450433
 31
0.0
  0
LINE
  5
19E18
  8
SU
  6
CONTINUOUS
 62
     3
 10
388.51440614951912
 20
-121.1465210450433
 30
0.0
 11
388.51440614951912
 21
-109.1465210450432
 31
0.0
  0
LINE
  5
19E19
  8
SU
  6
CONTINUOUS
 62
     3
 10
374.51422942239611
 20
-100.1465210450433
 30
0.0
 11
398.51422943798502
 21
-100.1465210450433
 31
0.0
  0
LINE
  5
19E1A
  8
SU
  6
CONTINUOUS
 62
     3
 10
-13.48559385048058
 20
-5.6465094192209371
 30
0.0
 11
8.5144061495194094
 21
-5.6465094192209442
 31
0.0
  0
LINE
  5
19E1B
  8
SU
  6
CONTINUOUS
 62
     3
 10
-13.48559385048058
 20
18.353490580781401
 30
0.0
 11
8.5144061495194165
 21
18.353490580781401
 31
0.0
  0
LINE
  5
19E1C
  8
SU
  6
CONTINUOUS
 62
     3
 10
5.5144061495194112
 20
-5.6465094192209424
 30
0.0
 11
5.514406149519413
 21
18.353490580781401
 31
0.0
  0
LINE
  5
19E1D
  8
SU
  6
CONTINUOUS
 62
     3
 10
5.5144061495194121
 20
-9.6465094192049143
 30
0.0
 11
5.514406149519413
 21
-5.6465094192209424
 31
0.0
  0
LINE
  5
19E1E
  8
SU
  6
CONTINUOUS
 62
     3
 10
5.5144061495194121
 20
-7.6465094192129284
 30
0.0
 11
20.514406149519392
 21
-2.6371365317535922
 31
0.0
  0
LINE
  5
19E1F
  8
SU
  6
CONTINUOUS
 62
     3
 10
20.514406149519392
 20
-2.6371365317535922
 30
0.0
 11
20.514406149519392
 21
2.334292039674978
 31
0.0
  0
LINE
  5
19E20
  8
SU
  6
CONTINUOUS
 62
     3
 10
5.514406149519421
 20
-9.6465094192049143
 30
0.0
 11
5.514406149519413
 21
-42.646509419204911
 31
0.0
  0
LINE
  5
19E21
  8
SU
  6
CONTINUOUS
 62
     3
 10
5.5144061495194174
 20
-42.646509419204911
 30
0.0
 11
5.514406149519413
 21
-50.146509419221061
 31
0.0
  0
LINE
  5
19E22
  8
SU
  6
CONTINUOUS
 62
     3
 10
5.514406149519413
 20
-50.146509419221061
 30
0.0
 11
5.5144061495194121
 21
-62.102699895411533
 31
0.0
  0
LINE
  5
19E23
  8
SU
  6
CONTINUOUS
 62
     3
 10
-41.485593850480811
 20
-121.1465210450433
 30
0.0
 11
-51.485593850480818
 21
-115.1465210450433
 31
0.0
  0
LINE
  5
19E24
  8
SU
  6
CONTINUOUS
 62
     3
 10
-41.485593850480811
 20
-109.1465210450432
 30
0.0
 11
-51.485593850480818
 21
-115.1465210450433
 31
0.0
  0
LINE
  5
19E25
  8
SU
  6
CONTINUOUS
 62
     3
 10
-41.485593850480811
 20
-121.1465210450433
 30
0.0
 11
-41.485593850480811
 21
-109.1465210450432
 31
0.0
  0
LINE
  5
19E26
  8
SU
  6
CONTINUOUS
 62
     3
 10
-27.485593850480811
 20
-51.146509419220479
 30
0.0
 11
-27.485593850480811
 21
-103.1465210450432
 31
0.0
  0
LINE
  5
19E27
  8
SU
  6
CONTINUOUS
 62
     3
 10
-23.485593834894122
 20
-100.1465210450433
 30
0.0
 11
-27.485593850480811
 21
-100.1465210450433
 31
0.0
  0
LINE
  5
19E28
  8
SU
  6
CONTINUOUS
 62
     3
 10
-25.485593842687472
 20
-100.1465210450433
 30
0.0
 11
-20.785593834894119
 21
-85.146521045043301
 31
0.0
  0
LINE
  5
19E29
  8
SU
  6
CONTINUOUS
 62
     3
 10
-20.785593834894119
 20
-85.146521045043301
 30
0.0
 11
-15.81416526346556
 21
-85.146521045043301
 31
0.0
  0
LINE
  5
19E2A
  8
SU
  6
CONTINUOUS
 62
     3
 10
-27.485593834894122
 20
-100.1465210450433
 30
0.0
 11
-51.485593850481052
 21
-100.1465210450433
 31
0.0
  0
LINE
  5
19E2B
  8
SU
  6
CONTINUOUS
 62
     3
 10
228.2138436107675
 20
-70.146521045043187
 30
0.0
 11
-23.485593834893638
 21
-70.146521045043187
 31
0.0
  0
LINE
  5
19E2C
  8
SU
  6
CONTINUOUS
 62
     3
 10
-51.485593850480811
 20
-51.14650941922104
 30
0.0
 11
-51.485593850480811
 21
-118.1465210450433
 31
0.0
  0
LINE
  5
19E2D
  8
SU
  6
CONTINUOUS
 62
     3
 10
398.51440614951912
 20
-51.14650941922104
 30
0.0
 11
398.51440614951912
 21
-118.1465210450433
 31
0.0
  0
LINE
  5
19E2E
  8
SU
  6
CONTINUOUS
 62
     3
 10
-51.485593850480811
 20
-115.1465210450433
 30
0.0
 11
398.51440614951912
 21
-115.1465210450433
 31
0.0
  0
LINE
  5
19E2F
  8
SU
  6
CONTINUOUS
 62
     3
 10
374.51422943798309
 20
-51.146521045041382
 30
0.0
 11
374.51422943798309
 21
-103.1465210450432
 31
0.0
  0
LINE
  5
19E30
  8
SU
  6
CONTINUOUS
 62
     3
 10
368.51422943798508
 20
-100.1465210450433
 30
0.0
 11
374.51422943798309
 21
-100.1465210450433
 31
0.0
  0
LINE
  5
19E31
  8
SU
  6
CONTINUOUS
 62
     3
 10
368.51422943798508
 20
-43.646509419206247
 30
0.0
 11
368.51422943798508
 21
-103.1465210450432
 31
0.0
  0
LINE
  5
19E32
  8
SU
  6
CONTINUOUS
 62
     3
 10
-23.485593834893638
 20
-43.646509419206247
 30
0.0
 11
-23.485593834893638
 21
-103.1465210450432
 31
0.0
  0
LINE
  5
19E33
  8
SU
  6
CONTINUOUS
 62
     3
 10
368.51422943798508
 20
-100.1465210450433
 30
0.0
 11
-23.485593834893638
 21
-100.1465210450433
 31
0.0
  0
LINE
  5
19E34
  8
SU
  6
CONTINUOUS
 62
     3
 10
229.2138436107675
 20
-43.646509419204989
 30
0.0
 11
229.2138436107675
 21
-73.146521045043187
 31
0.0
  0
LINE
  5
19E35
  8
SU
  6
CONTINUOUS
 62
     3
 10
368.51422943798508
 20
-70.146521045043187
 30
0.0
 11
229.2138436107675
 21
-70.146521045043187
 31
0.0
  0
LINE
  5
19E36
  8
SU
  6
CONTINUOUS
 62
     3
 10
-27.48559385048058
 20
117.8534905807788
 30
0.0
 11
-27.48559385048058
 21
139.85349058077861
 31
0.0
  0
LINE
  5
19E37
  8
SU
  6
CONTINUOUS
 62
     3
 10
-14.48559385048056
 20
19.35349058077859
 30
0.0
 11
-14.48559385048056
 21
139.85349058077861
 31
0.0
  0
LINE
  5
19E38
  8
SU
  6
CONTINUOUS
 62
     3
 10
-27.48559385048058
 20
136.85349058077861
 30
0.0
 11
-14.48559385048056
 21
136.85349058077861
 31
0.0
  0
LINE
  5
19E39
  8
SU
  6
CONTINUOUS
 62
     3
 10
-26.485593850480569
 20
116.8534905807789
 30
0.0
 11
37.51440859804832
 21
116.8534905807789
 31
0.0
  0
LINE
  5
19E3A
  8
SU
  6
CONTINUOUS
 62
     3
 10
-26.485593850480811
 20
-50.146509419221047
 30
0.0
 11
37.51440859804832
 21
-50.146509419221061
 31
0.0
  0
LINE
  5
19E3B
  8
SU
  6
CONTINUOUS
 62
     3
 10
34.514408598048348
 20
116.8534905807789
 30
0.0
 11
34.51440859804832
 21
-50.146509419221061
 31
0.0
  0
LINE
  5
19E3C
  8
SU
  6
CONTINUOUS
 62
     3
 10
374.5142294379848
 20
117.8534905807788
 30
0.0
 11
374.5142294379848
 21
139.85349058077861
 31
0.0
  0
LINE
  5
19E3D
  8
SU
  6
CONTINUOUS
 62
     3
 10
361.5142294379848
 20
19.353488212415868
 30
0.0
 11
361.5142294379848
 21
139.85349058077861
 31
0.0
  0
LINE
  5
19E3E
  8
SU
  6
CONTINUOUS
 62
     3
 10
374.5142294379848
 20
136.85349058077861
 30
0.0
 11
361.5142294379848
 21
136.85349058077861
 31
0.0
  0
LINE
  5
19E3F
  8
SU
  6
CONTINUOUS
 62
     3
 10
5.514406149519397
 20
18.353490580781401
 30
0.0
 11
5.5144061495194192
 21
116.8534905807789
 31
0.0
  0
LINE
  5
19E40
  8
SU
  6
CONTINUOUS
 62
     3
 10
-172.27712315657001
 20
164.42547104827551
 30
0.0
 11
-166.2771231565699
 21
174.42547104827551
 31
0.0
  0
LINE
  5
19E41
  8
SU
  6
CONTINUOUS
 62
     3
 10
-160.27712315656979
 20
164.42547104827551
 30
0.0
 11
-166.2771231565699
 21
174.42547104827551
 31
0.0
  0
LINE
  5
19E42
  8
SU
  6
CONTINUOUS
 62
     3
 10
-172.27712315657001
 20
164.42547104827551
 30
0.0
 11
-160.27712315656979
 21
164.42547104827551
 31
0.0
  0
LINE
  5
19E43
  8
SU
  6
CONTINUOUS
 62
     3
 10
-122.4855962990097
 20
93.353490580779294
 30
0.0
 11
-122.4855962990097
 21
105.85349058077919
 31
0.0
  0
LINE
  5
19E44
  8
SU
  6
CONTINUOUS
 62
     3
 10
-122.4855962990097
 20
105.85349058077919
 30
0.0
 11
-122.4855962990097
 21
128.5849752704377
 31
0.0
  0
LINE
  5
19E45
  8
SU
  6
CONTINUOUS
 62
     3
 10
-239.77712315657001
 20
235.4254710482833
 30
0.0
 11
-227.27712315657001
 21
235.4254710482833
 31
0.0
  0
LINE
  5
19E46
  8
SU
  6
CONTINUOUS
 62
     3
 10
-227.27712315657001
 20
235.4254710482833
 30
0.0
 11
-204.54563846691141
 21
235.4254710482833
 31
0.0
  0
LINE
  5
19E47
  8
SU
  6
CONTINUOUS
 62
     3
 10
-227.27712315657001
 20
216.42547104828341
 30
0.0
 11
-227.27712315657001
 21
253.4254710482835
 31
0.0
  0
LINE
  5
19E48
  8
SU
  6
CONTINUOUS
 62
     3
 10
-216.27712315657001
 20
175.42547104827551
 30
0.0
 11
-216.27712315657001
 21
253.4254710482835
 31
0.0
  0
LINE
  5
19E49
  8
SU
  6
CONTINUOUS
 62
     3
 10
-227.27712315657001
 20
250.4254710482835
 30
0.0
 11
-216.27712315657001
 21
250.4254710482835
 31
0.0
  0
LINE
  5
19E4A
  8
SU
  6
CONTINUOUS
 62
     3
 10
-223.7771231565701
 20
89.925470882292629
 30
0.0
 11
-219.2771231565699
 21
89.925470882292629
 31
0.0
  0
LINE
  5
19E4B
  8
SU
  6
CONTINUOUS
 62
     3
 10
-219.2771231565699
 20
89.925470882292629
 30
0.0
 11
-207.3209326803794
 21
89.925470882292629
 31
0.0
  0
LINE
  5
19E4C
  8
SU
  6
CONTINUOUS
 62
     3
 10
-260.77712315656998
 20
89.925470882292629
 30
0.0
 11
-256.77712315656998
 21
89.925470882292629
 31
0.0
  0
LINE
  5
19E4D
  8
SU
  6
CONTINUOUS
 62
     3
 10
-256.77712315656998
 20
89.925470882292629
 30
0.0
 11
-223.7771231565701
 21
89.925470882292629
 31
0.0
  0
LINE
  5
19E4E
  8
SU
  6
CONTINUOUS
 62
     3
 10
-284.7771231565701
 20
89.925470882292629
 30
0.0
 11
-260.77712315656998
 21
89.925470882292629
 31
0.0
  0
LINE
  5
19E4F
  8
SU
  6
CONTINUOUS
 62
     3
 10
-219.2771231565699
 20
74.925470882292643
 30
0.0
 11
-216.27712315657001
 21
74.925470882292643
 31
0.0
  0
LINE
  5
19E50
  8
SU
  6
CONTINUOUS
 62
     3
 10
-216.27712315657001
 20
74.925470882292643
 30
0.0
 11
-209.0637898232367
 21
74.925470882292643
 31
0.0
  0
LINE
  5
19E51
  8
SU
  6
CONTINUOUS
 62
     3
 10
-218.27712315657001
 20
150.42547104827551
 30
0.0
 11
-178.27712315656871
 21
150.42547104827551
 31
0.0
  0
LINE
  5
19E52
  8
SU
  6
CONTINUOUS
 62
     3
 10
-181.27712315656871
 20
150.42547104827551
 30
0.0
 11
-181.27712315656871
 21
174.42547104827551
 31
0.0
  0
LINE
  5
19E53
  8
SU
  6
CONTINUOUS
 62
     3
 10
-225.2771231565705
 20
128.9254715667758
 30
0.0
 11
-178.27712315656871
 21
128.92547156677571
 31
0.0
  0
LINE
  5
19E54
  8
SU
  6
CONTINUOUS
 62
     3
 10
-181.27712315656871
 20
128.92547156677571
 30
0.0
 11
-181.27712315656871
 21
150.42547104827551
 31
0.0
  0
LINE
  5
19E55
  8
SU
  6
CONTINUOUS
 62
     3
 10
-359.7771231565701
 20
235.4254710482833
 30
0.0
 11
-372.27712315657021
 21
235.4254710482833
 31
0.0
  0
LINE
  5
19E56
  8
SU
  6
CONTINUOUS
 62
     3
 10
-372.27712315657021
 20
235.4254710482833
 30
0.0
 11
-395.0086078462287
 21
235.4254710482833
 31
0.0
  0
LINE
  5
19E57
  8
SU
  6
CONTINUOUS
 62
     3
 10
-372.27712315657021
 20
216.42547104828341
 30
0.0
 11
-372.27712315657021
 21
253.4254710482835
 31
0.0
  0
LINE
  5
19E58
  8
SU
  6
CONTINUOUS
 62
     3
 10
-383.27712315657021
 20
175.42547104827551
 30
0.0
 11
-383.27712315657021
 21
253.4254710482835
 31
0.0
  0
LINE
  5
19E59
  8
SU
  6
CONTINUOUS
 62
     3
 10
-372.27712315657021
 20
250.4254710482835
 30
0.0
 11
-383.27712315657021
 21
250.4254710482835
 31
0.0
  0
LINE
  5
19E5A
  8
SU
  6
CONTINUOUS
 62
     3
 10
-380.27712315657033
 20
74.925470882292643
 30
0.0
 11
-383.27712315657021
 21
74.925470882292643
 31
0.0
  0
LINE
  5
19E5B
  8
SU
  6
CONTINUOUS
 62
     3
 10
-383.27712315657021
 20
74.925470882292643
 30
0.0
 11
-390.49045648990341
 21
74.925470882292643
 31
0.0
  0
LINE
  5
19E5C
  8
SU
  6
CONTINUOUS
 62
     3
 10
-219.2771231565699
 20
149.42547104827551
 30
0.0
 11
-219.2771231565699
 21
71.925470882292643
 31
0.0
  0
LINE
  5
19E5D
  8
SU
  6
CONTINUOUS
 62
     3
 10
-380.27712315657033
 20
149.42547104827551
 30
0.0
 11
-380.27712315657033
 21
71.925470882292643
 31
0.0
  0
LINE
  5
19E5E
  8
SU
  6
CONTINUOUS
 62
     3
 10
-219.2771231565699
 20
74.925470882292643
 30
0.0
 11
-380.27712315657033
 21
74.925470882292643
 31
0.0
  0
LINE
  5
19E5F
  8
SU
  6
CONTINUOUS
 62
     3
 10
-380.27712315657033
 20
89.925470882292629
 30
0.0
 11
-284.7771231565701
 21
89.925470882292629
 31
0.0
  0
LINE
  5
19E60
  8
SU
  6
CONTINUOUS
 62
     3
 10
-227.27712315657001
 20
250.4254710482835
 30
0.0
 11
-372.27706667785799
 21
250.4254710482835
 31
0.0
  0
LINE
  5
19E61
  8
SU
  6
CONTINUOUS
 62
     3
 10
-359.77706667785799
 20
216.425471376041
 30
0.0
 11
-359.77706667785799
 21
238.4254710482835
 31
0.0
  0
LINE
  5
19E62
  8
SU
  6
CONTINUOUS
 62
     3
 10
-239.77712315657001
 20
216.42547104828341
 30
0.0
 11
-239.77712315657001
 21
238.4254710482835
 31
0.0
  0
LINE
  5
19E63
  8
SU
  6
CONTINUOUS
 62
     3
 10
-359.77706667785799
 20
235.4254710482833
 30
0.0
 11
-239.77712315657001
 21
235.4254710482833
 31
0.0
  0
LINE
  5
19E64
  8
SU
  6
CONTINUOUS
 62
     3
 10
-122.4855962990097
 20
-26.646509419220571
 30
0.0
 11
-122.4855962990097
 21
-39.146509419220592
 31
0.0
  0
LINE
  5
19E65
  8
SU
  6
CONTINUOUS
 62
     3
 10
-122.4855962990097
 20
-39.146509419220592
 30
0.0
 11
-122.4855962990097
 21
-61.877994108879001
 31
0.0
  0
LINE
  5
19E66
  8
SU
  6
CONTINUOUS
 62
     3
 10
-172.2771231565701
 20
-15.574528951724339
 30
0.0
 11
-166.2771231565701
 21
-25.574528951724329
 31
0.0
  0
LINE
  5
19E67
  8
SU
  6
CONTINUOUS
 62
     3
 10
-160.2771231565701
 20
-15.574528951724339
 30
0.0
 11
-166.2771231565701
 21
-25.574528951724329
 31
0.0
  0
LINE
  5
19E68
  8
SU
  6
CONTINUOUS
 62
     3
 10
-172.2771231565701
 20
-15.574528951724339
 30
0.0
 11
-160.2771231565701
 21
-15.574528951724339
 31
0.0
  0
LINE
  5
19E69
  8
SU
  6
CONTINUOUS
 62
     3
 10
-198.77712315657021
 20
-37.574528951724218
 30
0.0
 11
-163.2771231565699
 21
-37.574528951724218
 31
0.0
  0
LINE
  5
19E6A
  8
SU
  6
CONTINUOUS
 62
     3
 10
-166.2771231565701
 20
-25.574528951724211
 30
0.0
 11
-166.2771231565701
 21
-37.574528951724218
 31
0.0
  0
LINE
  5
19E6B
  8
SU
  6
CONTINUOUS
 62
     3
 10
-172.2771231565699
 20
-150.12646969638541
 30
0.0
 11
-166.2771231565699
 21
-160.12646969638541
 31
0.0
  0
LINE
  5
19E6C
  8
SU
  6
CONTINUOUS
 62
     3
 10
-160.27712315656979
 20
-150.12646969638541
 30
0.0
 11
-166.2771231565699
 21
-160.12646969638541
 31
0.0
  0
LINE
  5
19E6D
  8
SU
  6
CONTINUOUS
 62
     3
 10
-172.2771231565699
 20
-150.12646969638541
 30
0.0
 11
-160.27712315656979
 21
-150.12646969638541
 31
0.0
  0
LINE
  5
19E6E
  8
SU
  6
CONTINUOUS
 62
     3
 10
-287.5806684074019
 20
-23.274528364395788
 30
0.0
 11
-289.36457310096392
 21
-21.639880882209049
 31
0.0
  0
LINE
  5
19E6F
  8
SU
  6
CONTINUOUS
 62
     3
 10
-287.5806684074019
 20
-23.274528364395788
 30
0.0
 11
-288.88106690015849
 21
-21.23331160581068
 31
0.0
  0
LINE
  5
19E70
  8
SU
  6
CONTINUOUS
 62
     3
 10
-294.27712315657033
 20
-24.274528760997288
 30
0.0
 11
-294.27712315657033
 21
-0.4745288086810149
 31
0.0
  0
LINE
  5
19E71
  8
SU
  6
CONTINUOUS
 62
     3
 10
-253.2771231565703
 20
-23.899155290314042
 30
0.0
 11
-253.2771231565703
 21
-0.4745288086810149
 31
0.0
  0
LINE
  5
19E72
  8
SU
  6
CONTINUOUS
 62
     3
 10
-294.27712315657033
 20
-3.4745288086810122
 30
0.0
 11
-253.2771231565703
 21
-3.4745288086810122
 31
0.0
  0
LINE
  5
19E73
  8
SU
  6
CONTINUOUS
 62
     3
 10
-258.60210062094569
 20
-168.209144712284
 30
0.0
 11
-260.38600531450788
 21
-166.57449723009731
 31
0.0
  0
LINE
  5
19E74
  8
SU
  6
CONTINUOUS
 62
     3
 10
-258.60210062094569
 20
-168.209144712284
 30
0.0
 11
-259.90249911370239
 21
-166.16792795369901
 31
0.0
  0
LINE
  5
19E75
  8
SU
  6
CONTINUOUS
 62
     3
 10
-286.27712315657033
 20
-38.574528951724432
 30
0.0
 11
-286.27712315657033
 21
-75.574528951723394
 31
0.0
  0
LINE
  5
19E76
  8
SU
  6
CONTINUOUS
 62
     3
 10
-261.27712315657033
 20
-38.574528951723963
 30
0.0
 11
-261.27712315657033
 21
-75.574528951723394
 31
0.0
  0
LINE
  5
19E77
  8
SU
  6
CONTINUOUS
 62
     3
 10
-286.27712315657033
 20
-72.574528951723394
 30
0.0
 11
-261.27712315657033
 21
-72.574528951723394
 31
0.0
  0
LINE
  5
19E78
  8
SU
  6
CONTINUOUS
 62
     3
 10
-216.2771231565701
 20
-38.574528951716033
 30
0.0
 11
-216.2771231565701
 21
-75.574528951723394
 31
0.0
  0
LINE
  5
19E79
  8
SU
  6
CONTINUOUS
 62
     3
 10
-216.2771231565701
 20
-72.574528951723394
 30
0.0
 11
-261.27712316569762
 21
-72.574528951723394
 31
0.0
  0
LINE
  5
19E7A
  8
SU
  6
CONTINUOUS
 62
     3
 10
-181.27759070165101
 20
-149.1264696964017
 30
0.0
 11
-181.27759070165101
 21
-157.1264639743404
 31
0.0
  0
LINE
  5
19E7B
  8
SU
  6
CONTINUOUS
 62
     3
 10
-222.77712327007271
 20
-149.1264696964015
 30
0.0
 11
-178.27712315656851
 21
-149.1264696964017
 31
0.0
  0
LINE
  5
19E7C
  8
SU
  6
CONTINUOUS
 62
     3
 10
-181.27712315656839
 20
-85.126469696385541
 30
0.0
 11
-181.27712315656839
 21
-149.1264696964017
 31
0.0
  0
LINE
  5
19E7D
  8
SU
  6
CONTINUOUS
 62
     3
 10
-198.7771231565701
 20
-160.12646969640139
 30
0.0
 11
-163.2771231565699
 21
-160.12646969640139
 31
0.0
  0
LINE
  5
19E7E
  8
SU
  6
CONTINUOUS
 62
     3
 10
-166.2771231565699
 20
-85.126469696385584
 30
0.0
 11
-166.2771231565699
 21
-160.12646969640139
 31
0.0
  0
LINE
  5
19E7F
  8
SU
  6
CONTINUOUS
 62
     3
 10
-216.2771231656973
 20
-173.12646969639911
 30
0.0
 11
-216.2771231656973
 21
-210.1264696963926
 31
0.0
  0
LINE
  5
19E80
  8
SU
  6
CONTINUOUS
 62
     3
 10
-216.2771231656973
 20
-207.12646969639249
 30
0.0
 11
-219.27712327007271
 21
-207.12646969639249
 31
0.0
  0
LINE
  5
19E81
  8
SU
  6
CONTINUOUS
 62
     3
 10
-219.27712327007271
 20
-207.12646969639249
 30
0.0
 11
-226.49045660340599
 21
-207.12646969639249
 31
0.0
  0
LINE
  5
19E82
  8
SU
  6
CONTINUOUS
 62
     3
 10
-218.2771231565701
 20
-157.1264639743404
 30
0.0
 11
-178.27759070165101
 21
-157.1264639743404
 31
0.0
  0
LINE
  5
19E83
  8
SU
  6
CONTINUOUS
 62
     3
 10
-181.27759070165101
 20
-157.1264639743404
 30
0.0
 11
-181.27759070165101
 21
-160.12646969640139
 31
0.0
  0
LINE
  5
19E84
  8
SU
  6
CONTINUOUS
 62
     3
 10
-181.27759070165101
 20
-160.12646969640139
 30
0.0
 11
-181.27759070165101
 21
-167.3398030297349
 31
0.0
  0
LINE
  5
19E85
  8
SU
  6
CONTINUOUS
 62
     3
 10
-198.7771231565701
 20
-172.12646969640139
 30
0.0
 11
-163.2771231565699
 21
-172.12646969640139
 31
0.0
  0
LINE
  5
19E86
  8
SU
  6
CONTINUOUS
 62
     3
 10
-166.2771231565699
 20
-160.12646969640139
 30
0.0
 11
-166.2771231565699
 21
-172.12646969640139
 31
0.0
  0
LINE
  5
19E87
  8
SU
  6
CONTINUOUS
 62
     3
 10
-383.2771231565701
 20
-173.12646969640139
 30
0.0
 11
-383.2771231565701
 21
-210.1264696963926
 31
0.0
  0
LINE
  5
19E88
  8
SU
  6
CONTINUOUS
 62
     3
 10
-383.2771231565701
 20
-207.12646969639249
 30
0.0
 11
-365.27712327007271
 21
-207.12646969639249
 31
0.0
  0
LINE
  5
19E89
  8
SU
  6
CONTINUOUS
 62
     3
 10
-365.27712327007271
 20
-173.12646969638541
 30
0.0
 11
-365.27712327007271
 21
-210.1264696963926
 31
0.0
  0
LINE
  5
19E8A
  8
SU
  6
CONTINUOUS
 62
     3
 10
-219.27712326094519
 20
-173.12646969638541
 30
0.0
 11
-219.27712326094519
 21
-210.1264696963926
 31
0.0
  0
LINE
  5
19E8B
  8
SU
  6
CONTINUOUS
 62
     3
 10
-365.27712327007271
 20
-207.12646969639249
 30
0.0
 11
-219.27712326094519
 21
-207.12646969639249
 31
0.0
  0
LINE
  5
19E8C
  8
SU
  6
CONTINUOUS
 62
     3
 10
-215.27712315657001
 20
174.42547104827551
 30
0.0
 11
-163.2771231565699
 21
174.42547104827551
 31
0.0
  0
LINE
  5
19E8D
  8
SU
  6
CONTINUOUS
 62
     3
 10
-198.77712315657021
 20
-25.574528951724211
 30
0.0
 11
-163.2771231565699
 21
-25.574528951724211
 31
0.0
  0
LINE
  5
19E8E
  8
SU
  6
CONTINUOUS
 62
     3
 10
-166.2771231565701
 20
174.42547104827551
 30
0.0
 11
-166.2771231565701
 21
-25.574528951724211
 31
0.0
  0
LINE
  5
19E8F
  8
SU
  6
CONTINUOUS
 62
     3
 10
-222.7771231565701
 20
-17.574528433224131
 30
0.0
 11
-178.27712315656871
 21
-17.57452843322416
 31
0.0
  0
LINE
  5
19E90
  8
SU
  6
CONTINUOUS
 62
     3
 10
-181.27712315656871
 20
121.9254715667758
 30
0.0
 11
-181.27712315656871
 21
-17.57452843322416
 31
0.0
  0
LINE
  5
19E91
  8
SU
  6
CONTINUOUS
 62
     3
 10
-103.4855962990097
 20
-26.646509419220571
 30
0.0
 11
-125.4855962990097
 21
-26.646509419220571
 31
0.0
  0
LINE
  5
19E92
  8
SU
  6
CONTINUOUS
 62
     3
 10
-103.4855962990095
 20
93.353543085848955
 30
0.0
 11
-125.4855962990097
 21
93.353543085848983
 31
0.0
  0
LINE
  5
19E93
  8
SU
  6
CONTINUOUS
 62
     3
 10
-122.4855962990097
 20
-26.646509419220571
 30
0.0
 11
-122.4855962990097
 21
93.353543085848983
 31
0.0
  0
LINE
  5
19E94
  8
SU
  6
CONTINUOUS
 62
     3
 10
-137.4855962990093
 20
105.8535430858487
 30
0.0
 11
-137.48559629900939
 21
-39.146509419220592
 31
0.0
  0
LINE
  5
19E95
  8
SU
  6
CONTINUOUS
 62
     3
 10
-103.4855962990097
 20
-39.146509419220592
 30
0.0
 11
-140.4855962990095
 21
-39.146509419220578
 31
0.0
  0
LINE
  5
19E96
  8
SU
  6
CONTINUOUS
 62
     3
 10
-52.485593850480811
 20
-50.146509419221047
 30
0.0
 11
-140.4855962990095
 21
-50.146509419221019
 31
0.0
  0
LINE
  5
19E97
  8
SU
  6
CONTINUOUS
 62
     3
 10
-137.48559629900939
 20
-39.146509419220592
 30
0.0
 11
-137.48559629900939
 21
-50.146509419221019
 31
0.0
  0
LINE
  5
19E98
  8
SU
  6
CONTINUOUS
 62
     3
 10
-103.4855962990097
 20
105.85349058077919
 30
0.0
 11
-140.4855962990095
 21
105.85349058077919
 31
0.0
  0
LINE
  5
19E99
  8
SU
  6
CONTINUOUS
 62
     3
 10
-52.485593850480811
 20
116.8534905807789
 30
0.0
 11
-140.4855962990095
 21
116.8534905807789
 31
0.0
  0
LINE
  5
19E9A
  8
SU
  6
CONTINUOUS
 62
     3
 10
-137.48559629900939
 20
105.85349058077919
 30
0.0
 11
-137.48559629900939
 21
116.8534905807789
 31
0.0
  0
TEXT
  5
19E9B
  8
SU
  6
CONTINUOUS
 62
     3
 10
-138.78559629900971
 20
108.4287286760172
 30
0.0
 40
4.0
  1
11
 50
90.0
 41
0.8299999999999999
  0
TEXT
  5
19E9C
  8
SU
  6
CONTINUOUS
 62
     3
 10
-138.78559629900971
 20
-47.571271323982728
 30
0.0
 40
4.0
  1
11
 50
90.0
 41
0.8299999999999999
  0
TEXT
  5
19E9D
  8
SU
  6
CONTINUOUS
 62
     3
 10
-138.78559629900971
 20
28.373516833314181
 30
0.0
 40
4.0
  1
145
 50
90.0
 41
0.8299999999999999
  0
TEXT
  5
19E9E
  8
SU
  6
CONTINUOUS
 62
     3
 10
-123.7855962990097
 20
28.373516833314181
 30
0.0
 40
4.0
  1
120
 50
90.0
 41
0.8299999999999999
  0
TEXT
  5
19E9F
  8
SU
  6
CONTINUOUS
 62
     3
 10
-182.5771231565686
 20
28.698328709632928
 30
0.0
 40
4.0
  1
ドアH（DH）=H-60.5
 50
90.0
 41
0.8299999999999999
  0
TEXT
  5
19EA0
  8
SU
  6
CONTINUOUS
 62
     3
 10
-167.57712315657011
 20
72.686423429228014
 30
0.0
 40
4.0
  1
H
 50
90.0
 41
0.8299999999999999
  0
TEXT
  5
19EA1
  8
SU
  6
CONTINUOUS
 62
     3
 10
-297.25712326550882
 20
-205.82646969639231
 30
0.0
 40
4.0
  1
146
 41
0.8299999999999999
  0
TEXT
  5
19EA2
  8
SU
  6
CONTINUOUS
 62
     3
 10
-377.67617083236871
 20
-205.82646969639231
 30
0.0
 40
4.0
  1
18
 41
0.8299999999999999
  0
TEXT
  5
19EA3
  8
SU
  6
CONTINUOUS
 62
     3
 10
-167.57712315656991
 20
-169.52551731544901
 30
0.0
 40
4.0
  1
12
 50
90.0
 41
0.8299999999999999
  0
TEXT
  5
19EA4
  8
SU
  6
CONTINUOUS
 62
     3
 10
-182.57759070165079
 20
-166.5140887440208
 30
0.0
 40
4.0
  1
3
 50
90.0
 41
0.8299999999999999
  0
TEXT
  5
19EA5
  8
SU
  6
CONTINUOUS
 62
     3
 10
-225.66474231769169
 20
-205.82646969639231
 30
0.0
 40
4.0
  1
3
 41
0.8299999999999999
  0
TEXT
  5
19EA6
  8
SU
  6
CONTINUOUS
 62
     3
 10
-167.57712315656991
 20
-124.3655173154412
 30
0.0
 40
4.0
  1
H
 50
90.0
 41
0.8299999999999999
  0
TEXT
  5
19EA7
  8
SU
  6
CONTINUOUS
 62
     3
 10
-182.57712315656821
 20
-129.2207554106792
 30
0.0
 40
4.0
  1
ドアH（DH）
 50
90.0
 41
0.8299999999999999
  0
TEXT
  5
19EA8
  8
SU
  6
CONTINUOUS
 62
     3
 10
-182.5775907016513
 20
-154.70741921632339
 30
0.0
 40
4.0
  1
8
 50
90.0
 41
0.8299999999999999
  0
TEXT
  5
19EA9
  8
SU
  6
CONTINUOUS
 62
     3
 10
-241.93902792303871
 20
-71.274528951723397
 30
0.0
 40
4.0
  1
45
 41
0.8299999999999999
  0
TEXT
  5
19EAA
  8
SU
  6
CONTINUOUS
 62
     3
 10
-276.93902791847512
 20
-71.274528951723397
 30
0.0
 40
4.0
  1
25
 41
0.8299999999999999
  0
TEXT
  5
19EAB
  8
SU
  6
CONTINUOUS
 62
     3
 10
-276.46474220418912
 20
-2.1745288086810151
 30
0.0
 40
4.0
  1
41
 41
0.8299999999999999
  0
LINE
  5
19EAC
  8
SU
  6
CONTINUOUS
 62
     3
 10
-172.19775992331029
 20
-150.25874175181809
 30
0.0
 11
-160.35648638982951
 21
-150.25874175181809
 31
0.0
  0
LINE
  5
19EAD
  8
SU
  6
CONTINUOUS
 62
     3
 10
-172.0777599233104
 20
-150.45874175181791
 30
0.0
 11
-160.4764863898294
 21
-150.45874175181791
 31
0.0
  0
LINE
  5
19EAE
  8
SU
  6
CONTINUOUS
 62
     3
 10
-171.95775992331031
 20
-150.6587417518181
 30
0.0
 11
-160.59648638982941
 21
-150.6587417518181
 31
0.0
  0
LINE
  5
19EAF
  8
SU
  6
CONTINUOUS
 62
     3
 10
-171.8377599233103
 20
-150.858741751818
 30
0.0
 11
-160.71648638982941
 21
-150.858741751818
 31
0.0
  0
LINE
  5
19EB0
  8
SU
  6
CONTINUOUS
 62
     3
 10
-171.7177599233103
 20
-151.05874175181799
 30
0.0
 11
-160.83648638982939
 21
-151.05874175181799
 31
0.0
  0
LINE
  5
19EB1
  8
SU
  6
CONTINUOUS
 62
     3
 10
-171.59775992331009
 20
-151.25874175181801
 30
0.0
 11
-160.95648638982939
 21
-151.25874175181801
 31
0.0
  0
LINE
  5
19EB2
  8
SU
  6
CONTINUOUS
 62
     3
 10
-171.47775992331
 20
-151.45874175181811
 30
0.0
 11
-161.0764863898294
 21
-151.45874175181811
 31
0.0
  0
LINE
  5
19EB3
  8
SU
  6
CONTINUOUS
 62
     3
 10
-171.35775992331031
 20
-151.6587417518181
 30
0.0
 11
-161.19648638982909
 21
-151.6587417518181
 31
0.0
  0
LINE
  5
19EB4
  8
SU
  6
CONTINUOUS
 62
     3
 10
-171.23775992331031
 20
-151.858741751818
 30
0.0
 11
-161.31648638982941
 21
-151.858741751818
 31
0.0
  0
LINE
  5
19EB5
  8
SU
  6
CONTINUOUS
 62
     3
 10
-171.1177599233103
 20
-152.05874175181799
 30
0.0
 11
-161.4364863898295
 21
-152.05874175181799
 31
0.0
  0
LINE
  5
19EB6
  8
SU
  6
CONTINUOUS
 62
     3
 10
-170.9977599233103
 20
-152.25874175181809
 30
0.0
 11
-161.5564863898295
 21
-152.25874175181809
 31
0.0
  0
LINE
  5
19EB7
  8
SU
  6
CONTINUOUS
 62
     3
 10
-170.87775992331001
 20
-152.45874175181811
 30
0.0
 11
-161.67648638982939
 21
-152.45874175181811
 31
0.0
  0
LINE
  5
19EB8
  8
SU
  6
CONTINUOUS
 62
     3
 10
-170.75775992331009
 20
-152.6587417518181
 30
0.0
 11
-161.79648638982951
 21
-152.6587417518181
 31
0.0
  0
LINE
  5
19EB9
  8
SU
  6
CONTINUOUS
 62
     3
 10
-170.63775992331031
 20
-152.8587417518178
 30
0.0
 11
-161.9164863898294
 21
-152.8587417518178
 31
0.0
  0
LINE
  5
19EBA
  8
SU
  6
CONTINUOUS
 62
     3
 10
-170.51775992331031
 20
-153.05874175181799
 30
0.0
 11
-162.03648638982941
 21
-153.05874175181799
 31
0.0
  0
LINE
  5
19EBB
  8
SU
  6
CONTINUOUS
 62
     3
 10
-170.3977599233103
 20
-153.25874175181809
 30
0.0
 11
-162.15648638982941
 21
-153.25874175181809
 31
0.0
  0
LINE
  5
19EBC
  8
SU
  6
CONTINUOUS
 62
     3
 10
-170.2777599233103
 20
-153.45874175181811
 30
0.0
 11
-162.2764863898295
 21
-153.45874175181811
 31
0.0
  0
LINE
  5
19EBD
  8
SU
  6
CONTINUOUS
 62
     3
 10
-170.15775992331001
 20
-153.6587417518181
 30
0.0
 11
-162.39648638982951
 21
-153.6587417518181
 31
0.0
  0
LINE
  5
19EBE
  8
SU
  6
CONTINUOUS
 62
     3
 10
-170.03775992331001
 20
-153.8587417518178
 30
0.0
 11
-162.51648638982951
 21
-153.8587417518178
 31
0.0
  0
LINE
  5
19EBF
  8
SU
  6
CONTINUOUS
 62
     3
 10
-169.91775992331031
 20
-154.05874175181799
 30
0.0
 11
-162.63648638982951
 21
-154.05874175181799
 31
0.0
  0
LINE
  5
19EC0
  8
SU
  6
CONTINUOUS
 62
     3
 10
-169.79775992331031
 20
-154.25874175181809
 30
0.0
 11
-162.75648638982921
 21
-154.25874175181809
 31
0.0
  0
LINE
  5
19EC1
  8
SU
  6
CONTINUOUS
 62
     3
 10
-169.6777599233103
 20
-154.45874175181811
 30
0.0
 11
-162.87648638982941
 21
-154.45874175181811
 31
0.0
  0
LINE
  5
19EC2
  8
SU
  6
CONTINUOUS
 62
     3
 10
-169.5577599233103
 20
-154.6587417518181
 30
0.0
 11
-162.9964863898295
 21
-154.6587417518181
 31
0.0
  0
LINE
  5
19EC3
  8
SU
  6
CONTINUOUS
 62
     3
 10
-169.4377599233103
 20
-154.8587417518178
 30
0.0
 11
-163.1164863898295
 21
-154.8587417518178
 31
0.0
  0
LINE
  5
19EC4
  8
SU
  6
CONTINUOUS
 62
     3
 10
-169.31775992331001
 20
-155.05874175181799
 30
0.0
 11
-163.23648638982951
 21
-155.05874175181799
 31
0.0
  0
LINE
  5
19EC5
  8
SU
  6
CONTINUOUS
 62
     3
 10
-169.19775992331
 20
-155.25874175181801
 30
0.0
 11
-163.35648638982951
 21
-155.25874175181801
 31
0.0
  0
LINE
  5
19EC6
  8
SU
  6
CONTINUOUS
 62
     3
 10
-169.07775992331031
 20
-155.45874175181811
 30
0.0
 11
-163.4764863898294
 21
-155.45874175181811
 31
0.0
  0
LINE
  5
19EC7
  8
SU
  6
CONTINUOUS
 62
     3
 10
-168.95775992331031
 20
-155.6587417518181
 30
0.0
 11
-163.59648638982941
 21
-155.6587417518181
 31
0.0
  0
LINE
  5
19EC8
  8
SU
  6
CONTINUOUS
 62
     3
 10
-168.8377599233103
 20
-155.858741751818
 30
0.0
 11
-163.71648638982941
 21
-155.858741751818
 31
0.0
  0
LINE
  5
19EC9
  8
SU
  6
CONTINUOUS
 62
     3
 10
-168.7177599233103
 20
-156.05874175181799
 30
0.0
 11
-163.83648638982939
 21
-156.05874175181799
 31
0.0
  0
LINE
  5
19ECA
  8
SU
  6
CONTINUOUS
 62
     3
 10
-168.59775992331001
 20
-156.25874175181801
 30
0.0
 11
-163.95648638982939
 21
-156.25874175181801
 31
0.0
  0
LINE
  5
19ECB
  8
SU
  6
CONTINUOUS
 62
     3
 10
-168.47775992331
 20
-156.45874175181811
 30
0.0
 11
-164.0764863898294
 21
-156.45874175181811
 31
0.0
  0
LINE
  5
19ECC
  8
SU
  6
CONTINUOUS
 62
     3
 10
-168.35775992331031
 20
-156.6587417518181
 30
0.0
 11
-164.1964863898292
 21
-156.6587417518181
 31
0.0
  0
LINE
  5
19ECD
  8
SU
  6
CONTINUOUS
 62
     3
 10
-168.23775992331031
 20
-156.8587417518178
 30
0.0
 11
-164.31648638982941
 21
-156.8587417518178
 31
0.0
  0
LINE
  5
19ECE
  8
SU
  6
CONTINUOUS
 62
     3
 10
-168.1177599233103
 20
-157.05874175181799
 30
0.0
 11
-164.4364863898295
 21
-157.05874175181799
 31
0.0
  0
LINE
  5
19ECF
  8
SU
  6
CONTINUOUS
 62
     3
 10
-167.9977599233103
 20
-157.25874175181801
 30
0.0
 11
-164.5564863898295
 21
-157.25874175181801
 31
0.0
  0
LINE
  5
19ED0
  8
SU
  6
CONTINUOUS
 62
     3
 10
-167.87775992331001
 20
-157.45874175181811
 30
0.0
 11
-164.67648638982951
 21
-157.45874175181811
 31
0.0
  0
LINE
  5
19ED1
  8
SU
  6
CONTINUOUS
 62
     3
 10
-167.75775992331029
 20
-157.6587417518181
 30
0.0
 11
-164.79648638982951
 21
-157.6587417518181
 31
0.0
  0
LINE
  5
19ED2
  8
SU
  6
CONTINUOUS
 62
     3
 10
-167.63775992331031
 20
-157.8587417518178
 30
0.0
 11
-164.9164863898294
 21
-157.8587417518178
 31
0.0
  0
LINE
  5
19ED3
  8
SU
  6
CONTINUOUS
 62
     3
 10
-167.51775992331031
 20
-158.05874175181799
 30
0.0
 11
-165.03648638982941
 21
-158.05874175181799
 31
0.0
  0
LINE
  5
19ED4
  8
SU
  6
CONTINUOUS
 62
     3
 10
-167.3977599233103
 20
-158.25874175181801
 30
0.0
 11
-165.1564863898293
 21
-158.25874175181801
 31
0.0
  0
LINE
  5
19ED5
  8
SU
  6
CONTINUOUS
 62
     3
 10
-167.2777599233103
 20
-158.45874175181811
 30
0.0
 11
-165.2764863898295
 21
-158.45874175181811
 31
0.0
  0
LINE
  5
19ED6
  8
SU
  6
CONTINUOUS
 62
     3
 10
-167.1577599233101
 20
-158.6587417518181
 30
0.0
 11
-165.39648638982951
 21
-158.6587417518181
 31
0.0
  0
LINE
  5
19ED7
  8
SU
  6
CONTINUOUS
 62
     3
 10
-167.03775992331001
 20
-158.858741751818
 30
0.0
 11
-165.51648638982951
 21
-158.858741751818
 31
0.0
  0
LINE
  5
19ED8
  8
SU
  6
CONTINUOUS
 62
     3
 10
-166.91775992331031
 20
-159.05874175181799
 30
0.0
 11
-165.63648638982951
 21
-159.05874175181799
 31
0.0
  0
LINE
  5
19ED9
  8
SU
  6
CONTINUOUS
 62
     3
 10
-166.79775992331031
 20
-159.25874175181801
 30
0.0
 11
-165.7564863898294
 21
-159.25874175181801
 31
0.0
  0
LINE
  5
19EDA
  8
SU
  6
CONTINUOUS
 62
     3
 10
-166.6777599233103
 20
-159.45874175181811
 30
0.0
 11
-165.87648638982941
 21
-159.45874175181811
 31
0.0
  0
LINE
  5
19EDB
  8
SU
  6
CONTINUOUS
 62
     3
 10
-166.5577599233103
 20
-159.6587417518181
 30
0.0
 11
-165.9964863898295
 21
-159.6587417518181
 31
0.0
  0
LINE
  5
19EDC
  8
SU
  6
CONTINUOUS
 62
     3
 10
-166.4377599233103
 20
-159.858741751818
 30
0.0
 11
-166.11648638982939
 21
-159.858741751818
 31
0.0
  0
LINE
  5
19EDD
  8
SU
  6
CONTINUOUS
 62
     3
 10
-166.31775992331029
 20
-160.05874175181799
 30
0.0
 11
-166.23648638982951
 21
-160.05874175181799
 31
0.0
  0
TEXT
  5
19EDE
  8
SU
  6
CONTINUOUS
 62
     3
 10
-167.57712315657011
 20
-34.973576570771861
 30
0.0
 40
4.0
  1
12
 50
90.0
 41
0.8299999999999999
  0
LINE
  5
19EDF
  8
SU
  6
CONTINUOUS
 62
     3
 10
-172.19775992331051
 20
-15.70680100715699
 30
0.0
 11
-160.35648638982971
 21
-15.706801007157001
 31
0.0
  0
LINE
  5
19EE0
  8
SU
  6
CONTINUOUS
 62
     3
 10
-172.07775992331051
 20
-15.906801007156981
 30
0.0
 11
-160.47648638982969
 21
-15.906801007156981
 31
0.0
  0
LINE
  5
19EE1
  8
SU
  6
CONTINUOUS
 62
     3
 10
-171.9577599233105
 20
-16.106801007156971
 30
0.0
 11
-160.59648638982969
 21
-16.106801007156971
 31
0.0
  0
LINE
  5
19EE2
  8
SU
  6
CONTINUOUS
 62
     3
 10
-171.8377599233105
 20
-16.306801007156992
 30
0.0
 11
-160.71648638982941
 21
-16.306801007156992
 31
0.0
  0
LINE
  5
19EE3
  8
SU
  6
CONTINUOUS
 62
     3
 10
-171.7177599233105
 20
-16.50680100715698
 30
0.0
 11
-160.8364863898295
 21
-16.50680100715698
 31
0.0
  0
LINE
  5
19EE4
  8
SU
  6
CONTINUOUS
 62
     3
 10
-171.59775992331041
 20
-16.70680100715699
 30
0.0
 11
-160.95648638982971
 21
-16.706801007157001
 31
0.0
  0
LINE
  5
19EE5
  8
SU
  6
CONTINUOUS
 62
     3
 10
-171.47775992331029
 20
-16.906801007156972
 30
0.0
 11
-161.07648638982971
 21
-16.906801007156972
 31
0.0
  0
LINE
  5
19EE6
  8
SU
  6
CONTINUOUS
 62
     3
 10
-171.35775992331051
 20
-17.106801007156971
 30
0.0
 11
-161.1964863898294
 21
-17.106801007156971
 31
0.0
  0
LINE
  5
19EE7
  8
SU
  6
CONTINUOUS
 62
     3
 10
-171.23775992331051
 20
-17.306801007156992
 30
0.0
 11
-161.31648638982961
 21
-17.306801007156992
 31
0.0
  0
LINE
  5
19EE8
  8
SU
  6
CONTINUOUS
 62
     3
 10
-171.1177599233105
 20
-17.50680100715698
 30
0.0
 11
-161.4364863898297
 21
-17.50680100715698
 31
0.0
  0
LINE
  5
19EE9
  8
SU
  6
CONTINUOUS
 62
     3
 10
-170.9977599233105
 20
-17.706801007156979
 30
0.0
 11
-161.5564863898297
 21
-17.706801007157001
 31
0.0
  0
LINE
  5
19EEA
  8
SU
  6
CONTINUOUS
 62
     3
 10
-170.87775992331041
 20
-17.906801007156979
 30
0.0
 11
-161.67648638982951
 21
-17.906801007156979
 31
0.0
  0
LINE
  5
19EEB
  8
SU
  6
CONTINUOUS
 62
     3
 10
-170.7577599233104
 20
-18.10680100715696
 30
0.0
 11
-161.79648638982971
 21
-18.10680100715696
 31
0.0
  0
LINE
  5
19EEC
  8
SU
  6
CONTINUOUS
 62
     3
 10
-170.63775992331051
 20
-18.306801007156992
 30
0.0
 11
-161.91648638982971
 21
-18.306801007156992
 31
0.0
  0
LINE
  5
19EED
  8
SU
  6
CONTINUOUS
 62
     3
 10
-170.51775992331051
 20
-18.50680100715698
 30
0.0
 11
-162.03648638982969
 21
-18.50680100715698
 31
0.0
  0
LINE
  5
19EEE
  8
SU
  6
CONTINUOUS
 62
     3
 10
-170.39775992331039
 20
-18.706801007156969
 30
0.0
 11
-162.15648638982961
 21
-18.706801007157001
 31
0.0
  0
LINE
  5
19EEF
  8
SU
  6
CONTINUOUS
 62
     3
 10
-170.2777599233105
 20
-18.906801007156961
 30
0.0
 11
-162.2764863898295
 21
-18.906801007156961
 31
0.0
  0
LINE
  5
19EF0
  8
SU
  6
CONTINUOUS
 62
     3
 10
-170.15775992331041
 20
-19.10680100715696
 30
0.0
 11
-162.3964863898297
 21
-19.10680100715696
 31
0.0
  0
LINE
  5
19EF1
  8
SU
  6
CONTINUOUS
 62
     3
 10
-170.0377599233104
 20
-19.306801007156992
 30
0.0
 11
-162.51648638982971
 21
-19.306801007156992
 31
0.0
  0
LINE
  5
19EF2
  8
SU
  6
CONTINUOUS
 62
     3
 10
-169.91775992331051
 20
-19.50680100715698
 30
0.0
 11
-162.63648638982971
 21
-19.50680100715698
 31
0.0
  0
LINE
  5
19EF3
  8
SU
  6
CONTINUOUS
 62
     3
 10
-169.79775992331051
 20
-19.706801007156962
 30
0.0
 11
-162.7564863898296
 21
-19.706801007157001
 31
0.0
  0
LINE
  5
19EF4
  8
SU
  6
CONTINUOUS
 62
     3
 10
-169.6777599233105
 20
-19.906801007156979
 30
0.0
 11
-162.87648638982969
 21
-19.906801007156979
 31
0.0
  0
LINE
  5
19EF5
  8
SU
  6
CONTINUOUS
 62
     3
 10
-169.5577599233105
 20
-20.10680100715696
 30
0.0
 11
-162.9964863898297
 21
-20.10680100715696
 31
0.0
  0
LINE
  5
19EF6
  8
SU
  6
CONTINUOUS
 62
     3
 10
-169.43775992331041
 20
-20.306801007156992
 30
0.0
 11
-163.1164863898295
 21
-20.306801007156992
 31
0.0
  0
LINE
  5
19EF7
  8
SU
  6
CONTINUOUS
 62
     3
 10
-169.3177599233104
 20
-20.50680100715698
 30
0.0
 11
-163.23648638982971
 21
-20.50680100715698
 31
0.0
  0
LINE
  5
19EF8
  8
SU
  6
CONTINUOUS
 62
     3
 10
-169.19775992331051
 20
-20.706801007156962
 30
0.0
 11
-163.35648638982971
 21
-20.706801007157001
 31
0.0
  0
LINE
  5
19EF9
  8
SU
  6
CONTINUOUS
 62
     3
 10
-169.07775992331051
 20
-20.906801007156961
 30
0.0
 11
-163.47648638982969
 21
-20.906801007156961
 31
0.0
  0
LINE
  5
19EFA
  8
SU
  6
CONTINUOUS
 62
     3
 10
-168.95775992331039
 20
-21.106801007156971
 30
0.0
 11
-163.59648638982961
 21
-21.106801007156971
 31
0.0
  0
LINE
  5
19EFB
  8
SU
  6
CONTINUOUS
 62
     3
 10
-168.83775992331039
 20
-21.306801007156992
 30
0.0
 11
-163.7164863898297
 21
-21.306801007156992
 31
0.0
  0
LINE
  5
19EFC
  8
SU
  6
CONTINUOUS
 62
     3
 10
-168.7177599233105
 20
-21.50680100715697
 30
0.0
 11
-163.8364863898297
 21
-21.50680100715698
 31
0.0
  0
LINE
  5
19EFD
  8
SU
  6
CONTINUOUS
 62
     3
 10
-168.59775992331041
 20
-21.706801007156969
 30
0.0
 11
-163.95648638982971
 21
-21.706801007157001
 31
0.0
  0
LINE
  5
19EFE
  8
SU
  6
CONTINUOUS
 62
     3
 10
-168.47775992331029
 20
-21.906801007156972
 30
0.0
 11
-164.07648638982971
 21
-21.906801007156972
 31
0.0
  0
LINE
  5
19EFF
  8
SU
  6
CONTINUOUS
 62
     3
 10
-168.35775992331051
 20
-22.10680100715696
 30
0.0
 11
-164.1964863898294
 21
-22.10680100715696
 31
0.0
  0
LINE
  5
19F00
  8
SU
  6
CONTINUOUS
 62
     3
 10
-168.23775992331059
 20
-22.306801007156992
 30
0.0
 11
-164.31648638982961
 21
-22.306801007156992
 31
0.0
  0
LINE
  5
19F01
  8
SU
  6
CONTINUOUS
 62
     3
 10
-168.1177599233105
 20
-22.50680100715698
 30
0.0
 11
-164.4364863898297
 21
-22.50680100715698
 31
0.0
  0
LINE
  5
19F02
  8
SU
  6
CONTINUOUS
 62
     3
 10
-167.99775992331041
 20
-22.706801007156969
 30
0.0
 11
-164.5564863898297
 21
-22.706801007157001
 31
0.0
  0
LINE
  5
19F03
  8
SU
  6
CONTINUOUS
 62
     3
 10
-167.87775992331041
 20
-22.906801007156979
 30
0.0
 11
-164.67648638982971
 21
-22.906801007156979
 31
0.0
  0
LINE
  5
19F04
  8
SU
  6
CONTINUOUS
 62
     3
 10
-167.7577599233104
 20
-23.10680100715696
 30
0.0
 11
-164.79648638982971
 21
-23.106801007156982
 31
0.0
  0
LINE
  5
19F05
  8
SU
  6
CONTINUOUS
 62
     3
 10
-167.63775992331051
 20
-23.306801007156981
 30
0.0
 11
-164.91648638982971
 21
-23.306801007156981
 31
0.0
  0
LINE
  5
19F06
  8
SU
  6
CONTINUOUS
 62
     3
 10
-167.51775992331051
 20
-23.50680100715698
 30
0.0
 11
-165.03648638982961
 21
-23.50680100715698
 31
0.0
  0
LINE
  5
19F07
  8
SU
  6
CONTINUOUS
 62
     3
 10
-167.39775992331039
 20
-23.706801007156962
 30
0.0
 11
-165.15648638982961
 21
-23.706801007157001
 31
0.0
  0
LINE
  5
19F08
  8
SU
  6
CONTINUOUS
 62
     3
 10
-167.2777599233105
 20
-23.906801007156979
 30
0.0
 11
-165.2764863898297
 21
-23.906801007156979
 31
0.0
  0
LINE
  5
19F09
  8
SU
  6
CONTINUOUS
 62
     3
 10
-167.15775992331041
 20
-24.10680100715696
 30
0.0
 11
-165.3964863898297
 21
-24.10680100715696
 31
0.0
  0
LINE
  5
19F0A
  8
SU
  6
CONTINUOUS
 62
     3
 10
-167.0377599233104
 20
-24.306801007156992
 30
0.0
 11
-165.51648638982971
 21
-24.306801007156992
 31
0.0
  0
LINE
  5
19F0B
  8
SU
  6
CONTINUOUS
 62
     3
 10
-166.91775992331051
 20
-24.50680100715698
 30
0.0
 11
-165.63648638982971
 21
-24.50680100715698
 31
0.0
  0
LINE
  5
19F0C
  8
SU
  6
CONTINUOUS
 62
     3
 10
-166.79775992331059
 20
-24.706801007156962
 30
0.0
 11
-165.7564863898296
 21
-24.706801007156962
 31
0.0
  0
LINE
  5
19F0D
  8
SU
  6
CONTINUOUS
 62
     3
 10
-166.6777599233105
 20
-24.906801007156979
 30
0.0
 11
-165.87648638982969
 21
-24.906801007156979
 31
0.0
  0
LINE
  5
19F0E
  8
SU
  6
CONTINUOUS
 62
     3
 10
-166.55775992331041
 20
-25.10680100715696
 30
0.0
 11
-165.9964863898297
 21
-25.10680100715696
 31
0.0
  0
LINE
  5
19F0F
  8
SU
  6
CONTINUOUS
 62
     3
 10
-166.43775992331041
 20
-25.306801007156992
 30
0.0
 11
-166.1164863898297
 21
-25.306801007156992
 31
0.0
  0
LINE
  5
19F10
  8
SU
  6
CONTINUOUS
 62
     3
 10
-166.3177599233104
 20
-25.50680100715698
 30
0.0
 11
-166.23648638982971
 21
-25.50680100715698
 31
0.0
  0
TEXT
  5
19F11
  8
SU
  6
CONTINUOUS
 62
     3
 10
-123.7855962990097
 20
-61.526565537450431
 30
0.0
 40
4.0
  1
12.5
 50
90.0
 41
0.8299999999999999
  0
TEXT
  5
19F12
  8
SU
  6
CONTINUOUS
 62
     3
 10
-304.75709491721398
 20
236.72547104828351
 30
0.0
 40
4.0
  1
120
 41
0.8299999999999999
  0
TEXT
  5
19F13
  8
SU
  6
CONTINUOUS
 62
     3
 10
-304.75709491721398
 20
251.72547104828351
 30
0.0
 40
4.0
  1
145
 41
0.8299999999999999
  0
TEXT
  5
19F14
  8
SU
  6
CONTINUOUS
 62
     3
 10
-338.06045648990352
 20
91.225470882292626
 30
0.0
 40
4.0
  1
95.5
 41
0.8299999999999999
  0
TEXT
  5
19F15
  8
SU
  6
CONTINUOUS
 62
     3
 10
-304.28283744228412
 20
76.225470882292655
 30
0.0
 40
4.0
  1
161
 41
0.8299999999999999
  0
TEXT
  5
19F16
  8
SU
  6
CONTINUOUS
 62
     3
 10
-389.66474220418922
 20
76.225470882292655
 30
0.0
 40
4.0
  1
3
 41
0.8299999999999999
  0
TEXT
  5
19F17
  8
SU
  6
CONTINUOUS
 62
     3
 10
-380.70188506133212
 20
251.72547104828351
 30
0.0
 40
4.0
  1
11
 41
0.8299999999999999
  0
TEXT
  5
19F18
  8
SU
  6
CONTINUOUS
 62
     3
 10
-394.6571792748
 20
236.72547104828351
 30
0.0
 40
4.0
  1
12.5
 41
0.8299999999999999
  0
TEXT
  5
19F19
  8
SU
  6
CONTINUOUS
 62
     3
 10
-182.5771231565686
 20
134.14213797419211
 30
0.0
 40
4.0
  1
21.5
 50
90.0
 41
0.8299999999999999
  0
TEXT
  5
19F1A
  8
SU
  6
CONTINUOUS
 62
     3
 10
-182.5771231565686
 20
159.184518667323
 30
0.0
 40
4.0
  1
24
 50
90.0
 41
0.8299999999999999
  0
TEXT
  5
19F1B
  8
SU
  6
CONTINUOUS
 62
     3
 10
-213.0514088708554
 20
76.225470882292655
 30
0.0
 40
4.0
  1
3
 41
0.8299999999999999
  0
TEXT
  5
19F1C
  8
SU
  6
CONTINUOUS
 62
     3
 10
-276.01807553752241
 20
91.225470882292626
 30
0.0
 40
4.0
  1
24
 41
0.8299999999999999
  0
TEXT
  5
19F1D
  8
SU
  6
CONTINUOUS
 62
     3
 10
-243.43902791847489
 20
91.225470882292626
 30
0.0
 40
4.0
  1
33
 41
0.8299999999999999
  0
TEXT
  5
19F1E
  8
SU
  6
CONTINUOUS
 62
     3
 10
-260.4371231565699
 20
91.225470882292626
 30
0.0
 40
4.0
  1
4
 41
0.8299999999999999
  0
TEXT
  5
19F1F
  8
SU
  6
CONTINUOUS
 62
     3
 10
-216.0514088708556
 20
91.225470882292626
 30
0.0
 40
4.0
  1
4.5
 41
0.8299999999999999
  0
TEXT
  5
19F20
  8
SU
  6
CONTINUOUS
 62
     3
 10
-224.70188506133181
 20
251.72547104828351
 30
0.0
 40
4.0
  1
11
 41
0.8299999999999999
  0
TEXT
  5
19F21
  8
SU
  6
CONTINUOUS
 62
     3
 10
-216.43801941929229
 20
236.72547104828351
 30
0.0
 40
4.0
  1
12.5
 41
0.8299999999999999
  0
TEXT
  5
19F22
  8
SU
  6
CONTINUOUS
 62
     3
 10
-123.7855962990097
 20
116.69259431805671
 30
0.0
 40
4.0
  1
12.5
 50
90.0
 41
0.8299999999999999
  0
LINE
  5
19F23
  8
SU
  6
CONTINUOUS
 62
     3
 10
-166.3177599233104
 20
174.35774310370789
 30
0.0
 11
-166.23648638982959
 21
174.35774310370789
 31
0.0
  0
LINE
  5
19F24
  8
SU
  6
CONTINUOUS
 62
     3
 10
-166.43775992331041
 20
174.15774310370799
 30
0.0
 11
-166.11648638982939
 21
174.15774310370799
 31
0.0
  0
LINE
  5
19F25
  8
SU
  6
CONTINUOUS
 62
     3
 10
-166.55775992331041
 20
173.9577431037082
 30
0.0
 11
-165.9964863898295
 21
173.9577431037082
 31
0.0
  0
LINE
  5
19F26
  8
SU
  6
CONTINUOUS
 62
     3
 10
-166.67775992331039
 20
173.75774310370801
 30
0.0
 11
-165.87648638982961
 21
173.75774310370801
 31
0.0
  0
LINE
  5
19F27
  8
SU
  6
CONTINUOUS
 62
     3
 10
-166.79775992331039
 20
173.55774310370811
 30
0.0
 11
-165.7564863898296
 21
173.55774310370811
 31
0.0
  0
LINE
  5
19F28
  8
SU
  6
CONTINUOUS
 62
     3
 10
-166.9177599233104
 20
173.357743103708
 30
0.0
 11
-165.63648638982951
 21
173.357743103708
 31
0.0
  0
LINE
  5
19F29
  8
SU
  6
CONTINUOUS
 62
     3
 10
-167.0377599233104
 20
173.1577431037079
 30
0.0
 11
-165.51648638982959
 21
173.1577431037079
 31
0.0
  0
LINE
  5
19F2A
  8
SU
  6
CONTINUOUS
 62
     3
 10
-167.15775992331041
 20
172.95774310370811
 30
0.0
 11
-165.39648638982959
 21
172.95774310370811
 31
0.0
  0
LINE
  5
19F2B
  8
SU
  6
CONTINUOUS
 62
     3
 10
-167.27775992331041
 20
172.75774310370801
 30
0.0
 11
-165.2764863898295
 21
172.75774310370801
 31
0.0
  0
LINE
  5
19F2C
  8
SU
  6
CONTINUOUS
 62
     3
 10
-167.39775992331039
 20
172.55774310370811
 30
0.0
 11
-165.15648638982961
 21
172.55774310370811
 31
0.0
  0
LINE
  5
19F2D
  8
SU
  6
CONTINUOUS
 62
     3
 10
-167.51775992331039
 20
172.3577431037082
 30
0.0
 11
-165.03648638982961
 21
172.3577431037082
 31
0.0
  0
LINE
  5
19F2E
  8
SU
  6
CONTINUOUS
 62
     3
 10
-167.6377599233104
 20
172.1577431037079
 30
0.0
 11
-164.9164863898296
 21
172.1577431037079
 31
0.0
  0
LINE
  5
19F2F
  8
SU
  6
CONTINUOUS
 62
     3
 10
-167.7577599233104
 20
171.95774310370811
 30
0.0
 11
-164.79648638982951
 21
171.95774310370811
 31
0.0
  0
LINE
  5
19F30
  8
SU
  6
CONTINUOUS
 62
     3
 10
-167.87775992331041
 20
171.75774310370809
 30
0.0
 11
-164.67648638982951
 21
171.75774310370809
 31
0.0
  0
LINE
  5
19F31
  8
SU
  6
CONTINUOUS
 62
     3
 10
-167.99775992331041
 20
171.55774310370811
 30
0.0
 11
-164.5564863898295
 21
171.55774310370811
 31
0.0
  0
LINE
  5
19F32
  8
SU
  6
CONTINUOUS
 62
     3
 10
-168.11775992331039
 20
171.3577431037082
 30
0.0
 11
-164.43648638982961
 21
171.3577431037082
 31
0.0
  0
LINE
  5
19F33
  8
SU
  6
CONTINUOUS
 62
     3
 10
-168.23775992331039
 20
171.1577431037079
 30
0.0
 11
-164.31648638982961
 21
171.1577431037079
 31
0.0
  0
LINE
  5
19F34
  8
SU
  6
CONTINUOUS
 62
     3
 10
-168.3577599233104
 20
170.95774310370811
 30
0.0
 11
-164.19648638982929
 21
170.95774310370811
 31
0.0
  0
LINE
  5
19F35
  8
SU
  6
CONTINUOUS
 62
     3
 10
-168.47775992331009
 20
170.75774310370809
 30
0.0
 11
-164.07648638982951
 21
170.75774310370809
 31
0.0
  0
LINE
  5
19F36
  8
SU
  6
CONTINUOUS
 62
     3
 10
-168.59775992331041
 20
170.55774310370811
 30
0.0
 11
-163.95648638982959
 21
170.55774310370811
 31
0.0
  0
LINE
  5
19F37
  8
SU
  6
CONTINUOUS
 62
     3
 10
-168.71775992331041
 20
170.3577431037082
 30
0.0
 11
-163.8364863898295
 21
170.3577431037082
 31
0.0
  0
LINE
  5
19F38
  8
SU
  6
CONTINUOUS
 62
     3
 10
-168.83775992331039
 20
170.1577431037081
 30
0.0
 11
-163.71648638982941
 21
170.1577431037081
 31
0.0
  0
LINE
  5
19F39
  8
SU
  6
CONTINUOUS
 62
     3
 10
-168.95775992331039
 20
169.95774310370811
 30
0.0
 11
-163.59648638982961
 21
169.95774310370811
 31
0.0
  0
LINE
  5
19F3A
  8
SU
  6
CONTINUOUS
 62
     3
 10
-169.07775992331031
 20
169.75774310370809
 30
0.0
 11
-163.47648638982969
 21
169.75774310370809
 31
0.0
  0
LINE
  5
19F3B
  8
SU
  6
CONTINUOUS
 62
     3
 10
-169.1977599233104
 20
169.55774310370811
 30
0.0
 11
-163.35648638982951
 21
169.55774310370811
 31
0.0
  0
LINE
  5
19F3C
  8
SU
  6
CONTINUOUS
 62
     3
 10
-169.3177599233104
 20
169.3577431037082
 30
0.0
 11
-163.23648638982951
 21
169.3577431037082
 31
0.0
  0
LINE
  5
19F3D
  8
SU
  6
CONTINUOUS
 62
     3
 10
-169.43775992331041
 20
169.1577431037081
 30
0.0
 11
-163.1164863898295
 21
169.1577431037081
 31
0.0
  0
LINE
  5
19F3E
  8
SU
  6
CONTINUOUS
 62
     3
 10
-169.55775992331041
 20
168.95774310370811
 30
0.0
 11
-162.99648638982961
 21
168.95774310370811
 31
0.0
  0
LINE
  5
19F3F
  8
SU
  6
CONTINUOUS
 62
     3
 10
-169.67775992331039
 20
168.75774310370801
 30
0.0
 11
-162.87648638982961
 21
168.75774310370801
 31
0.0
  0
LINE
  5
19F40
  8
SU
  6
CONTINUOUS
 62
     3
 10
-169.79775992331039
 20
168.55774310370811
 30
0.0
 11
-162.7564863898296
 21
168.55774310370811
 31
0.0
  0
LINE
  5
19F41
  8
SU
  6
CONTINUOUS
 62
     3
 10
-169.9177599233104
 20
168.3577431037082
 30
0.0
 11
-162.63648638982951
 21
168.3577431037082
 31
0.0
  0
LINE
  5
19F42
  8
SU
  6
CONTINUOUS
 62
     3
 10
-170.0377599233104
 20
168.1577431037081
 30
0.0
 11
-162.51648638982959
 21
168.1577431037081
 31
0.0
  0
LINE
  5
19F43
  8
SU
  6
CONTINUOUS
 62
     3
 10
-170.15775992331041
 20
167.95774310370811
 30
0.0
 11
-162.39648638982951
 21
167.95774310370811
 31
0.0
  0
LINE
  5
19F44
  8
SU
  6
CONTINUOUS
 62
     3
 10
-170.27775992331041
 20
167.75774310370809
 30
0.0
 11
-162.2764863898295
 21
167.75774310370809
 31
0.0
  0
LINE
  5
19F45
  8
SU
  6
CONTINUOUS
 62
     3
 10
-170.39775992331039
 20
167.55774310370811
 30
0.0
 11
-162.15648638982961
 21
167.55774310370811
 31
0.0
  0
LINE
  5
19F46
  8
SU
  6
CONTINUOUS
 62
     3
 10
-170.51775992331039
 20
167.3577431037082
 30
0.0
 11
-162.03648638982961
 21
167.3577431037082
 31
0.0
  0
LINE
  5
19F47
  8
SU
  6
CONTINUOUS
 62
     3
 10
-170.6377599233104
 20
167.1577431037079
 30
0.0
 11
-161.9164863898296
 21
167.1577431037079
 31
0.0
  0
LINE
  5
19F48
  8
SU
  6
CONTINUOUS
 62
     3
 10
-170.7577599233104
 20
166.95774310370811
 30
0.0
 11
-161.79648638982951
 21
166.95774310370811
 31
0.0
  0
LINE
  5
19F49
  8
SU
  6
CONTINUOUS
 62
     3
 10
-170.87775992331041
 20
166.75774310370809
 30
0.0
 11
-161.67648638982951
 21
166.75774310370809
 31
0.0
  0
LINE
  5
19F4A
  8
SU
  6
CONTINUOUS
 62
     3
 10
-170.99775992331041
 20
166.55774310370811
 30
0.0
 11
-161.55648638982959
 21
166.55774310370811
 31
0.0
  0
LINE
  5
19F4B
  8
SU
  6
CONTINUOUS
 62
     3
 10
-171.11775992331039
 20
166.3577431037082
 30
0.0
 11
-161.43648638982961
 21
166.3577431037082
 31
0.0
  0
LINE
  5
19F4C
  8
SU
  6
CONTINUOUS
 62
     3
 10
-171.23775992331039
 20
166.1577431037079
 30
0.0
 11
-161.31648638982961
 21
166.1577431037079
 31
0.0
  0
LINE
  5
19F4D
  8
SU
  6
CONTINUOUS
 62
     3
 10
-171.3577599233104
 20
165.9577431037082
 30
0.0
 11
-161.19648638982929
 21
165.9577431037082
 31
0.0
  0
LINE
  5
19F4E
  8
SU
  6
CONTINUOUS
 62
     3
 10
-171.47775992331009
 20
165.75774310370801
 30
0.0
 11
-161.0764863898296
 21
165.75774310370801
 31
0.0
  0
LINE
  5
19F4F
  8
SU
  6
CONTINUOUS
 62
     3
 10
-171.59775992331041
 20
165.55774310370811
 30
0.0
 11
-160.95648638982951
 21
165.55774310370811
 31
0.0
  0
LINE
  5
19F50
  8
SU
  6
CONTINUOUS
 62
     3
 10
-171.7177599233103
 20
165.3577431037082
 30
0.0
 11
-160.8364863898295
 21
165.3577431037082
 31
0.0
  0
LINE
  5
19F51
  8
SU
  6
CONTINUOUS
 62
     3
 10
-171.8377599233103
 20
165.1577431037081
 30
0.0
 11
-160.71648638982941
 21
165.1577431037081
 31
0.0
  0
LINE
  5
19F52
  8
SU
  6
CONTINUOUS
 62
     3
 10
-171.95775992331031
 20
164.9577431037082
 30
0.0
 11
-160.59648638982969
 21
164.9577431037082
 31
0.0
  0
LINE
  5
19F53
  8
SU
  6
CONTINUOUS
 62
     3
 10
-172.0777599233104
 20
164.75774310370801
 30
0.0
 11
-160.47648638982969
 21
164.75774310370801
 31
0.0
  0
LINE
  5
19F54
  8
SU
  6
CONTINUOUS
 62
     3
 10
-172.1977599233104
 20
164.55774310370811
 30
0.0
 11
-160.3564863898296
 21
164.55774310370811
 31
0.0
  0
TEXT
  5
19F55
  8
SU
  6
CONTINUOUS
 62
     3
 10
4.2144061495193963
 20
62.070157247446851
 30
0.0
 40
4.0
  1
98.5
 50
90.0
 41
0.8299999999999999
  0
TEXT
  5
19F56
  8
SU
  6
CONTINUOUS
 62
     3
 10
362.101467533223
 20
138.15349058077871
 30
0.0
 40
4.0
  1
（13）
 41
0.8299999999999999
  0
TEXT
  5
19F57
  8
SU
  6
CONTINUOUS
 62
     3
 10
33.21440859804833
 20
28.373490580778942
 30
0.0
 40
4.0
  1
167
 50
90.0
 41
0.8299999999999999
  0
TEXT
  5
19F58
  8
SU
  6
CONTINUOUS
 62
     3
 10
-26.898355755242481
 20
138.15349058077871
 30
0.0
 40
4.0
  1
（13）
 41
0.8299999999999999
  0
TEXT
  5
19F59
  8
SU
  6
CONTINUOUS
 62
     3
 10
291.41767548462241
 20
-67.513187711709847
 30
0.0
 40
4.0
  1
（DW-1）/3
 41
0.8299999999999999
  0
TEXT
  5
19F5A
  8
SU
  6
CONTINUOUS
 62
     3
 10
150.9343178015456
 20
-98.846521045043303
 30
0.0
 40
4.0
  1
ドアW（DW）=W-58
 41
0.8299999999999999
  0
TEXT
  5
19F5B
  8
SU
  6
CONTINUOUS
 62
     3
 10
369.85422943798409
 20
-98.846521045043303
 30
0.0
 40
4.0
  1
6
 41
0.8299999999999999
  0
TEXT
  5
19F5C
  8
SU
  6
CONTINUOUS
 62
     3
 10
171.61726329237641
 20
-113.8465210450433
 30
0.0
 40
4.0
  1
W
 41
0.8299999999999999
  0
TEXT
  5
19F5D
  8
SU
  6
CONTINUOUS
 62
     3
 10
86.285839173651254
 20
-67.513187711709847
 30
0.0
 40
4.0
  1
2（DW-1）/3
 41
0.8299999999999999
  0
TEXT
  5
19F5E
  8
SU
  6
CONTINUOUS
 62
     3
 10
-42.726546223639957
 20
-98.846521045043303
 30
0.0
 40
4.0
  1
24
 41
0.8299999999999999
  0
TEXT
  5
19F5F
  8
SU
  6
CONTINUOUS
 62
     3
 10
-19.959879549179838
 20
-83.846521045043303
 30
0.0
 40
4.0
  1
4
 41
0.8299999999999999
  0
LINE
  5
19F60
  8
SU
  6
CONTINUOUS
 62
     3
 10
-51.417865905913509
 20
-115.18715781178361
 30
0.0
 11
-51.417865905913509
 21
-115.1058842783029
 31
0.0
  0
LINE
  5
19F61
  8
SU
  6
CONTINUOUS
 62
     3
 10
-51.217865905913513
 20
-115.3071578117836
 30
0.0
 11
-51.217865905913513
 21
-114.98588427830281
 31
0.0
  0
LINE
  5
19F62
  8
SU
  6
CONTINUOUS
 62
     3
 10
-51.017865905913489
 20
-115.4271578117836
 30
0.0
 11
-51.017865905913489
 21
-114.8658842783029
 31
0.0
  0
LINE
  5
19F63
  8
SU
  6
CONTINUOUS
 62
     3
 10
-50.817865905913507
 20
-115.54715781178361
 30
0.0
 11
-50.817865905913507
 21
-114.7458842783029
 31
0.0
  0
LINE
  5
19F64
  8
SU
  6
CONTINUOUS
 62
     3
 10
-50.617865905913533
 20
-115.6671578117836
 30
0.0
 11
-50.617865905913533
 21
-114.62588427830291
 31
0.0
  0
LINE
  5
19F65
  8
SU
  6
CONTINUOUS
 62
     3
 10
-50.417865905913509
 20
-115.7871578117836
 30
0.0
 11
-50.417865905913509
 21
-114.5058842783029
 31
0.0
  0
LINE
  5
19F66
  8
SU
  6
CONTINUOUS
 62
     3
 10
-50.217865905913541
 20
-115.90715781178361
 30
0.0
 11
-50.217865905913541
 21
-114.3858842783028
 31
0.0
  0
LINE
  5
19F67
  8
SU
  6
CONTINUOUS
 62
     3
 10
-50.01786590591351
 20
-116.0271578117835
 30
0.0
 11
-50.01786590591351
 21
-114.26588427830291
 31
0.0
  0
LINE
  5
19F68
  8
SU
  6
CONTINUOUS
 62
     3
 10
-49.817865905913507
 20
-116.1471578117837
 30
0.0
 11
-49.817865905913507
 21
-114.1458842783029
 31
0.0
  0
LINE
  5
19F69
  8
SU
  6
CONTINUOUS
 62
     3
 10
-49.617865905913519
 20
-116.2671578117836
 30
0.0
 11
-49.617865905913519
 21
-114.0258842783028
 31
0.0
  0
LINE
  5
19F6A
  8
SU
  6
CONTINUOUS
 62
     3
 10
-49.417865905913509
 20
-116.38715781178369
 30
0.0
 11
-49.417865905913509
 21
-113.90588427830291
 31
0.0
  0
LINE
  5
19F6B
  8
SU
  6
CONTINUOUS
 62
     3
 10
-49.21786590591352
 20
-116.5071578117836
 30
0.0
 11
-49.21786590591352
 21
-113.7858842783028
 31
0.0
  0
LINE
  5
19F6C
  8
SU
  6
CONTINUOUS
 62
     3
 10
-49.017865905913489
 20
-116.6271578117836
 30
0.0
 11
-49.017865905913489
 21
-113.6658842783029
 31
0.0
  0
LINE
  5
19F6D
  8
SU
  6
CONTINUOUS
 62
     3
 10
-48.8178659059135
 20
-116.7471578117835
 30
0.0
 11
-48.8178659059135
 21
-113.54588427830291
 31
0.0
  0
LINE
  5
19F6E
  8
SU
  6
CONTINUOUS
 62
     3
 10
-48.617865905913533
 20
-116.8671578117836
 30
0.0
 11
-48.617865905913533
 21
-113.4258842783029
 31
0.0
  0
LINE
  5
19F6F
  8
SU
  6
CONTINUOUS
 62
     3
 10
-48.417865905913487
 20
-116.9871578117836
 30
0.0
 11
-48.417865905913487
 21
-113.3058842783029
 31
0.0
  0
LINE
  5
19F70
  8
SU
  6
CONTINUOUS
 62
     3
 10
-48.217865905913527
 20
-117.10715781178359
 30
0.0
 11
-48.217865905913527
 21
-113.18588427830279
 31
0.0
  0
LINE
  5
19F71
  8
SU
  6
CONTINUOUS
 62
     3
 10
-48.017865905913489
 20
-117.2271578117836
 30
0.0
 11
-48.017865905913489
 21
-113.0658842783029
 31
0.0
  0
LINE
  5
19F72
  8
SU
  6
CONTINUOUS
 62
     3
 10
-47.817865905913507
 20
-117.3471578117835
 30
0.0
 11
-47.817865905913507
 21
-112.9458842783028
 31
0.0
  0
LINE
  5
19F73
  8
SU
  6
CONTINUOUS
 62
     3
 10
-47.617865905913519
 20
-117.46715781178359
 30
0.0
 11
-47.617865905913519
 21
-112.82588427830279
 31
0.0
  0
LINE
  5
19F74
  8
SU
  6
CONTINUOUS
 62
     3
 10
-47.417865905913509
 20
-117.5871578117837
 30
0.0
 11
-47.417865905913509
 21
-112.7058842783029
 31
0.0
  0
LINE
  5
19F75
  8
SU
  6
CONTINUOUS
 62
     3
 10
-47.21786590591352
 20
-117.7071578117836
 30
0.0
 11
-47.21786590591352
 21
-112.5858842783028
 31
0.0
  0
LINE
  5
19F76
  8
SU
  6
CONTINUOUS
 62
     3
 10
-47.017865905913489
 20
-117.82715781178339
 30
0.0
 11
-47.017865905913489
 21
-112.46588427830279
 31
0.0
  0
LINE
  5
19F77
  8
SU
  6
CONTINUOUS
 62
     3
 10
-46.817865905913493
 20
-117.9471578117835
 30
0.0
 11
-46.817865905913493
 21
-112.3458842783028
 31
0.0
  0
LINE
  5
19F78
  8
SU
  6
CONTINUOUS
 62
     3
 10
-46.617865905913519
 20
-118.0671578117836
 30
0.0
 11
-46.617865905913519
 21
-112.2258842783029
 31
0.0
  0
LINE
  5
19F79
  8
SU
  6
CONTINUOUS
 62
     3
 10
-46.417865905913487
 20
-118.18715781178361
 30
0.0
 11
-46.417865905913487
 21
-112.1058842783029
 31
0.0
  0
LINE
  5
19F7A
  8
SU
  6
CONTINUOUS
 62
     3
 10
-46.217865905913513
 20
-118.3071578117836
 30
0.0
 11
-46.217865905913513
 21
-111.9858842783029
 31
0.0
  0
LINE
  5
19F7B
  8
SU
  6
CONTINUOUS
 62
     3
 10
-46.017865905913489
 20
-118.4271578117836
 30
0.0
 11
-46.017865905913489
 21
-111.8658842783029
 31
0.0
  0
LINE
  5
19F7C
  8
SU
  6
CONTINUOUS
 62
     3
 10
-45.817865905913507
 20
-118.54715781178351
 30
0.0
 11
-45.817865905913507
 21
-111.7458842783028
 31
0.0
  0
LINE
  5
19F7D
  8
SU
  6
CONTINUOUS
 62
     3
 10
-45.617865905913519
 20
-118.6671578117836
 30
0.0
 11
-45.617865905913519
 21
-111.62588427830291
 31
0.0
  0
LINE
  5
19F7E
  8
SU
  6
CONTINUOUS
 62
     3
 10
-45.417865905913509
 20
-118.7871578117835
 30
0.0
 11
-45.417865905913509
 21
-111.5058842783029
 31
0.0
  0
LINE
  5
19F7F
  8
SU
  6
CONTINUOUS
 62
     3
 10
-45.217865905913527
 20
-118.90715781178361
 30
0.0
 11
-45.217865905913527
 21
-111.3858842783028
 31
0.0
  0
LINE
  5
19F80
  8
SU
  6
CONTINUOUS
 62
     3
 10
-45.017865905913503
 20
-119.0271578117837
 30
0.0
 11
-45.017865905913503
 21
-111.26588427830291
 31
0.0
  0
LINE
  5
19F81
  8
SU
  6
CONTINUOUS
 62
     3
 10
-44.817865905913493
 20
-119.1471578117837
 30
0.0
 11
-44.817865905913493
 21
-111.1458842783028
 31
0.0
  0
LINE
  5
19F82
  8
SU
  6
CONTINUOUS
 62
     3
 10
-44.617865905913519
 20
-119.2671578117836
 30
0.0
 11
-44.617865905913519
 21
-111.0258842783027
 31
0.0
  0
LINE
  5
19F83
  8
SU
  6
CONTINUOUS
 62
     3
 10
-44.417865905913509
 20
-119.38715781178369
 30
0.0
 11
-44.417865905913509
 21
-110.90588427830291
 31
0.0
  0
LINE
  5
19F84
  8
SU
  6
CONTINUOUS
 62
     3
 10
-44.217865905913499
 20
-119.5071578117836
 30
0.0
 11
-44.217865905913499
 21
-110.7858842783028
 31
0.0
  0
LINE
  5
19F85
  8
SU
  6
CONTINUOUS
 62
     3
 10
-44.017865905913503
 20
-119.6271578117836
 30
0.0
 11
-44.017865905913503
 21
-110.6658842783027
 31
0.0
  0
LINE
  5
19F86
  8
SU
  6
CONTINUOUS
 62
     3
 10
-43.817865905913493
 20
-119.7471578117835
 30
0.0
 11
-43.817865905913493
 21
-110.54588427830291
 31
0.0
  0
LINE
  5
19F87
  8
SU
  6
CONTINUOUS
 62
     3
 10
-43.617865905913533
 20
-119.8671578117836
 30
0.0
 11
-43.617865905913533
 21
-110.4258842783029
 31
0.0
  0
LINE
  5
19F88
  8
SU
  6
CONTINUOUS
 62
     3
 10
-43.417865905913501
 20
-119.9871578117835
 30
0.0
 11
-43.417865905913501
 21
-110.3058842783029
 31
0.0
  0
LINE
  5
19F89
  8
SU
  6
CONTINUOUS
 62
     3
 10
-43.217865905913527
 20
-120.10715781178359
 30
0.0
 11
-43.217865905913527
 21
-110.18588427830279
 31
0.0
  0
LINE
  5
19F8A
  8
SU
  6
CONTINUOUS
 62
     3
 10
-43.017865905913503
 20
-120.2271578117835
 30
0.0
 11
-43.017865905913503
 21
-110.0658842783029
 31
0.0
  0
LINE
  5
19F8B
  8
SU
  6
CONTINUOUS
 62
     3
 10
-42.817865905913507
 20
-120.3471578117836
 30
0.0
 11
-42.817865905913507
 21
-109.9458842783028
 31
0.0
  0
LINE
  5
19F8C
  8
SU
  6
CONTINUOUS
 62
     3
 10
-42.617865905913519
 20
-120.46715781178339
 30
0.0
 11
-42.617865905913519
 21
-109.82588427830279
 31
0.0
  0
LINE
  5
19F8D
  8
SU
  6
CONTINUOUS
 62
     3
 10
-42.417865905913509
 20
-120.5871578117837
 30
0.0
 11
-42.417865905913509
 21
-109.7058842783029
 31
0.0
  0
LINE
  5
19F8E
  8
SU
  6
CONTINUOUS
 62
     3
 10
-42.21786590591352
 20
-120.7071578117836
 30
0.0
 11
-42.21786590591352
 21
-109.5858842783028
 31
0.0
  0
LINE
  5
19F8F
  8
SU
  6
CONTINUOUS
 62
     3
 10
-42.017865905913503
 20
-120.82715781178339
 30
0.0
 11
-42.017865905913503
 21
-109.46588427830279
 31
0.0
  0
LINE
  5
19F90
  8
SU
  6
CONTINUOUS
 62
     3
 10
-41.817865905913493
 20
-120.9471578117836
 30
0.0
 11
-41.817865905913493
 21
-109.3458842783028
 31
0.0
  0
LINE
  5
19F91
  8
SU
  6
CONTINUOUS
 62
     3
 10
-41.617865905913519
 20
-121.0671578117836
 30
0.0
 11
-41.617865905913519
 21
-109.2258842783029
 31
0.0
  0
TEXT
  5
19F92
  8
SU
  6
CONTINUOUS
 62
     3
 10
4.2144061495194221
 20
-61.276985609697249
 30
0.0
 40
4.0
  1
7.5
 50
90.0
 41
0.8299999999999999
  0
TEXT
  5
19F93
  8
SU
  6
CONTINUOUS
 62
     3
 10
4.2144061495194221
 20
-29.308414181109669
 30
0.0
 40
4.0
  1
33
 50
90.0
 41
0.8299999999999999
  0
TEXT
  5
19F94
  8
SU
  6
CONTINUOUS
 62
     3
 10
19.214406149519391
 20
-1.811422246039303
 30
0.0
 40
4.0
  1
4
 50
90.0
 41
0.8299999999999999
  0
TEXT
  5
19F95
  8
SU
  6
CONTINUOUS
 62
     3
 10
4.2144061495194123
 20
3.112538199827863
 30
0.0
 40
4.0
  1
24
 50
90.0
 41
0.8299999999999999
  0
TEXT
  5
19F96
  8
SU
  6
CONTINUOUS
 62
     3
 10
383.27327704923817
 20
-98.846521045043303
 30
0.0
 40
4.0
  1
24
 41
0.8299999999999999
  0
LINE
  5
19F97
  8
SU
  6
CONTINUOUS
 62
     3
 10
388.64667820495208
 20
-121.0671578117836
 30
0.0
 11
388.64667820495208
 21
-109.2258842783029
 31
0.0
  0
LINE
  5
19F98
  8
SU
  6
CONTINUOUS
 62
     3
 10
388.84667820495179
 20
-120.9471578117836
 30
0.0
 11
388.84667820495179
 21
-109.3458842783028
 31
0.0
  0
LINE
  5
19F99
  8
SU
  6
CONTINUOUS
 62
     3
 10
389.04667820495217
 20
-120.82715781178339
 30
0.0
 11
389.04667820495217
 21
-109.46588427830279
 31
0.0
  0
LINE
  5
19F9A
  8
SU
  6
CONTINUOUS
 62
     3
 10
389.2466782049521
 20
-120.7071578117836
 30
0.0
 11
389.2466782049521
 21
-109.5858842783028
 31
0.0
  0
LINE
  5
19F9B
  8
SU
  6
CONTINUOUS
 62
     3
 10
389.44667820495209
 20
-120.5871578117835
 30
0.0
 11
389.44667820495209
 21
-109.7058842783029
 31
0.0
  0
LINE
  5
19F9C
  8
SU
  6
CONTINUOUS
 62
     3
 10
389.64667820495202
 20
-120.46715781178339
 30
0.0
 11
389.64667820495202
 21
-109.82588427830279
 31
0.0
  0
LINE
  5
19F9D
  8
SU
  6
CONTINUOUS
 62
     3
 10
389.84667820495218
 20
-120.3471578117836
 30
0.0
 11
389.84667820495218
 21
-109.9458842783028
 31
0.0
  0
LINE
  5
19F9E
  8
SU
  6
CONTINUOUS
 62
     3
 10
390.04667820495212
 20
-120.2271578117835
 30
0.0
 11
390.04667820495212
 21
-110.0658842783029
 31
0.0
  0
LINE
  5
19F9F
  8
SU
  6
CONTINUOUS
 62
     3
 10
390.2466782049521
 20
-120.10715781178359
 30
0.0
 11
390.2466782049521
 21
-110.18588427830279
 31
0.0
  0
LINE
  5
19FA0
  8
SU
  6
CONTINUOUS
 62
     3
 10
390.44667820495209
 20
-119.9871578117835
 30
0.0
 11
390.44667820495209
 21
-110.3058842783029
 31
0.0
  0
LINE
  5
19FA1
  8
SU
  6
CONTINUOUS
 62
     3
 10
390.64667820495202
 20
-119.8671578117836
 30
0.0
 11
390.64667820495202
 21
-110.4258842783029
 31
0.0
  0
LINE
  5
19FA2
  8
SU
  6
CONTINUOUS
 62
     3
 10
390.84667820495201
 20
-119.7471578117835
 30
0.0
 11
390.84667820495201
 21
-110.54588427830291
 31
0.0
  0
LINE
  5
19FA3
  8
SU
  6
CONTINUOUS
 62
     3
 10
391.04667820495212
 20
-119.6271578117836
 30
0.0
 11
391.04667820495212
 21
-110.6658842783029
 31
0.0
  0
LINE
  5
19FA4
  8
SU
  6
CONTINUOUS
 62
     3
 10
391.24667820495199
 20
-119.5071578117836
 30
0.0
 11
391.24667820495199
 21
-110.7858842783029
 31
0.0
  0
LINE
  5
19FA5
  8
SU
  6
CONTINUOUS
 62
     3
 10
391.44667820495209
 20
-119.3871578117835
 30
0.0
 11
391.44667820495209
 21
-110.90588427830291
 31
0.0
  0
LINE
  5
19FA6
  8
SU
  6
CONTINUOUS
 62
     3
 10
391.64667820495202
 20
-119.2671578117836
 30
0.0
 11
391.64667820495202
 21
-111.0258842783027
 31
0.0
  0
LINE
  5
19FA7
  8
SU
  6
CONTINUOUS
 62
     3
 10
391.84667820495218
 20
-119.1471578117836
 30
0.0
 11
391.84667820495218
 21
-111.1458842783028
 31
0.0
  0
LINE
  5
19FA8
  8
SU
  6
CONTINUOUS
 62
     3
 10
392.04667820495212
 20
-119.0271578117835
 30
0.0
 11
392.04667820495212
 21
-111.26588427830291
 31
0.0
  0
LINE
  5
19FA9
  8
SU
  6
CONTINUOUS
 62
     3
 10
392.2466782049521
 20
-118.90715781178361
 30
0.0
 11
392.2466782049521
 21
-111.3858842783028
 31
0.0
  0
LINE
  5
19FAA
  8
SU
  6
CONTINUOUS
 62
     3
 10
392.44667820495198
 20
-118.7871578117835
 30
0.0
 11
392.44667820495198
 21
-111.5058842783029
 31
0.0
  0
LINE
  5
19FAB
  8
SU
  6
CONTINUOUS
 62
     3
 10
392.64667820495202
 20
-118.6671578117836
 30
0.0
 11
392.64667820495202
 21
-111.62588427830291
 31
0.0
  0
LINE
  5
19FAC
  8
SU
  6
CONTINUOUS
 62
     3
 10
392.84667820495201
 20
-118.54715781178351
 30
0.0
 11
392.84667820495201
 21
-111.7458842783028
 31
0.0
  0
LINE
  5
19FAD
  8
SU
  6
CONTINUOUS
 62
     3
 10
393.04667820495212
 20
-118.4271578117836
 30
0.0
 11
393.04667820495212
 21
-111.8658842783029
 31
0.0
  0
LINE
  5
19FAE
  8
SU
  6
CONTINUOUS
 62
     3
 10
393.24667820495199
 20
-118.3071578117836
 30
0.0
 11
393.24667820495199
 21
-111.9858842783029
 31
0.0
  0
LINE
  5
19FAF
  8
SU
  6
CONTINUOUS
 62
     3
 10
393.44667820495209
 20
-118.18715781178361
 30
0.0
 11
393.44667820495209
 21
-112.1058842783029
 31
0.0
  0
LINE
  5
19FB0
  8
SU
  6
CONTINUOUS
 62
     3
 10
393.64667820495208
 20
-118.0671578117836
 30
0.0
 11
393.64667820495208
 21
-112.2258842783029
 31
0.0
  0
LINE
  5
19FB1
  8
SU
  6
CONTINUOUS
 62
     3
 10
393.84667820495218
 20
-117.9471578117835
 30
0.0
 11
393.84667820495218
 21
-112.3458842783028
 31
0.0
  0
LINE
  5
19FB2
  8
SU
  6
CONTINUOUS
 62
     3
 10
394.04667820495212
 20
-117.82715781178339
 30
0.0
 11
394.04667820495212
 21
-112.46588427830279
 31
0.0
  0
LINE
  5
19FB3
  8
SU
  6
CONTINUOUS
 62
     3
 10
394.2466782049521
 20
-117.7071578117836
 30
0.0
 11
394.2466782049521
 21
-112.5858842783028
 31
0.0
  0
LINE
  5
19FB4
  8
SU
  6
CONTINUOUS
 62
     3
 10
394.44667820495198
 20
-117.5871578117835
 30
0.0
 11
394.44667820495198
 21
-112.7058842783029
 31
0.0
  0
LINE
  5
19FB5
  8
SU
  6
CONTINUOUS
 62
     3
 10
394.64667820495202
 20
-117.46715781178359
 30
0.0
 11
394.64667820495202
 21
-112.82588427830279
 31
0.0
  0
LINE
  5
19FB6
  8
SU
  6
CONTINUOUS
 62
     3
 10
394.84667820495201
 20
-117.3471578117835
 30
0.0
 11
394.84667820495201
 21
-112.9458842783028
 31
0.0
  0
LINE
  5
19FB7
  8
SU
  6
CONTINUOUS
 62
     3
 10
395.04667820495212
 20
-117.2271578117836
 30
0.0
 11
395.04667820495212
 21
-113.0658842783029
 31
0.0
  0
LINE
  5
19FB8
  8
SU
  6
CONTINUOUS
 62
     3
 10
395.2466782049521
 20
-117.10715781178359
 30
0.0
 11
395.2466782049521
 21
-113.18588427830279
 31
0.0
  0
LINE
  5
19FB9
  8
SU
  6
CONTINUOUS
 62
     3
 10
395.44667820495209
 20
-116.9871578117836
 30
0.0
 11
395.44667820495209
 21
-113.3058842783029
 31
0.0
  0
LINE
  5
19FBA
  8
SU
  6
CONTINUOUS
 62
     3
 10
395.64667820495202
 20
-116.8671578117836
 30
0.0
 11
395.64667820495202
 21
-113.4258842783029
 31
0.0
  0
LINE
  5
19FBB
  8
SU
  6
CONTINUOUS
 62
     3
 10
395.84667820495201
 20
-116.7471578117835
 30
0.0
 11
395.84667820495201
 21
-113.54588427830291
 31
0.0
  0
LINE
  5
19FBC
  8
SU
  6
CONTINUOUS
 62
     3
 10
396.04667820495212
 20
-116.6271578117836
 30
0.0
 11
396.04667820495212
 21
-113.6658842783029
 31
0.0
  0
LINE
  5
19FBD
  8
SU
  6
CONTINUOUS
 62
     3
 10
396.2466782049521
 20
-116.5071578117836
 30
0.0
 11
396.2466782049521
 21
-113.7858842783028
 31
0.0
  0
LINE
  5
19FBE
  8
SU
  6
CONTINUOUS
 62
     3
 10
396.44667820495198
 20
-116.3871578117835
 30
0.0
 11
396.44667820495198
 21
-113.90588427830291
 31
0.0
  0
LINE
  5
19FBF
  8
SU
  6
CONTINUOUS
 62
     3
 10
396.64667820495202
 20
-116.2671578117836
 30
0.0
 11
396.64667820495202
 21
-114.0258842783028
 31
0.0
  0
LINE
  5
19FC0
  8
SU
  6
CONTINUOUS
 62
     3
 10
396.84667820495213
 20
-116.1471578117835
 30
0.0
 11
396.84667820495213
 21
-114.1458842783029
 31
0.0
  0
LINE
  5
19FC1
  8
SU
  6
CONTINUOUS
 62
     3
 10
397.04667820495212
 20
-116.0271578117835
 30
0.0
 11
397.04667820495212
 21
-114.26588427830291
 31
0.0
  0
LINE
  5
19FC2
  8
SU
  6
CONTINUOUS
 62
     3
 10
397.24667820495199
 20
-115.90715781178361
 30
0.0
 11
397.24667820495199
 21
-114.3858842783028
 31
0.0
  0
LINE
  5
19FC3
  8
SU
  6
CONTINUOUS
 62
     3
 10
397.44667820495209
 20
-115.7871578117836
 30
0.0
 11
397.44667820495209
 21
-114.5058842783029
 31
0.0
  0
LINE
  5
19FC4
  8
SU
  6
CONTINUOUS
 62
     3
 10
397.64667820495202
 20
-115.6671578117836
 30
0.0
 11
397.64667820495202
 21
-114.62588427830291
 31
0.0
  0
LINE
  5
19FC5
  8
SU
  6
CONTINUOUS
 62
     3
 10
397.84667820495218
 20
-115.54715781178361
 30
0.0
 11
397.84667820495218
 21
-114.7458842783029
 31
0.0
  0
LINE
  5
19FC6
  8
SU
  6
CONTINUOUS
 62
     3
 10
398.04667820495212
 20
-115.4271578117836
 30
0.0
 11
398.04667820495212
 21
-114.8658842783029
 31
0.0
  0
LINE
  5
19FC7
  8
SU
  6
CONTINUOUS
 62
     3
 10
398.2466782049521
 20
-115.3071578117836
 30
0.0
 11
398.2466782049521
 21
-114.98588427830281
 31
0.0
  0
LINE
  5
19FC8
  8
SU
  6
CONTINUOUS
 62
     3
 10
398.44667820495209
 20
-115.18715781178361
 30
0.0
 11
398.44667820495209
 21
-115.1058842783029
 31
0.0
  0
TEXT
  5
19FC9
  8
SU
  6
CONTINUOUS
 62
     3
 10
-182.5771231565686
 20
123.8445191858232
 30
0.0
 40
4.0
  1
7
 50
90.0
 41
0.8299999999999999
  0
TEXT
  5
19FCA
  8
SU
  6
CONTINUOUS
 62
     3
 10
-231.51807553752221
 20
-56.27452895172339
 30
0.0
 40
4.0
  1
24
 41
0.8299999999999999
  0
TEXT
  5
19FCB
  8
SU
  6
CONTINUOUS
 62
     3
 10
234.36527218219621
 20
-68.846521045043175
 30
0.0
 40
4.0
  1
1
 41
0.8299999999999999
  0
LINE
  5
19FCC
  8
OS
  6
CONTINUOUS
 62
     2
 10
-365.2771231565701
 20
-162.09287694330811
 30
0.0
 11
-360.31071590966371
 21
-157.12646969640181
 31
0.0
  0
LINE
  5
19FCD
  8
OS
  6
CONTINUOUS
 62
     2
 10
-365.2771231565701
 20
-171.9923718799198
 30
0.0
 11
-350.41122097305208
 21
-157.12646969640181
 31
0.0
  0
LINE
  5
19FCE
  8
OS
  6
CONTINUOUS
 62
     2
 10
-355.51172603644028
 20
-172.12646969640181
 30
0.0
 11
-340.51172603644022
 21
-157.12646969640181
 31
0.0
  0
LINE
  5
19FCF
  8
OS
  6
CONTINUOUS
 62
     2
 10
-345.6122310998287
 20
-172.1264696964019
 30
0.0
 11
-330.61223109982859
 21
-157.12646969640181
 31
0.0
  0
LINE
  5
19FD0
  8
OS
  6
CONTINUOUS
 62
     2
 10
-335.71273616321702
 20
-172.12646969640139
 30
0.0
 11
-320.71273616321719
 21
-157.12646969640181
 31
0.0
  0
LINE
  5
19FD1
  8
OS
  6
CONTINUOUS
 62
     2
 10
-325.81324122660533
 20
-172.1264696964019
 30
0.0
 11
-310.81324122660538
 21
-157.12646969640181
 31
0.0
  0
LINE
  5
19FD2
  8
OS
  6
CONTINUOUS
 62
     2
 10
-315.91374628999358
 20
-172.1264696964019
 30
0.0
 11
-300.91374628999358
 21
-157.12646969640181
 31
0.0
  0
LINE
  5
19FD3
  8
OS
  6
CONTINUOUS
 62
     2
 10
-302.51425135338201
 20
-168.62646969640139
 30
0.0
 11
-291.01425135338201
 21
-157.12646969640181
 31
0.0
  0
LINE
  5
19FD4
  8
OS
  6
CONTINUOUS
 62
     2
 10
-292.61475641677032
 20
-168.62646969640181
 30
0.0
 11
-281.11475641677032
 21
-157.12646969640181
 31
0.0
  0
LINE
  5
19FD5
  8
OS
  6
CONTINUOUS
 62
     2
 10
-282.71526148015852
 20
-168.62646969640181
 30
0.0
 11
-271.21526148015869
 21
-157.12646969640181
 31
0.0
  0
LINE
  5
19FD6
  8
OS
  6
CONTINUOUS
 62
     2
 10
-272.81576654354711
 20
-168.62646969640181
 30
0.0
 11
-261.31576654354723
 21
-157.12646969640181
 31
0.0
  0
LINE
  5
19FD7
  8
OS
  6
CONTINUOUS
 62
     2
 10
-266.41627160693548
 20
-172.12646969640181
 30
0.0
 11
-251.4162716069354
 21
-157.12646969640181
 31
0.0
  0
LINE
  5
19FD8
  8
OS
  6
CONTINUOUS
 62
     2
 10
-256.51677667032362
 20
-172.12646969640181
 30
0.0
 11
-241.51677667032351
 21
-157.12646969640181
 31
0.0
  0
LINE
  5
19FD9
  8
OS
  6
CONTINUOUS
 62
     2
 10
-246.61728173371199
 20
-172.12646969640181
 30
0.0
 11
-231.61728173371199
 21
-157.12646969640181
 31
0.0
  0
LINE
  5
19FDA
  8
OS
  6
CONTINUOUS
 62
     2
 10
-236.71778679710039
 20
-172.12646969640181
 30
0.0
 11
-221.74745593051011
 21
-157.1561388298116
 31
0.0
  0
LINE
  5
19FDB
  8
OS
  6
CONTINUOUS
 62
     2
 10
-226.81829186048881
 20
-172.12646969640139
 30
0.0
 11
-219.2771231565699
 21
-164.58530099248301
 31
0.0
  0
TEXT
  5
19FDC
  8
SU
  6
CONTINUOUS
 62
     3
 10
-232.4647422087528
 20
-190.82646969641701
 30
0.0
 40
4.0
  1
21
 41
0.8299999999999999
  0
TEXT
  5
19FDD
  8
SU
  6
CONTINUOUS
 62
     3
 10
-182.5771231565686
 20
-22.084528597106761
 30
0.0
 40
4.0
  1
6
 50
90.0
 41
0.8299999999999999
  0
TEXT
  5
19FDE
  8
SU
  6
CONTINUOUS
 62
     3
 10
-182.5771231565686
 20
-34.362147999343399
 30
0.0
 40
4.0
  1
2
 50
90.0
 41
0.8299999999999999
  0
TEXT
  5
19FDF
  8
SU
  6
CONTINUOUS
 62
     3
 10
-275.93902791847631
 20
-254.4309702536849
 30
0.0
 40
4.0
  1
38
 41
0.8299999999999999
  0
TEXT
  5
19FE0
  8
SU
  6
CONTINUOUS
 62
     3
 10
-246.13960609356991
 20
-254.4309702536849
 30
0.0
 40
4.0
  1
37.5
 41
0.8299999999999999
  0
TEXT
  5
19FE1
  8
SU
  6
CONTINUOUS
 62
     3
 10
-197.57665549798591
 20
-258.57882494262151
 30
0.0
 40
4.0
  1
（3）
 50
90.0
 41
0.8299999999999999
  0
TEXT
  5
19FE2
  8
SU
  6
CONTINUOUS
 62
     3
 10
-182.5771230430673
 20
-255.92525611101391
 30
0.0
 40
4.0
  1
ドアH（DH）
 50
90.0
 41
0.8299999999999999
  0
TEXT
  5
19FE3
  8
SU
  6
CONTINUOUS
 62
     3
 10
-167.5771230430687
 20
-249.57001801577559
 30
0.0
 40
4.0
  1
H
 50
90.0
 41
0.8299999999999999
  0
TEXT
  5
19FE4
  8
SU
  6
CONTINUOUS
 62
     3
 10
-182.5771230430673
 20
-290.19458944434729
 30
0.0
 40
4.0
  1
（5）
 50
90.0
 41
0.8299999999999999
  0
LINE
  5
19FE5
  8
SU
  6
CONTINUOUS
 62
     3
 10
-172.1977598098089
 20
-267.96324245216073
 30
0.0
 11
-160.3564862763283
 21
-267.96324245216073
 31
0.0
  0
LINE
  5
19FE6
  8
SU
  6
CONTINUOUS
 62
     3
 10
-172.07775980980909
 20
-268.16324245216072
 30
0.0
 11
-160.4764862763283
 21
-268.16324245216072
 31
0.0
  0
LINE
  5
19FE7
  8
SU
  6
CONTINUOUS
 62
     3
 10
-171.95775980980909
 20
-268.36324245216059
 30
0.0
 11
-160.59648627632831
 21
-268.36324245216059
 31
0.0
  0
LINE
  5
19FE8
  8
SU
  6
CONTINUOUS
 62
     3
 10
-171.83775980980911
 20
-268.56324245216041
 30
0.0
 11
-160.71648627632831
 21
-268.56324245216041
 31
0.0
  0
LINE
  5
19FE9
  8
SU
  6
CONTINUOUS
 62
     3
 10
-171.71775980980911
 20
-268.76324245216063
 30
0.0
 11
-160.836486276328
 21
-268.76324245216063
 31
0.0
  0
LINE
  5
19FEA
  8
SU
  6
CONTINUOUS
 62
     3
 10
-171.59775980980919
 20
-268.96324245216078
 30
0.0
 11
-160.95648627632809
 21
-268.96324245216078
 31
0.0
  0
LINE
  5
19FEB
  8
SU
  6
CONTINUOUS
 62
     3
 10
-171.4777598098091
 20
-269.16324245216072
 30
0.0
 11
-161.0764862763283
 21
-269.16324245216072
 31
0.0
  0
LINE
  5
19FEC
  8
SU
  6
CONTINUOUS
 62
     3
 10
-171.35775980980901
 20
-269.3632424521607
 30
0.0
 11
-161.1964862763283
 21
-269.3632424521607
 31
0.0
  0
LINE
  5
19FED
  8
SU
  6
CONTINUOUS
 62
     3
 10
-171.23775980980901
 20
-269.56324245216069
 30
0.0
 11
-161.31648627632831
 21
-269.56324245216069
 31
0.0
  0
LINE
  5
19FEE
  8
SU
  6
CONTINUOUS
 62
     3
 10
-171.1177598098092
 20
-269.76324245216063
 30
0.0
 11
-161.43648627632831
 21
-269.76324245216063
 31
0.0
  0
LINE
  5
19FEF
  8
SU
  6
CONTINUOUS
 62
     3
 10
-170.9977598098092
 20
-269.96324245216073
 30
0.0
 11
-161.556486276328
 21
-269.96324245216073
 31
0.0
  0
LINE
  5
19FF0
  8
SU
  6
CONTINUOUS
 62
     3
 10
-170.87775980980911
 20
-270.16324245216072
 30
0.0
 11
-161.67648627632801
 21
-270.16324245216072
 31
0.0
  0
LINE
  5
19FF1
  8
SU
  6
CONTINUOUS
 62
     3
 10
-170.75775980980879
 20
-270.3632424521607
 30
0.0
 11
-161.7964862763283
 21
-270.3632424521607
 31
0.0
  0
LINE
  5
19FF2
  8
SU
  6
CONTINUOUS
 62
     3
 10
-170.6377598098091
 20
-270.56324245216041
 30
0.0
 11
-161.9164862763283
 21
-270.56324245216041
 31
0.0
  0
LINE
  5
19FF3
  8
SU
  6
CONTINUOUS
 62
     3
 10
-170.51775980980901
 20
-270.76324245216068
 30
0.0
 11
-162.0364862763283
 21
-270.76324245216068
 31
0.0
  0
LINE
  5
19FF4
  8
SU
  6
CONTINUOUS
 62
     3
 10
-170.397759809809
 20
-270.96324245216073
 30
0.0
 11
-162.15648627632831
 21
-270.96324245216073
 31
0.0
  0
LINE
  5
19FF5
  8
SU
  6
CONTINUOUS
 62
     3
 10
-170.27775980980911
 20
-271.16324245216072
 30
0.0
 11
-162.27648627632831
 21
-271.16324245216072
 31
0.0
  0
LINE
  5
19FF6
  8
SU
  6
CONTINUOUS
 62
     3
 10
-170.15775980980911
 20
-271.3632424521607
 30
0.0
 11
-162.39648627632829
 21
-271.3632424521607
 31
0.0
  0
LINE
  5
19FF7
  8
SU
  6
CONTINUOUS
 62
     3
 10
-170.0377598098091
 20
-271.56324245216069
 30
0.0
 11
-162.5164862763281
 21
-271.56324245216069
 31
0.0
  0
LINE
  5
19FF8
  8
SU
  6
CONTINUOUS
 62
     3
 10
-169.91775980980881
 20
-271.76324245216063
 30
0.0
 11
-162.6364862763283
 21
-271.76324245216063
 31
0.0
  0
LINE
  5
19FF9
  8
SU
  6
CONTINUOUS
 62
     3
 10
-169.79775980980901
 20
-271.96324245216073
 30
0.0
 11
-162.7564862763283
 21
-271.96324245216073
 31
0.0
  0
LINE
  5
19FFA
  8
SU
  6
CONTINUOUS
 62
     3
 10
-169.67775980980909
 20
-272.16324245216072
 30
0.0
 11
-162.87648627632839
 21
-272.16324245216072
 31
0.0
  0
LINE
  5
19FFB
  8
SU
  6
CONTINUOUS
 62
     3
 10
-169.5577598098092
 20
-272.3632424521607
 30
0.0
 11
-162.99648627632831
 21
-272.3632424521607
 31
0.0
  0
LINE
  5
19FFC
  8
SU
  6
CONTINUOUS
 62
     3
 10
-169.43775980980919
 20
-272.56324245216041
 30
0.0
 11
-163.116486276328
 21
-272.56324245216041
 31
0.0
  0
LINE
  5
19FFD
  8
SU
  6
CONTINUOUS
 62
     3
 10
-169.31775980980879
 20
-272.76324245216068
 30
0.0
 11
-163.23648627632809
 21
-272.76324245216068
 31
0.0
  0
LINE
  5
19FFE
  8
SU
  6
CONTINUOUS
 62
     3
 10
-169.1977598098091
 20
-272.96324245216073
 30
0.0
 11
-163.3564862763283
 21
-272.96324245216073
 31
0.0
  0
LINE
  5
19FFF
  8
SU
  6
CONTINUOUS
 62
     3
 10
-169.07775980980901
 20
-273.16324245216072
 30
0.0
 11
-163.4764862763283
 21
-273.16324245216072
 31
0.0
  0
LINE
  5
1A000
  8
SU
  6
CONTINUOUS
 62
     3
 10
-168.957759809809
 20
-273.3632424521607
 30
0.0
 11
-163.59648627632831
 21
-273.3632424521607
 31
0.0
  0
LINE
  5
1A001
  8
SU
  6
CONTINUOUS
 62
     3
 10
-168.83775980980911
 20
-273.56324245216069
 30
0.0
 11
-163.71648627632831
 21
-273.56324245216069
 31
0.0
  0
LINE
  5
1A002
  8
SU
  6
CONTINUOUS
 62
     3
 10
-168.71775980980919
 20
-273.76324245216063
 30
0.0
 11
-163.83648627632829
 21
-273.76324245216063
 31
0.0
  0
LINE
  5
1A003
  8
SU
  6
CONTINUOUS
 62
     3
 10
-168.59775980980919
 20
-273.96324245216073
 30
0.0
 11
-163.95648627632829
 21
-273.96324245216073
 31
0.0
  0
LINE
  5
1A004
  8
SU
  6
CONTINUOUS
 62
     3
 10
-168.4777598098091
 20
-274.16324245216072
 30
0.0
 11
-164.0764862763283
 21
-274.16324245216072
 31
0.0
  0
LINE
  5
1A005
  8
SU
  6
CONTINUOUS
 62
     3
 10
-168.35775980980901
 20
-274.3632424521607
 30
0.0
 11
-164.1964862763283
 21
-274.3632424521607
 31
0.0
  0
LINE
  5
1A006
  8
SU
  6
CONTINUOUS
 62
     3
 10
-168.23775980980901
 20
-274.56324245216041
 30
0.0
 11
-164.31648627632831
 21
-274.56324245216041
 31
0.0
  0
LINE
  5
1A007
  8
SU
  6
CONTINUOUS
 62
     3
 10
-168.1177598098092
 20
-274.76324245216068
 30
0.0
 11
-164.43648627632831
 21
-274.76324245216068
 31
0.0
  0
LINE
  5
1A008
  8
SU
  6
CONTINUOUS
 62
     3
 10
-167.99775980980911
 20
-274.96324245216073
 30
0.0
 11
-164.556486276328
 21
-274.96324245216073
 31
0.0
  0
LINE
  5
1A009
  8
SU
  6
CONTINUOUS
 62
     3
 10
-167.87775980980911
 20
-275.16324245216072
 30
0.0
 11
-164.67648627632801
 21
-275.16324245216072
 31
0.0
  0
LINE
  5
1A00A
  8
SU
  6
CONTINUOUS
 62
     3
 10
-167.7577598098091
 20
-275.3632424521607
 30
0.0
 11
-164.7964862763283
 21
-275.3632424521607
 31
0.0
  0
LINE
  5
1A00B
  8
SU
  6
CONTINUOUS
 62
     3
 10
-167.6377598098091
 20
-275.56324245216069
 30
0.0
 11
-164.9164862763283
 21
-275.56324245216069
 31
0.0
  0
LINE
  5
1A00C
  8
SU
  6
CONTINUOUS
 62
     3
 10
-167.51775980980901
 20
-275.76324245216063
 30
0.0
 11
-165.03648627632811
 21
-275.76324245216063
 31
0.0
  0
LINE
  5
1A00D
  8
SU
  6
CONTINUOUS
 62
     3
 10
-167.3977598098088
 20
-275.96324245216073
 30
0.0
 11
-165.15648627632831
 21
-275.96324245216073
 31
0.0
  0
LINE
  5
1A00E
  8
SU
  6
CONTINUOUS
 62
     3
 10
-167.27775980980911
 20
-276.16324245216072
 30
0.0
 11
-165.27648627632831
 21
-276.16324245216072
 31
0.0
  0
LINE
  5
1A00F
  8
SU
  6
CONTINUOUS
 62
     3
 10
-167.15775980980911
 20
-276.3632424521607
 30
0.0
 11
-165.39648627632829
 21
-276.3632424521607
 31
0.0
  0
LINE
  5
1A010
  8
SU
  6
CONTINUOUS
 62
     3
 10
-167.0377598098091
 20
-276.56324245216041
 30
0.0
 11
-165.51648627632801
 21
-276.56324245216041
 31
0.0
  0
LINE
  5
1A011
  8
SU
  6
CONTINUOUS
 62
     3
 10
-166.91775980980881
 20
-276.76324245216068
 30
0.0
 11
-165.6364862763283
 21
-276.76324245216068
 31
0.0
  0
LINE
  5
1A012
  8
SU
  6
CONTINUOUS
 62
     3
 10
-166.79775980980901
 20
-276.96324245216073
 30
0.0
 11
-165.7564862763283
 21
-276.96324245216073
 31
0.0
  0
LINE
  5
1A013
  8
SU
  6
CONTINUOUS
 62
     3
 10
-166.6777598098092
 20
-277.16324245216072
 30
0.0
 11
-165.87648627632831
 21
-277.16324245216072
 31
0.0
  0
LINE
  5
1A014
  8
SU
  6
CONTINUOUS
 62
     3
 10
-166.55775980980911
 20
-277.3632424521607
 30
0.0
 11
-165.99648627632831
 21
-277.3632424521607
 31
0.0
  0
LINE
  5
1A015
  8
SU
  6
CONTINUOUS
 62
     3
 10
-166.43775980980911
 20
-277.56324245216069
 30
0.0
 11
-166.116486276328
 21
-277.56324245216069
 31
0.0
  0
LINE
  5
1A016
  8
SU
  6
CONTINUOUS
 62
     3
 10
-166.3177598098091
 20
-277.76324245216063
 30
0.0
 11
-166.23648627632801
 21
-277.76324245216063
 31
0.0
  0
TEXT
  5
1A017
  8
SU
  6
CONTINUOUS
 62
     3
 10
-231.51807553752309
 20
-305.53097039673622
 30
0.0
 40
4.0
  1
24
 41
0.8299999999999999
  0
TEXT
  5
1A018
  8
SU
  6
CONTINUOUS
 62
     3
 10
-167.5771230430687
 20
-287.2300180157759
 30
0.0
 40
4.0
  1
12
 50
90.0
 41
0.8299999999999999
  0
TEXT
  5
1A019
  8
SU
  6
CONTINUOUS
 62
     3
 10
118.3462225634504
 20
138.15349058077871
 30
0.0
 40
4.0
  1
有効開口＝W-172
 41
0.8299999999999999
  0
TEXT
  5
1A01A
  8
SU
  6
CONTINUOUS
 62
     3
 10
-404.57712315657022
 20
159.184518667323
 30
0.0
 40
4.0
  1
24
 50
90.0
 41
0.8299999999999999
  0
TEXT
  5
1A01B
  8
SU
  6
CONTINUOUS
 62
     3
 10
-404.57712315657022
 20
121.8999538387516
 30
0.0
 40
4.0
  1
（13）
 50
90.0
 41
0.8299999999999999
  0
ARC
  5
1A01C
  8
SU
  6
CONTINUOUS
 62
     3
 10
-403.27712315657021
 20
150.42547104827551
 30
0.0
 40
0.3000000000000114
 50
270.0
 51
90.0
  0
ARC
  5
1A01D
  8
SU
  6
CONTINUOUS
 62
     3
 10
-403.27712315657021
 20
150.42547104827551
 30
0.0
 40
0.3000000000000114
 50
90.0
 51
270.0
  0
ARC
  5
1A01E
  8
SU
  6
CONTINUOUS
 62
     3
 10
-403.27712315657021
 20
137.4254776482752
 30
0.0
 40
0.3000000000000114
 50
90.0
 51
270.0
  0
ARC
  5
1A01F
  8
SU
  6
CONTINUOUS
 62
     3
 10
-403.27712315657021
 20
137.4254776482752
 30
0.0
 40
0.3000000000000114
 50
270.0
 51
90.0
  0
ARC
  5
1A020
  8
SU
  6
CONTINUOUS
 62
     3
 10
-403.27712315657021
 20
174.42547104827551
 30
0.0
 40
0.3000000000000114
 50
270.0
 51
90.0
  0
ARC
  5
1A021
  8
SU
  6
CONTINUOUS
 62
     3
 10
-403.27712315657021
 20
174.42547104827551
 30
0.0
 40
0.3000000000000114
 50
90.0
 51
270.0
  0
ARC
  5
1A022
  8
SU
  6
CONTINUOUS
 62
     3
 10
-403.27712315657021
 20
150.42547104827551
 30
0.0
 40
0.3000000000000114
 50
90.0
 51
270.0
  0
ARC
  5
1A023
  8
SU
  6
CONTINUOUS
 62
     3
 10
-403.27712315657021
 20
150.42547104827551
 30
0.0
 40
0.3000000000000114
 50
270.0
 51
90.0
  0
ARC
  5
1A024
  8
SU
  6
CONTINUOUS
 62
     3
 10
288.01422945357189
 20
136.85349058077861
 30
0.0
 40
0.3000000000000114
 50
180.0
 51
0.0
  0
ARC
  5
1A025
  8
SU
  6
CONTINUOUS
 62
     3
 10
288.01422945357189
 20
136.85349058077861
 30
0.0
 40
0.3000000000000114
 50
0.0
 51
180.0
  0
ARC
  5
1A026
  8
SU
  6
CONTINUOUS
 62
     3
 10
-166.27712304306871
 20
-289.83097039672822
 30
0.0
 40
0.3000000000000114
 50
90.0
 51
270.0
  0
ARC
  5
1A027
  8
SU
  6
CONTINUOUS
 62
     3
 10
-166.27712304306871
 20
-289.83097039672822
 30
0.0
 40
0.3000000000000114
 50
270.0
 51
90.0
  0
ARC
  5
1A028
  8
SU
  6
CONTINUOUS
 62
     3
 10
-216.2771231565701
 20
-306.83097039673601
 30
0.0
 40
0.3000000000000114
 50
180.0
 51
0.0
  0
ARC
  5
1A029
  8
SU
  6
CONTINUOUS
 62
     3
 10
-216.2771231565701
 20
-306.83097039673601
 30
0.0
 40
0.3000000000000114
 50
0.0
 51
180.0
  0
ARC
  5
1A02A
  8
SU
  6
CONTINUOUS
 62
     3
 10
-240.27712315657121
 20
-306.83097039673601
 30
0.0
 40
0.3000000000000114
 50
0.0
 51
180.0
  0
ARC
  5
1A02B
  8
SU
  6
CONTINUOUS
 62
     3
 10
-240.27712315657121
 20
-306.83097039673601
 30
0.0
 40
0.3000000000000114
 50
180.0
 51
0.0
  0
ARC
  5
1A02C
  8
SU
  6
CONTINUOUS
 62
     3
 10
-181.27712304306741
 20
-277.83097039672822
 30
0.0
 40
0.3000000000000114
 50
90.0
 51
270.0
  0
ARC
  5
1A02D
  8
SU
  6
CONTINUOUS
 62
     3
 10
-181.27712304306741
 20
-277.83097039672822
 30
0.0
 40
0.3000000000000114
 50
270.0
 51
90.0
  0
ARC
  5
1A02E
  8
SU
  6
CONTINUOUS
 62
     3
 10
-181.27712304306741
 20
-269.83097039672799
 30
0.0
 40
0.3000000000000114
 50
90.0
 51
270.0
  0
ARC
  5
1A02F
  8
SU
  6
CONTINUOUS
 62
     3
 10
-181.27712304306741
 20
-269.83097039672799
 30
0.0
 40
0.3000000000000114
 50
270.0
 51
90.0
  0
ARC
  5
1A030
  8
SU
  6
CONTINUOUS
 62
     3
 10
-181.27712304306741
 20
-273.03097039672809
 30
0.0
 40
0.3000000000000114
 50
90.0
 51
270.0
  0
ARC
  5
1A031
  8
SU
  6
CONTINUOUS
 62
     3
 10
-181.27712304306741
 20
-273.03097039672809
 30
0.0
 40
0.3000000000000114
 50
270.0
 51
90.0
  0
ARC
  5
1A032
  8
SU
  6
CONTINUOUS
 62
     3
 10
-216.27712315657121
 20
-255.7309702536846
 30
0.0
 40
0.3000000000000114
 50
180.0
 51
0.0
  0
ARC
  5
1A033
  8
SU
  6
CONTINUOUS
 62
     3
 10
-216.27712315657121
 20
-255.7309702536846
 30
0.0
 40
0.3000000000000114
 50
0.0
 51
180.0
  0
ARC
  5
1A034
  8
SU
  6
CONTINUOUS
 62
     3
 10
-291.77712315657158
 20
-255.7309702536846
 30
0.0
 40
0.3000000000000114
 50
0.0
 51
180.0
  0
ARC
  5
1A035
  8
SU
  6
CONTINUOUS
 62
     3
 10
-291.77712315657158
 20
-255.7309702536846
 30
0.0
 40
0.3000000000000114
 50
180.0
 51
0.0
  0
ARC
  5
1A036
  8
SU
  6
CONTINUOUS
 62
     3
 10
-253.77712315657129
 20
-255.7309702536846
 30
0.0
 40
0.3000000000000114
 50
180.0
 51
0.0
  0
ARC
  5
1A037
  8
SU
  6
CONTINUOUS
 62
     3
 10
-253.77712315657129
 20
-255.7309702536846
 30
0.0
 40
0.3000000000000114
 50
0.0
 51
180.0
  0
ARC
  5
1A038
  8
SU
  6
CONTINUOUS
 62
     3
 10
-181.27712315656871
 20
-25.574528951724329
 30
0.0
 40
0.3000000000000007
 50
270.0
 51
90.0
  0
ARC
  5
1A039
  8
SU
  6
CONTINUOUS
 62
     3
 10
-181.27712315656871
 20
-25.574528951724329
 30
0.0
 40
0.3000000000000007
 50
90.0
 51
270.0
  0
ARC
  5
1A03A
  8
SU
  6
CONTINUOUS
 62
     3
 10
-181.27712315656871
 20
-23.274528760989369
 30
0.0
 40
0.3000000000000007
 50
90.0
 51
270.0
  0
ARC
  5
1A03B
  8
SU
  6
CONTINUOUS
 62
     3
 10
-181.27712315656871
 20
-23.274528760989369
 30
0.0
 40
0.3000000000000007
 50
270.0
 51
90.0
  0
ARC
  5
1A03C
  8
SU
  6
CONTINUOUS
 62
     3
 10
-240.27712315657001
 20
-192.1264696964169
 30
0.0
 40
0.3000000000000114
 50
0.0
 51
180.0
  0
ARC
  5
1A03D
  8
SU
  6
CONTINUOUS
 62
     3
 10
-240.27712315657001
 20
-192.1264696964169
 30
0.0
 40
0.3000000000000114
 50
180.0
 51
0.0
  0
ARC
  5
1A03E
  8
SU
  6
CONTINUOUS
 62
     3
 10
-219.2771231656973
 20
-192.1264696964169
 30
0.0
 40
0.3000000000000114
 50
180.0
 51
0.0
  0
ARC
  5
1A03F
  8
SU
  6
CONTINUOUS
 62
     3
 10
-219.2771231656973
 20
-192.1264696964169
 30
0.0
 40
0.3000000000000114
 50
0.0
 51
180.0
  0
ARC
  5
1A040
  8
SU
  6
CONTINUOUS
 62
     3
 10
228.2138436107675
 20
-70.146521045043187
 30
0.0
 40
0.3000000000000114
 50
180.0
 51
0.0
  0
ARC
  5
1A041
  8
SU
  6
CONTINUOUS
 62
     3
 10
228.2138436107675
 20
-70.146521045043187
 30
0.0
 40
0.3000000000000114
 50
0.0
 51
180.0
  0
ARC
  5
1A042
  8
SU
  6
CONTINUOUS
 62
     3
 10
229.2138436107675
 20
-70.146521045043187
 30
0.0
 40
0.3000000000000114
 50
0.0
 51
180.0
  0
ARC
  5
1A043
  8
SU
  6
CONTINUOUS
 62
     3
 10
229.2138436107675
 20
-70.146521045043187
 30
0.0
 40
0.3000000000000114
 50
180.0
 51
0.0
  0
ARC
  5
1A044
  8
SU
  6
CONTINUOUS
 62
     3
 10
-240.27712315657001
 20
-57.57452895172338
 30
0.0
 40
0.3000000000000114
 50
0.0
 51
180.0
  0
ARC
  5
1A045
  8
SU
  6
CONTINUOUS
 62
     3
 10
-240.27712315657001
 20
-57.57452895172338
 30
0.0
 40
0.3000000000000114
 50
180.0
 51
0.0
  0
ARC
  5
1A046
  8
SU
  6
CONTINUOUS
 62
     3
 10
-216.2771231565701
 20
-57.57452895172338
 30
0.0
 40
0.3000000000000114
 50
180.0
 51
0.0
  0
ARC
  5
1A047
  8
SU
  6
CONTINUOUS
 62
     3
 10
-216.2771231565701
 20
-57.57452895172338
 30
0.0
 40
0.3000000000000114
 50
0.0
 51
180.0
  0
ARC
  5
1A048
  8
SU
  6
CONTINUOUS
 62
     3
 10
-181.27712315656871
 20
121.9254715667758
 30
0.0
 40
0.2999999999999971
 50
90.0
 51
270.0
  0
ARC
  5
1A049
  8
SU
  6
CONTINUOUS
 62
     3
 10
-181.27712315656871
 20
121.9254715667758
 30
0.0
 40
0.2999999999999971
 50
270.0
 51
90.0
  0
ARC
  5
1A04A
  8
SU
  6
CONTINUOUS
 62
     3
 10
398.51422943798502
 20
-100.1465210450433
 30
0.0
 40
0.3000000000000114
 50
180.0
 51
0.0
  0
ARC
  5
1A04B
  8
SU
  6
CONTINUOUS
 62
     3
 10
398.51422943798502
 20
-100.1465210450433
 30
0.0
 40
0.3000000000000114
 50
0.0
 51
180.0
  0
ARC
  5
1A04C
  8
SU
  6
CONTINUOUS
 62
     3
 10
5.514406149519413
 20
18.353490580781401
 30
0.0
 40
0.3000000000000007
 50
270.0
 51
90.0
  0
ARC
  5
1A04D
  8
SU
  6
CONTINUOUS
 62
     3
 10
5.514406149519413
 20
18.353490580781401
 30
0.0
 40
0.3000000000000007
 50
90.0
 51
270.0
  0
ARC
  5
1A04E
  8
SU
  6
CONTINUOUS
 62
     3
 10
5.5144061495194121
 20
-9.6465094192049143
 30
0.0
 40
0.3000000000000007
 50
90.0
 51
270.0
  0
ARC
  5
1A04F
  8
SU
  6
CONTINUOUS
 62
     3
 10
5.5144061495194121
 20
-9.6465094192049143
 30
0.0
 40
0.3000000000000007
 50
270.0
 51
90.0
  0
ARC
  5
1A050
  8
SU
  6
CONTINUOUS
 62
     3
 10
5.514406149519413
 20
-5.6465094192209424
 30
0.0
 40
0.2999999999999998
 50
270.0
 51
90.0
  0
ARC
  5
1A051
  8
SU
  6
CONTINUOUS
 62
     3
 10
5.514406149519413
 20
-5.6465094192209424
 30
0.0
 40
0.2999999999999998
 50
90.0
 51
270.0
  0
ARC
  5
1A052
  8
SU
  6
CONTINUOUS
 62
     3
 10
5.514406149519413
 20
-42.646509419204911
 30
0.0
 40
0.2999999999999971
 50
90.0
 51
270.0
  0
ARC
  5
1A053
  8
SU
  6
CONTINUOUS
 62
     3
 10
5.514406149519413
 20
-42.646509419204911
 30
0.0
 40
0.2999999999999971
 50
270.0
 51
90.0
  0
ARC
  5
1A054
  8
SU
  6
CONTINUOUS
 62
     3
 10
5.5144061495194174
 20
-42.646509419204911
 30
0.0
 40
0.2999999999999971
 50
270.0
 51
90.0
  0
ARC
  5
1A055
  8
SU
  6
CONTINUOUS
 62
     3
 10
5.5144061495194174
 20
-42.646509419204911
 30
0.0
 40
0.2999999999999971
 50
90.0
 51
270.0
  0
ARC
  5
1A056
  8
SU
  6
CONTINUOUS
 62
     3
 10
5.514406149519413
 20
-50.146509419221061
 30
0.0
 40
0.2999999999999971
 50
90.0
 51
270.0
  0
ARC
  5
1A057
  8
SU
  6
CONTINUOUS
 62
     3
 10
5.514406149519413
 20
-50.146509419221061
 30
0.0
 40
0.2999999999999971
 50
270.0
 51
90.0
  0
ARC
  5
1A058
  8
SU
  6
CONTINUOUS
 62
     3
 10
-23.485593834894122
 20
-100.1465210450433
 30
0.0
 40
0.3000000000000007
 50
180.0
 51
0.0
  0
ARC
  5
1A059
  8
SU
  6
CONTINUOUS
 62
     3
 10
-23.485593834894122
 20
-100.1465210450433
 30
0.0
 40
0.3000000000000007
 50
0.0
 51
180.0
  0
ARC
  5
1A05A
  8
SU
  6
CONTINUOUS
 62
     3
 10
-27.485593850480811
 20
-100.1465210450433
 30
0.0
 40
0.3000000000000007
 50
0.0
 51
180.0
  0
ARC
  5
1A05B
  8
SU
  6
CONTINUOUS
 62
     3
 10
-27.485593850480811
 20
-100.1465210450433
 30
0.0
 40
0.3000000000000007
 50
180.0
 51
0.0
  0
ARC
  5
1A05C
  8
SU
  6
CONTINUOUS
 62
     3
 10
-51.485593850481052
 20
-100.1465210450433
 30
0.0
 40
0.2999999999999971
 50
0.0
 51
180.0
  0
ARC
  5
1A05D
  8
SU
  6
CONTINUOUS
 62
     3
 10
-51.485593850481052
 20
-100.1465210450433
 30
0.0
 40
0.2999999999999971
 50
180.0
 51
0.0
  0
ARC
  5
1A05E
  8
SU
  6
CONTINUOUS
 62
     3
 10
-23.485593834893638
 20
-70.146521045043187
 30
0.0
 40
0.3000000000000007
 50
0.0
 51
180.0
  0
ARC
  5
1A05F
  8
SU
  6
CONTINUOUS
 62
     3
 10
-23.485593834893638
 20
-70.146521045043187
 30
0.0
 40
0.3000000000000007
 50
180.0
 51
0.0
  0
ARC
  5
1A060
  8
SU
  6
CONTINUOUS
 62
     3
 10
368.51422943798508
 20
-100.1465210450433
 30
0.0
 40
0.3000000000000114
 50
0.0
 51
180.0
  0
ARC
  5
1A061
  8
SU
  6
CONTINUOUS
 62
     3
 10
368.51422943798508
 20
-100.1465210450433
 30
0.0
 40
0.3000000000000114
 50
180.0
 51
0.0
  0
ARC
  5
1A062
  8
SU
  6
CONTINUOUS
 62
     3
 10
374.51422943798309
 20
-100.1465210450433
 30
0.0
 40
0.3000000000000114
 50
180.0
 51
0.0
  0
ARC
  5
1A063
  8
SU
  6
CONTINUOUS
 62
     3
 10
374.51422943798309
 20
-100.1465210450433
 30
0.0
 40
0.3000000000000114
 50
0.0
 51
180.0
  0
ARC
  5
1A064
  8
SU
  6
CONTINUOUS
 62
     3
 10
368.51422943798508
 20
-100.1465210450433
 30
0.0
 40
0.3000000000000114
 50
180.0
 51
0.0
  0
ARC
  5
1A065
  8
SU
  6
CONTINUOUS
 62
     3
 10
368.51422943798508
 20
-100.1465210450433
 30
0.0
 40
0.3000000000000114
 50
0.0
 51
180.0
  0
ARC
  5
1A066
  8
SU
  6
CONTINUOUS
 62
     3
 10
-23.485593834893638
 20
-100.1465210450433
 30
0.0
 40
0.3000000000000007
 50
0.0
 51
180.0
  0
ARC
  5
1A067
  8
SU
  6
CONTINUOUS
 62
     3
 10
-23.485593834893638
 20
-100.1465210450433
 30
0.0
 40
0.3000000000000007
 50
180.0
 51
0.0
  0
ARC
  5
1A068
  8
SU
  6
CONTINUOUS
 62
     3
 10
368.51422943798508
 20
-70.146521045043187
 30
0.0
 40
0.3000000000000114
 50
180.0
 51
0.0
  0
ARC
  5
1A069
  8
SU
  6
CONTINUOUS
 62
     3
 10
368.51422943798508
 20
-70.146521045043187
 30
0.0
 40
0.3000000000000114
 50
0.0
 51
180.0
  0
ARC
  5
1A06A
  8
SU
  6
CONTINUOUS
 62
     3
 10
229.2138436107675
 20
-70.146521045043187
 30
0.0
 40
0.3000000000000114
 50
0.0
 51
180.0
  0
ARC
  5
1A06B
  8
SU
  6
CONTINUOUS
 62
     3
 10
229.2138436107675
 20
-70.146521045043187
 30
0.0
 40
0.3000000000000114
 50
180.0
 51
0.0
  0
ARC
  5
1A06C
  8
SU
  6
CONTINUOUS
 62
     3
 10
-27.48559385048058
 20
136.85349058077861
 30
0.0
 40
0.3000000000000007
 50
0.0
 51
180.0
  0
ARC
  5
1A06D
  8
SU
  6
CONTINUOUS
 62
     3
 10
-27.48559385048058
 20
136.85349058077861
 30
0.0
 40
0.3000000000000007
 50
180.0
 51
0.0
  0
ARC
  5
1A06E
  8
SU
  6
CONTINUOUS
 62
     3
 10
-14.48559385048056
 20
136.85349058077861
 30
0.0
 40
0.3000000000000007
 50
180.0
 51
0.0
  0
ARC
  5
1A06F
  8
SU
  6
CONTINUOUS
 62
     3
 10
-14.48559385048056
 20
136.85349058077861
 30
0.0
 40
0.3000000000000007
 50
0.0
 51
180.0
  0
ARC
  5
1A070
  8
SU
  6
CONTINUOUS
 62
     3
 10
34.514408598048348
 20
116.8534905807789
 30
0.0
 40
0.2999999999999971
 50
270.0
 51
90.0
  0
ARC
  5
1A071
  8
SU
  6
CONTINUOUS
 62
     3
 10
34.514408598048348
 20
116.8534905807789
 30
0.0
 40
0.2999999999999971
 50
90.0
 51
270.0
  0
ARC
  5
1A072
  8
SU
  6
CONTINUOUS
 62
     3
 10
34.51440859804832
 20
-50.146509419221061
 30
0.0
 40
0.2999999999999971
 50
90.0
 51
270.0
  0
ARC
  5
1A073
  8
SU
  6
CONTINUOUS
 62
     3
 10
34.51440859804832
 20
-50.146509419221061
 30
0.0
 40
0.2999999999999971
 50
270.0
 51
90.0
  0
ARC
  5
1A074
  8
SU
  6
CONTINUOUS
 62
     3
 10
374.5142294379848
 20
136.85349058077861
 30
0.0
 40
0.3000000000000114
 50
180.0
 51
0.0
  0
ARC
  5
1A075
  8
SU
  6
CONTINUOUS
 62
     3
 10
374.5142294379848
 20
136.85349058077861
 30
0.0
 40
0.3000000000000114
 50
0.0
 51
180.0
  0
ARC
  5
1A076
  8
SU
  6
CONTINUOUS
 62
     3
 10
361.5142294379848
 20
136.85349058077861
 30
0.0
 40
0.3000000000000114
 50
0.0
 51
180.0
  0
ARC
  5
1A077
  8
SU
  6
CONTINUOUS
 62
     3
 10
361.5142294379848
 20
136.85349058077861
 30
0.0
 40
0.3000000000000114
 50
180.0
 51
0.0
  0
ARC
  5
1A078
  8
SU
  6
CONTINUOUS
 62
     3
 10
5.5144061495194192
 20
116.8534905807789
 30
0.0
 40
0.2999999999999971
 50
270.0
 51
90.0
  0
ARC
  5
1A079
  8
SU
  6
CONTINUOUS
 62
     3
 10
5.5144061495194192
 20
116.8534905807789
 30
0.0
 40
0.2999999999999971
 50
90.0
 51
270.0
  0
ARC
  5
1A07A
  8
SU
  6
CONTINUOUS
 62
     3
 10
-122.4855962990097
 20
105.85349058077919
 30
0.0
 40
0.2999999999999971
 50
270.0
 51
90.0
  0
ARC
  5
1A07B
  8
SU
  6
CONTINUOUS
 62
     3
 10
-122.4855962990097
 20
105.85349058077919
 30
0.0
 40
0.2999999999999971
 50
90.0
 51
270.0
  0
ARC
  5
1A07C
  8
SU
  6
CONTINUOUS
 62
     3
 10
-227.27712315657001
 20
235.4254710482833
 30
0.0
 40
0.3000000000000114
 50
180.0
 51
0.0
  0
ARC
  5
1A07D
  8
SU
  6
CONTINUOUS
 62
     3
 10
-227.27712315657001
 20
235.4254710482833
 30
0.0
 40
0.3000000000000114
 50
0.0
 51
180.0
  0
ARC
  5
1A07E
  8
SU
  6
CONTINUOUS
 62
     3
 10
-227.27712315657001
 20
250.4254710482835
 30
0.0
 40
0.3000000000000114
 50
0.0
 51
180.0
  0
ARC
  5
1A07F
  8
SU
  6
CONTINUOUS
 62
     3
 10
-227.27712315657001
 20
250.4254710482835
 30
0.0
 40
0.3000000000000114
 50
180.0
 51
0.0
  0
ARC
  5
1A080
  8
SU
  6
CONTINUOUS
 62
     3
 10
-216.27712315657001
 20
250.4254710482835
 30
0.0
 40
0.3000000000000114
 50
180.0
 51
0.0
  0
ARC
  5
1A081
  8
SU
  6
CONTINUOUS
 62
     3
 10
-216.27712315657001
 20
250.4254710482835
 30
0.0
 40
0.3000000000000114
 50
0.0
 51
180.0
  0
ARC
  5
1A082
  8
SU
  6
CONTINUOUS
 62
     3
 10
-223.7771231565701
 20
89.925470882292629
 30
0.0
 40
0.3000000000000114
 50
0.0
 51
180.0
  0
ARC
  5
1A083
  8
SU
  6
CONTINUOUS
 62
     3
 10
-223.7771231565701
 20
89.925470882292629
 30
0.0
 40
0.3000000000000114
 50
180.0
 51
0.0
  0
ARC
  5
1A084
  8
SU
  6
CONTINUOUS
 62
     3
 10
-219.2771231565699
 20
89.925470882292629
 30
0.0
 40
0.3000000000000114
 50
180.0
 51
0.0
  0
ARC
  5
1A085
  8
SU
  6
CONTINUOUS
 62
     3
 10
-219.2771231565699
 20
89.925470882292629
 30
0.0
 40
0.3000000000000114
 50
0.0
 51
180.0
  0
ARC
  5
1A086
  8
SU
  6
CONTINUOUS
 62
     3
 10
-260.77712315656998
 20
89.925470882292629
 30
0.0
 40
0.3000000000000114
 50
0.0
 51
180.0
  0
ARC
  5
1A087
  8
SU
  6
CONTINUOUS
 62
     3
 10
-260.77712315656998
 20
89.925470882292629
 30
0.0
 40
0.3000000000000114
 50
180.0
 51
0.0
  0
ARC
  5
1A088
  8
SU
  6
CONTINUOUS
 62
     3
 10
-256.77712315656998
 20
89.925470882292629
 30
0.0
 40
0.3000000000000114
 50
0.0
 51
180.0
  0
ARC
  5
1A089
  8
SU
  6
CONTINUOUS
 62
     3
 10
-256.77712315656998
 20
89.925470882292629
 30
0.0
 40
0.3000000000000114
 50
180.0
 51
0.0
  0
ARC
  5
1A08A
  8
SU
  6
CONTINUOUS
 62
     3
 10
-284.7771231565701
 20
89.925470882292629
 30
0.0
 40
0.3000000000000114
 50
0.0
 51
180.0
  0
ARC
  5
1A08B
  8
SU
  6
CONTINUOUS
 62
     3
 10
-284.7771231565701
 20
89.925470882292629
 30
0.0
 40
0.3000000000000114
 50
180.0
 51
0.0
  0
ARC
  5
1A08C
  8
SU
  6
CONTINUOUS
 62
     3
 10
-216.27712315657001
 20
74.925470882292643
 30
0.0
 40
0.3000000000000114
 50
180.0
 51
0.0
  0
ARC
  5
1A08D
  8
SU
  6
CONTINUOUS
 62
     3
 10
-216.27712315657001
 20
74.925470882292643
 30
0.0
 40
0.3000000000000114
 50
0.0
 51
180.0
  0
ARC
  5
1A08E
  8
SU
  6
CONTINUOUS
 62
     3
 10
-181.27712315656871
 20
150.42547104827551
 30
0.0
 40
0.3000000000000114
 50
90.0
 51
270.0
  0
ARC
  5
1A08F
  8
SU
  6
CONTINUOUS
 62
     3
 10
-181.27712315656871
 20
150.42547104827551
 30
0.0
 40
0.3000000000000114
 50
270.0
 51
90.0
  0
ARC
  5
1A090
  8
SU
  6
CONTINUOUS
 62
     3
 10
-181.27712315656871
 20
174.42547104827551
 30
0.0
 40
0.3000000000000114
 50
270.0
 51
90.0
  0
ARC
  5
1A091
  8
SU
  6
CONTINUOUS
 62
     3
 10
-181.27712315656871
 20
174.42547104827551
 30
0.0
 40
0.3000000000000114
 50
90.0
 51
270.0
  0
ARC
  5
1A092
  8
SU
  6
CONTINUOUS
 62
     3
 10
-181.27712315656871
 20
128.92547156677571
 30
0.0
 40
0.3000000000000114
 50
90.0
 51
270.0
  0
ARC
  5
1A093
  8
SU
  6
CONTINUOUS
 62
     3
 10
-181.27712315656871
 20
128.92547156677571
 30
0.0
 40
0.3000000000000114
 50
270.0
 51
90.0
  0
ARC
  5
1A094
  8
SU
  6
CONTINUOUS
 62
     3
 10
-181.27712315656871
 20
150.42547104827551
 30
0.0
 40
0.3000000000000114
 50
270.0
 51
90.0
  0
ARC
  5
1A095
  8
SU
  6
CONTINUOUS
 62
     3
 10
-181.27712315656871
 20
150.42547104827551
 30
0.0
 40
0.3000000000000114
 50
90.0
 51
270.0
  0
ARC
  5
1A096
  8
SU
  6
CONTINUOUS
 62
     3
 10
-372.27712315657021
 20
235.4254710482833
 30
0.0
 40
0.3000000000000114
 50
0.0
 51
180.0
  0
ARC
  5
1A097
  8
SU
  6
CONTINUOUS
 62
     3
 10
-372.27712315657021
 20
235.4254710482833
 30
0.0
 40
0.3000000000000114
 50
180.0
 51
0.0
  0
ARC
  5
1A098
  8
SU
  6
CONTINUOUS
 62
     3
 10
-372.27712315657021
 20
250.4254710482835
 30
0.0
 40
0.3000000000000114
 50
180.0
 51
0.0
  0
ARC
  5
1A099
  8
SU
  6
CONTINUOUS
 62
     3
 10
-372.27712315657021
 20
250.4254710482835
 30
0.0
 40
0.3000000000000114
 50
0.0
 51
180.0
  0
ARC
  5
1A09A
  8
SU
  6
CONTINUOUS
 62
     3
 10
-383.27712315657021
 20
250.4254710482835
 30
0.0
 40
0.3000000000000114
 50
0.0
 51
180.0
  0
ARC
  5
1A09B
  8
SU
  6
CONTINUOUS
 62
     3
 10
-383.27712315657021
 20
250.4254710482835
 30
0.0
 40
0.3000000000000114
 50
180.0
 51
0.0
  0
ARC
  5
1A09C
  8
SU
  6
CONTINUOUS
 62
     3
 10
-383.27712315657021
 20
74.925470882292643
 30
0.0
 40
0.3000000000000114
 50
0.0
 51
180.0
  0
ARC
  5
1A09D
  8
SU
  6
CONTINUOUS
 62
     3
 10
-383.27712315657021
 20
74.925470882292643
 30
0.0
 40
0.3000000000000114
 50
180.0
 51
0.0
  0
ARC
  5
1A09E
  8
SU
  6
CONTINUOUS
 62
     3
 10
-219.2771231565699
 20
74.925470882292643
 30
0.0
 40
0.3000000000000114
 50
180.0
 51
0.0
  0
ARC
  5
1A09F
  8
SU
  6
CONTINUOUS
 62
     3
 10
-219.2771231565699
 20
74.925470882292643
 30
0.0
 40
0.3000000000000114
 50
0.0
 51
180.0
  0
ARC
  5
1A0A0
  8
SU
  6
CONTINUOUS
 62
     3
 10
-380.27712315657033
 20
74.925470882292643
 30
0.0
 40
0.3000000000000114
 50
0.0
 51
180.0
  0
ARC
  5
1A0A1
  8
SU
  6
CONTINUOUS
 62
     3
 10
-380.27712315657033
 20
74.925470882292643
 30
0.0
 40
0.3000000000000114
 50
180.0
 51
0.0
  0
ARC
  5
1A0A2
  8
SU
  6
CONTINUOUS
 62
     3
 10
-380.27712315657033
 20
89.925470882292629
 30
0.0
 40
0.3000000000000114
 50
0.0
 51
180.0
  0
ARC
  5
1A0A3
  8
SU
  6
CONTINUOUS
 62
     3
 10
-380.27712315657033
 20
89.925470882292629
 30
0.0
 40
0.3000000000000114
 50
180.0
 51
0.0
  0
ARC
  5
1A0A4
  8
SU
  6
CONTINUOUS
 62
     3
 10
-359.77706667785799
 20
235.4254710482833
 30
0.0
 40
0.3000000000000114
 50
0.0
 51
180.0
  0
ARC
  5
1A0A5
  8
SU
  6
CONTINUOUS
 62
     3
 10
-359.77706667785799
 20
235.4254710482833
 30
0.0
 40
0.3000000000000114
 50
180.0
 51
0.0
  0
ARC
  5
1A0A6
  8
SU
  6
CONTINUOUS
 62
     3
 10
-239.77712315657001
 20
235.4254710482833
 30
0.0
 40
0.3000000000000114
 50
180.0
 51
0.0
  0
ARC
  5
1A0A7
  8
SU
  6
CONTINUOUS
 62
     3
 10
-239.77712315657001
 20
235.4254710482833
 30
0.0
 40
0.3000000000000114
 50
0.0
 51
180.0
  0
ARC
  5
1A0A8
  8
SU
  6
CONTINUOUS
 62
     3
 10
-122.4855962990097
 20
-39.146509419220592
 30
0.0
 40
0.2999999999999971
 50
90.0
 51
270.0
  0
ARC
  5
1A0A9
  8
SU
  6
CONTINUOUS
 62
     3
 10
-122.4855962990097
 20
-39.146509419220592
 30
0.0
 40
0.2999999999999971
 50
270.0
 51
90.0
  0
ARC
  5
1A0AA
  8
SU
  6
CONTINUOUS
 62
     3
 10
-166.2771231565701
 20
-37.574528951724218
 30
0.0
 40
0.2999999999999971
 50
90.0
 51
270.0
  0
ARC
  5
1A0AB
  8
SU
  6
CONTINUOUS
 62
     3
 10
-166.2771231565701
 20
-37.574528951724218
 30
0.0
 40
0.2999999999999971
 50
270.0
 51
90.0
  0
ARC
  5
1A0AC
  8
SU
  6
CONTINUOUS
 62
     3
 10
-294.27712315657033
 20
-3.4745288086810122
 30
0.0
 40
0.3000000000000114
 50
0.0
 51
180.0
  0
ARC
  5
1A0AD
  8
SU
  6
CONTINUOUS
 62
     3
 10
-294.27712315657033
 20
-3.4745288086810122
 30
0.0
 40
0.3000000000000114
 50
180.0
 51
0.0
  0
ARC
  5
1A0AE
  8
SU
  6
CONTINUOUS
 62
     3
 10
-253.2771231565703
 20
-3.4745288086810122
 30
0.0
 40
0.3000000000000114
 50
180.0
 51
0.0
  0
ARC
  5
1A0AF
  8
SU
  6
CONTINUOUS
 62
     3
 10
-253.2771231565703
 20
-3.4745288086810122
 30
0.0
 40
0.3000000000000114
 50
0.0
 51
180.0
  0
ARC
  5
1A0B0
  8
SU
  6
CONTINUOUS
 62
     3
 10
-286.27712315657033
 20
-72.574528951723394
 30
0.0
 40
0.3000000000000114
 50
0.0
 51
180.0
  0
ARC
  5
1A0B1
  8
SU
  6
CONTINUOUS
 62
     3
 10
-286.27712315657033
 20
-72.574528951723394
 30
0.0
 40
0.3000000000000114
 50
180.0
 51
0.0
  0
ARC
  5
1A0B2
  8
SU
  6
CONTINUOUS
 62
     3
 10
-261.27712315657033
 20
-72.574528951723394
 30
0.0
 40
0.3000000000000114
 50
180.0
 51
0.0
  0
ARC
  5
1A0B3
  8
SU
  6
CONTINUOUS
 62
     3
 10
-261.27712315657033
 20
-72.574528951723394
 30
0.0
 40
0.3000000000000114
 50
0.0
 51
180.0
  0
ARC
  5
1A0B4
  8
SU
  6
CONTINUOUS
 62
     3
 10
-216.2771231565701
 20
-72.574528951723394
 30
0.0
 40
0.3000000000000114
 50
180.0
 51
0.0
  0
ARC
  5
1A0B5
  8
SU
  6
CONTINUOUS
 62
     3
 10
-216.2771231565701
 20
-72.574528951723394
 30
0.0
 40
0.3000000000000114
 50
0.0
 51
180.0
  0
ARC
  5
1A0B6
  8
SU
  6
CONTINUOUS
 62
     3
 10
-181.27759070165101
 20
-157.1264639743404
 30
0.0
 40
0.3000000000000114
 50
90.0
 51
270.0
  0
ARC
  5
1A0B7
  8
SU
  6
CONTINUOUS
 62
     3
 10
-181.27759070165101
 20
-157.1264639743404
 30
0.0
 40
0.3000000000000114
 50
270.0
 51
90.0
  0
ARC
  5
1A0B8
  8
SU
  6
CONTINUOUS
 62
     3
 10
-181.27712315656839
 20
-149.1264696964017
 30
0.0
 40
0.3000000000000114
 50
90.0
 51
270.0
  0
ARC
  5
1A0B9
  8
SU
  6
CONTINUOUS
 62
     3
 10
-181.27712315656839
 20
-149.1264696964017
 30
0.0
 40
0.3000000000000114
 50
270.0
 51
90.0
  0
ARC
  5
1A0BA
  8
SU
  6
CONTINUOUS
 62
     3
 10
-216.2771231656973
 20
-207.12646969639249
 30
0.0
 40
0.3000000000000114
 50
180.0
 51
0.0
  0
ARC
  5
1A0BB
  8
SU
  6
CONTINUOUS
 62
     3
 10
-216.2771231656973
 20
-207.12646969639249
 30
0.0
 40
0.3000000000000114
 50
0.0
 51
180.0
  0
ARC
  5
1A0BC
  8
SU
  6
CONTINUOUS
 62
     3
 10
-181.27759070165101
 20
-160.12646969640139
 30
0.0
 40
0.3000000000000114
 50
90.0
 51
270.0
  0
ARC
  5
1A0BD
  8
SU
  6
CONTINUOUS
 62
     3
 10
-181.27759070165101
 20
-160.12646969640139
 30
0.0
 40
0.3000000000000114
 50
270.0
 51
90.0
  0
ARC
  5
1A0BE
  8
SU
  6
CONTINUOUS
 62
     3
 10
-166.2771231565699
 20
-172.12646969640139
 30
0.0
 40
0.3000000000000114
 50
90.0
 51
270.0
  0
ARC
  5
1A0BF
  8
SU
  6
CONTINUOUS
 62
     3
 10
-166.2771231565699
 20
-172.12646969640139
 30
0.0
 40
0.3000000000000114
 50
270.0
 51
90.0
  0
ARC
  5
1A0C0
  8
SU
  6
CONTINUOUS
 62
     3
 10
-383.2771231565701
 20
-207.12646969639249
 30
0.0
 40
0.3000000000000114
 50
0.0
 51
180.0
  0
ARC
  5
1A0C1
  8
SU
  6
CONTINUOUS
 62
     3
 10
-383.2771231565701
 20
-207.12646969639249
 30
0.0
 40
0.3000000000000114
 50
180.0
 51
0.0
  0
ARC
  5
1A0C2
  8
SU
  6
CONTINUOUS
 62
     3
 10
-365.27712327007271
 20
-207.12646969639249
 30
0.0
 40
0.3000000000000114
 50
0.0
 51
180.0
  0
ARC
  5
1A0C3
  8
SU
  6
CONTINUOUS
 62
     3
 10
-365.27712327007271
 20
-207.12646969639249
 30
0.0
 40
0.3000000000000114
 50
180.0
 51
0.0
  0
ARC
  5
1A0C4
  8
SU
  6
CONTINUOUS
 62
     3
 10
-219.27712326094519
 20
-207.12646969639249
 30
0.0
 40
0.3000000000000114
 50
180.0
 51
0.0
  0
ARC
  5
1A0C5
  8
SU
  6
CONTINUOUS
 62
     3
 10
-219.27712326094519
 20
-207.12646969639249
 30
0.0
 40
0.3000000000000114
 50
0.0
 51
180.0
  0
ARC
  5
1A0C6
  8
SU
  6
CONTINUOUS
 62
     3
 10
-181.27712315656871
 20
-17.57452843322416
 30
0.0
 40
0.3000000000000007
 50
90.0
 51
270.0
  0
ARC
  5
1A0C7
  8
SU
  6
CONTINUOUS
 62
     3
 10
-181.27712315656871
 20
-17.57452843322416
 30
0.0
 40
0.3000000000000007
 50
270.0
 51
90.0
  0
ARC
  5
1A0C8
  8
SU
  6
CONTINUOUS
 62
     3
 10
-122.4855962990097
 20
-26.646509419220571
 30
0.0
 40
0.3000000000000007
 50
90.0
 51
270.0
  0
ARC
  5
1A0C9
  8
SU
  6
CONTINUOUS
 62
     3
 10
-122.4855962990097
 20
-26.646509419220571
 30
0.0
 40
0.3000000000000007
 50
270.0
 51
90.0
  0
ARC
  5
1A0CA
  8
SU
  6
CONTINUOUS
 62
     3
 10
-122.4855962990097
 20
93.353543085848983
 30
0.0
 40
0.2999999999999971
 50
270.0
 51
90.0
  0
ARC
  5
1A0CB
  8
SU
  6
CONTINUOUS
 62
     3
 10
-122.4855962990097
 20
93.353543085848983
 30
0.0
 40
0.2999999999999971
 50
90.0
 51
270.0
  0
ARC
  5
1A0CC
  8
SU
  6
CONTINUOUS
 62
     3
 10
-137.48559629900939
 20
-39.146509419220592
 30
0.0
 40
0.2999999999999971
 50
270.0
 51
90.0
  0
ARC
  5
1A0CD
  8
SU
  6
CONTINUOUS
 62
     3
 10
-137.48559629900939
 20
-39.146509419220592
 30
0.0
 40
0.2999999999999971
 50
90.0
 51
270.0
  0
ARC
  5
1A0CE
  8
SU
  6
CONTINUOUS
 62
     3
 10
-137.48559629900939
 20
-50.146509419221019
 30
0.0
 40
0.2999999999999971
 50
90.0
 51
270.0
  0
ARC
  5
1A0CF
  8
SU
  6
CONTINUOUS
 62
     3
 10
-137.48559629900939
 20
-50.146509419221019
 30
0.0
 40
0.2999999999999971
 50
270.0
 51
90.0
  0
ARC
  5
1A0D0
  8
SU
  6
CONTINUOUS
 62
     3
 10
-137.48559629900939
 20
105.85349058077919
 30
0.0
 40
0.2999999999999971
 50
90.0
 51
270.0
  0
ARC
  5
1A0D1
  8
SU
  6
CONTINUOUS
 62
     3
 10
-137.48559629900939
 20
105.85349058077919
 30
0.0
 40
0.2999999999999971
 50
270.0
 51
90.0
  0
ARC
  5
1A0D2
  8
SU
  6
CONTINUOUS
 62
     3
 10
-137.48559629900939
 20
116.8534905807789
 30
0.0
 40
0.2999999999999971
 50
270.0
 51
90.0
  0
ARC
  5
1A0D3
  8
SU
  6
CONTINUOUS
 62
     3
 10
-137.48559629900939
 20
116.8534905807789
 30
0.0
 40
0.2999999999999971
 50
90.0
 51
270.0
  0
ENDSEC
  0
EOF
