  0
SECTION
  2
HEADER
  9
$ACADVER
  1
AC1009
  9
$INSBASE
 10
0.0
 20
0.0
 30
0.0
  9
$EXTMIN
 10
-388.74258744529811
 20
-316.25316003152528
 30
-0.0000000000112498
  9
$EXTMAX
 10
484.35924365608611
 20
269.10401268057831
 30
0.0000000000002956
  9
$LIMMIN
 10
-410.0
 20
-328.67381167168821
  9
$LIMMAX
 10
495.80341310044741
 20
286.59431460164677
  9
$ORTHOMODE
 70
     1
  9
$REGENMODE
 70
     1
  9
$FILLMODE
 70
     1
  9
$QTEXTMODE
 70
     0
  9
$MIRRTEXT
 70
     0
  9
$DRAGMODE
 70
     2
  9
$LTSCALE
 40
1.0
  9
$OSMODE
 70
     0
  9
$ATTMODE
 70
     1
  9
$TEXTSIZE
 40
2.5
  9
$TRACEWID
 40
1.0
  9
$TEXTSTYLE
  7
STANDARD
  9
$CLAYER
  8
0
  9
$CELTYPE
  6
BYLAYER
  9
$CECOLOR
 62
   256
  9
$DIMSCALE
 40
1.0
  9
$DIMASZ
 40
1.5
  9
$DIMEXO
 40
3.0
  9
$DIMDLI
 40
7.0
  9
$DIMRND
 40
0.0
  9
$DIMDLE
 40
0.0
  9
$DIMEXE
 40
1.0
  9
$DIMTP
 40
0.1
  9
$DIMTM
 40
0.1
  9
$DIMTXT
 40
10.0
  9
$DIMCEN
 40
0.0
  9
$DIMTSZ
 40
0.0
  9
$DIMTOL
 70
     0
  9
$DIMLIM
 70
     0
  9
$DIMTIH
 70
     0
  9
$DIMTOH
 70
     0
  9
$DIMSE1
 70
     0
  9
$DIMSE2
 70
     0
  9
$DIMTAD
 70
     1
  9
$DIMZIN
 70
     0
  9
$DIMBLK
  1
DOTSMALL
  9
$DIMASO
 70
     1
  9
$DIMSHO
 70
     1
  9
$DIMPOST
  1

  9
$DIMAPOST
  1
"
  9
$DIMALT
 70
     0
  9
$DIMALTD
 70
     2
  9
$DIMALTF
 40
0.0393701
  9
$DIMLFAC
 40
1.0
  9
$DIMTOFL
 70
     1
  9
$DIMTVP
 40
0.0
  9
$DIMTIX
 70
     0
  9
$DIMSOXD
 70
     0
  9
$DIMSAH
 70
     0
  9
$DIMBLK1
  1

  9
$DIMBLK2
  1

  9
$DIMSTYLE
  2
SANKYO
  9
$DIMCLRD
 70
   256
  9
$DIMCLRE
 70
   256
  9
$DIMCLRT
 70
   256
  9
$DIMTFAC
 40
0.71
  9
$DIMGAP
 40
0.5
  9
$LUNITS
 70
     2
  9
$LUPREC
 70
     4
  9
$SKETCHINC
 40
1.0
  9
$FILLETRAD
 40
0.5
  9
$AUNITS
 70
     0
  9
$AUPREC
 70
     0
  9
$MENU
  1
.
  9
$ELEVATION
 40
0.0
  9
$PELEVATION
 40
0.0
  9
$THICKNESS
 40
0.0
  9
$LIMCHECK
 70
     0
  9
$BLIPMODE
 70
     0
  9
$CHAMFERA
 40
10.0
  9
$CHAMFERB
 40
10.0
  9
$SKPOLY
 70
     0
  9
$TDCREATE
 40
2452388.6082117362
  9
$TDUPDATE
 40
2456027.6128246179
  9
$TDINDWG
 40
1.5831587846999999
  9
$TDUSRTIMER
 40
1.5831586689999999
  9
$USRTIMER
 70
     1
  9
$ANGBASE
 50
0.0
  9
$ANGDIR
 70
     0
  9
$PDMODE
 70
     0
  9
$PDSIZE
 40
0.0
  9
$PLINEWID
 40
0.0
  9
$COORDS
 70
     1
  9
$SPLFRAME
 70
     0
  9
$SPLINETYPE
 70
     6
  9
$SPLINESEGS
 70
     8
  9
$ATTDIA
 70
     0
  9
$ATTREQ
 70
     1
  9
$HANDLING
 70
-16383
  9
$HANDSEED
  5
1A7AD
  9
$SURFTAB1
 70
     6
  9
$SURFTAB2
 70
     6
  9
$SURFTYPE
 70
     6
  9
$SURFU
 70
     6
  9
$SURFV
 70
     6
  9
$UCSNAME
  2

  9
$UCSORG
 10
0.0
 20
0.0
 30
0.0
  9
$UCSXDIR
 10
1.0
 20
0.0
 30
0.0
  9
$UCSYDIR
 10
0.0
 20
1.0
 30
0.0
  9
$PUCSNAME
  2

  9
$PUCSORG
 10
0.0
 20
0.0
 30
0.0
  9
$PUCSXDIR
 10
1.0
 20
0.0
 30
0.0
  9
$PUCSYDIR
 10
0.0
 20
1.0
 30
0.0
  9
$USERI1
 70
     0
  9
$USERI2
 70
     1
  9
$USERI3
 70
     0
  9
$USERI4
 70
     0
  9
$USERI5
 70
     0
  9
$USERR1
 40
0.0
  9
$USERR2
 40
0.0
  9
$USERR3
 40
0.0
  9
$USERR4
 40
0.0
  9
$USERR5
 40
0.0
  9
$WORLDVIEW
 70
     1
  9
$SHADEDGE
 70
     3
  9
$SHADEDIF
 70
    70
  9
$TILEMODE
 70
     1
  9
$MAXACTVP
 70
    48
  9
$PLIMCHECK
 70
     0
  9
$PEXTMIN
 10
1.0000000000000000E+020
 20
1.0000000000000000E+020
 30
1.0000000000000000E+020
  9
$PEXTMAX
 10
-1.0000000000000000E+020
 20
-1.0000000000000000E+020
 30
-1.0000000000000000E+020
  9
$PLIMMIN
 10
0.0
 20
0.0
  9
$PLIMMAX
 10
420.0
 20
297.0
  9
$UNITMODE
 70
     0
  9
$VISRETAIN
 70
     1
  9
$PLINEGEN
 70
     0
  9
$PSLTSCALE
 70
     1
  0
ENDSEC
  0
SECTION
  2
TABLES
  0
TABLE
  2
VPORT
 70
     2
  0
VPORT
  2
*ACTIVE
 70
     0
 10
0.0
 20
0.0
 11
1.0
 21
1.0
 12
47.808328105394018
 22
-23.574573675473509
 13
0.0
 23
0.0
 14
2.5
 24
2.5
 15
10.0
 25
10.0
 16
0.0
 26
0.0
 36
1.0
 17
0.0
 27
0.0
 37
0.0
 40
628.64105223590821
 41
1.3969986357435189
 42
50.0
 43
0.0
 44
0.0
 50
0.0
 51
0.0
 71
    16
 72
   100
 73
     1
 74
     0
 75
     0
 76
     0
 77
     0
 78
     0
  0
ENDTAB
  0
TABLE
  2
LTYPE
 70
    17
  0
LTYPE
  2
CONTINUOUS
 70
     0
  3
Solid line
 72
    65
 73
     0
 40
0.0
  0
LTYPE
  2
CENTER2
 70
     0
  3
Center (.5x) ___ _ ___ _ ___ _ ___ _ ___ _ ___
 72
    65
 73
     4
 40
28.574999999999989
 49
19.050000000000001
 49
-3.174999999999998
 49
3.174999999999998
 49
-3.174999999999998
  0
LTYPE
  2
PHANTOM2
 70
     0
  3
Phantom (.5x) ___ _ _ ___ _ _ ___ _ _ ___ _ _
 72
    65
 73
     6
 40
31.75
 49
15.875
 49
-3.174999999999998
 49
3.174999999999998
 49
-3.174999999999998
 49
3.174999999999998
 49
-3.174999999999998
  0
LTYPE
  2
DASHED2
 70
     0
  3
Dashed (.5x) _ _ _ _ _ _ _ _ _ _ _ _ _ _ _ _ _
 72
    65
 73
     2
 40
9.5249999999999986
 49
6.349999999999997
 49
-3.174999999999998
  0
ENDTAB
  0
TABLE
  2
LAYER
 70
     4
  0
LAYER
  2
0
 70
     0
 62
     7
  6
CONTINUOUS
  0
LAYER
  2
SU
 70
     0
 62
     7
  6
CONTINUOUS
  0
LAYER
  2
KI
 70
     0
 62
     7
  6
CONTINUOUS
  0
LAYER
  2
OS
 70
     0
 62
     7
  6
CONTINUOUS
  0
ENDTAB
  0
TABLE
  2
STYLE
 70
     4
  0
STYLE
  2
STANDARD
 70
     0
 40
0.0
 41
0.8299999999999999
 50
0.0
 71
     0
 42
2.5
  3
txt.shx
  4
extfont.shx
  0
ENDTAB
  0
TABLE
  2
VIEW
 70
     6
  0
VIEW
  2
AM_VIEW1
 70
     0
 40
148.9999998536185
 10
126.61001776470241
 20
223.4999997804278
 41
253.2200355294051
 11
0.0
 21
0.0
 31
1.0
 12
0.0
 22
0.0
 32
0.0
 42
50.0
 43
0.0
 44
0.0
 50
0.0
 71
    16
  0
VIEW
  2
AM_VIEW2
 70
     0
 40
148.9999998536185
 10
294.38998139545481
 20
223.4999997804278
 41
253.2200355294051
 11
0.0
 21
0.0
 31
1.0
 12
0.0
 22
0.0
 32
0.0
 42
50.0
 43
0.0
 44
0.0
 50
0.0
 71
    16
  0
VIEW
  2
AM_VIEW3
 70
     0
 40
148.9999998536185
 10
126.61001776470241
 20
74.499999926809267
 41
253.2200355294051
 11
0.0
 21
0.0
 31
1.0
 12
0.0
 22
0.0
 32
0.0
 42
50.0
 43
0.0
 44
0.0
 50
0.0
 71
    16
  0
VIEW
  2
AM_VIEW4
 70
     0
 40
148.9999998536185
 10
294.38998139545481
 20
74.499999926809267
 41
253.2200355294051
 11
0.0
 21
0.0
 31
1.0
 12
0.0
 22
0.0
 32
0.0
 42
50.0
 43
0.0
 44
0.0
 50
0.0
 71
    16
  0
VIEW
  2
AM_VIEW5
 70
     0
 40
148.9999998536185
 10
210.49999958007871
 20
148.9999998536185
 41
253.2200355294051
 11
0.0
 21
0.0
 31
1.0
 12
0.0
 22
0.0
 32
0.0
 42
50.0
 43
0.0
 44
0.0
 50
0.0
 71
    16
  0
VIEW
  2
AM_VIEW6
 70
     0
 40
297.99701970723982
 10
210.49999958007871
 20
148.9999998536185
 41
506.43500665810018
 11
0.0
 21
0.0
 31
1.0
 12
0.0
 22
0.0
 32
0.0
 42
50.0
 43
0.0
 44
0.0
 50
0.0
 71
    16
  0
ENDTAB
  0
TABLE
  2
UCS
 70
     0
  0
ENDTAB
  0
TABLE
  2
APPID
 70
    22
  0
APPID
  2
ACAD
 70
     0
  0
APPID
  2
MCAD_NO_VIS
 70
     0
  0
APPID
  2
ACAD_TEMP_GRAPHIC
 70
     0
  0
APPID
  2
ACATTRIBSERVICES
 70
     0
  0
APPID
  2
GENIUS_GENDIMSH_14
 70
     0
  0
APPID
  2
GENIUS_GENOLIS_13
 70
     0
  0
APPID
  2
GENIUS_GENOENT_13
 70
     0
  0
APPID
  2
GENIUS_GENODEF_13
 70
     0
  0
APPID
  2
GENIUS_GENOBJ-N-TIT_13
 70
     0
  0
APPID
  2
GENIUS_GENTITLE_13
 70
     0
  0
APPID
  2
GENIUS_GENOREF_13
 70
     0
  0
APPID
  2
GENIUS_GENSCREG_15
 70
     0
  0
APPID
  2
GENIUS_GENOBJ-N-SDF_13
 70
     0
  0
APPID
  2
GENIUS_GENOBJ-N-FIL_13
 70
     0
  0
APPID
  2
GENIUS_GENREC_14
 70
     0
  0
APPID
  2
GENIUS_GENOBJ-N-REC_13
 70
     0
  0
APPID
  2
GENIUS_GENDTOL_13
 70
     0
  0
APPID
  2
GENIUS_GENOBJ-N-CEN_13
 70
     0
  0
APPID
  2
GENIUS_GENOBJ-N-HTC_13
 70
     0
  0
APPID
  2
GENIUS_GENHATCH_13
 70
     0
  0
APPID
  2
GENIUS_GENFIL_13
 70
     0
  0
APPID
  2
GENIUS_GENOBJ-N-CHA_13
 70
     0
  0
ENDTAB
  0
TABLE
  2
DIMSTYLE
 70
     7
  0
DIMSTYLE
  2
SANKYO
 70
     0
  3

  4
"
  5

  6

  7

 40
1.0
 41
2.399999999999999
 42
3.0
 43
7.0
 44
3.0
 45
0.0
 46
0.0
 47
0.1
 48
0.1
140
4.0
141
0.0
142
0.0
143
0.0393701
144
1.0
145
0.0
146
0.71
147
1.3
 71
     0
 72
     0
 73
     0
 74
     0
 75
     0
 76
     0
 77
     1
 78
     8
170
     0
171
     2
172
     1
173
     0
174
     0
175
     0
176
   256
177
   256
178
   256
  0
ENDTAB
  0
ENDSEC
  0
SECTION
  2
BLOCKS
  0
BLOCK
  8
0
  2
$MODEL_SPACE
 70
     0
 10
0.0
 20
0.0
 30
0.0
  3
$MODEL_SPACE
  1

  0
ENDBLK
  5
1A163
  8
0
  0
BLOCK
 67
     1
  8
0
  2
$PAPER_SPACE
 70
     0
 10
0.0
 20
0.0
 30
0.0
  3
$PAPER_SPACE
  1

  0
ENDBLK
  5
1A15F
 67
     1
  8
0
  0
BLOCK
  8
0
  2
_DOTSMALL
 70
     0
 10
0.0
 20
0.0
 30
0.0
  3
_DOTSMALL
  1

  0
POLYLINE
  5
1A1AB
  8
0
  6
BYBLOCK
 62
     0
 66
     1
 10
0.0
 20
0.0
 30
0.0
 70
     1
 40
1.0
 41
1.0
  0
VERTEX
  5
1A1AC
  8
0
  6
BYBLOCK
 62
     0
 10
-0.125
 20
0.0
 30
0.0
 42
1.0
  0
VERTEX
  5
1A1AD
  8
0
  6
BYBLOCK
 62
     0
 10
0.125
 20
0.0
 30
0.0
 42
1.0
  0
SEQEND
  5
1A1AE
  8
0
  6
BYBLOCK
 62
     0
  0
ENDBLK
  5
1A1AF
  8
0
  0
ENDSEC
  0
SECTION
  2
ENTITIES
  0
TEXT
  5
1A1B4
  8
KI
  6
CONTINUOUS
 62
     7
 10
217.70790036644311
 20
-269.30914795167661
 30
0.0
 40
7.0
  1
dt09a001
 41
0.84552428
  0
LINE
  5
1A1B5
  8
SU
  6
CONTINUOUS
 62
     3
 10
-264.11838170807482
 20
-122.88310948969639
 30
0.0
 11
-223.76554026306599
 21
-170.97375340422991
 31
0.0
  0
LINE
  5
1A1B6
  8
SU
  6
CONTINUOUS
 62
     3
 10
-267.69050546812952
 20
-8.2267141804239259
 30
0.0
 11
-252.744108049522
 21
-26.03913705634163
 31
0.0
  0
LINE
  5
1A1B7
  8
KI
  6
CONTINUOUS
 62
     7
 10
-225.9405627304053
 20
147.6608638154691
 30
0.0
 11
-225.9405627304053
 21
51.91086237044027
 31
0.0
  0
LINE
  5
1A1B8
  8
KI
  6
CONTINUOUS
 62
     7
 10
-249.9405627304053
 20
147.6608638154691
 30
0.0
 11
-249.9405627304053
 21
51.91086237044027
 31
0.0
  0
LINE
  5
1A1B9
  8
KI
  6
CONTINUOUS
 62
     7
 10
-363.4405627304053
 20
171.66086237043999
 30
0.0
 11
-363.4405627304053
 21
51.91086237044027
 31
0.0
  0
LINE
  5
1A1BA
  8
KI
  6
CONTINUOUS
 62
     7
 10
-181.44056273040511
 20
51.91086237044027
 30
0.0
 11
-181.44056273040511
 21
171.66086237043999
 31
0.0
  0
LINE
  5
1A1BB
  8
KI
  6
CONTINUOUS
 62
     7
 10
-360.4405627304053
 20
171.66086237043999
 30
0.0
 11
-363.4405627304053
 21
171.66086237043999
 31
0.0
  0
LINE
  5
1A1BC
  8
KI
  6
CONTINUOUS
 62
     7
 10
-181.44056273040519
 20
-87.891078374220854
 30
0.0
 11
-181.44056273040519
 21
-162.89107837422071
 31
0.0
  0
LINE
  5
1A1BD
  8
KI
  6
CONTINUOUS
 62
     7
 10
-363.44056273040547
 20
-87.891078374220854
 30
0.0
 11
-363.44056273040547
 21
-162.8910783742208
 31
0.0
  0
LINE
  5
1A1BE
  8
KI
  6
CONTINUOUS
 62
     7
 10
-249.9405627304053
 20
-87.891078374220854
 30
0.0
 11
-249.9405627304053
 21
-159.89107837422071
 31
0.0
  0
LINE
  5
1A1BF
  8
KI
  6
CONTINUOUS
 62
     7
 10
-225.9405627304053
 20
-87.891078374220854
 30
0.0
 11
-225.9405627304055
 21
-159.89107837422071
 31
0.0
  0
LINE
  5
1A1C0
  8
KI
  6
CONTINUOUS
 62
     7
 10
-363.44056273040547
 20
49.91086237044027
 30
0.0
 11
-363.4405627304053
 21
-28.339137629559708
 31
0.0
  0
LINE
  5
1A1C1
  8
KI
  6
CONTINUOUS
 62
     7
 10
-181.44056273040511
 20
49.91086237044027
 30
0.0
 11
-181.44056273040511
 21
-28.339137629559708
 31
0.0
  0
LINE
  5
1A1C2
  8
KI
  6
CONTINUOUS
 62
     7
 10
-249.9405627304053
 20
-30.726434425684431
 30
0.0
 11
-249.9405627304053
 21
-40.33913762955153
 31
0.0
  0
LINE
  5
1A1C3
  8
KI
  6
CONTINUOUS
 62
     7
 10
-249.9405627304053
 20
49.91086237044027
 30
0.0
 11
-249.9405627304053
 21
-25.847380818415601
 31
0.0
  0
LINE
  5
1A1C4
  8
KI
  6
CONTINUOUS
 62
     7
 10
-225.94056273040539
 20
49.91086237044027
 30
0.0
 11
-225.9405627304053
 21
-26.039137438824628
 31
0.0
  0
LINE
  5
1A1C5
  8
KI
  6
CONTINUOUS
 62
     7
 10
-181.44056273040511
 20
171.66086237043999
 30
0.0
 11
-184.4405627304053
 21
171.66086237043999
 31
0.0
  0
LINE
  5
1A1C6
  8
KI
  6
CONTINUOUS
 62
     7
 10
-225.94056273040539
 20
-27.339136675885641
 30
0.0
 11
-225.94056273040539
 21
-28.339137629559708
 31
0.0
  0
LINE
  5
1A1C7
  8
KI
  6
DASHED2
 62
     7
 10
-363.44056273040547
 20
-162.89107837422091
 30
0.0
 11
-363.44056273040547
 21
-174.89107837421261
 31
0.0
  0
LINE
  5
1A1C8
  8
KI
  6
DASHED2
 62
     7
 10
-181.44056273040519
 20
-162.89107837422071
 30
0.0
 11
-181.44056273040519
 21
-174.89107837421241
 31
0.0
  0
LINE
  5
1A1C9
  8
KI
  6
DASHED2
 62
     7
 10
-363.4405627304053
 20
-28.339137629559708
 30
0.0
 11
-363.4405627304053
 21
-40.33913762955153
 31
0.0
  0
LINE
  5
1A1CA
  8
KI
  6
DASHED2
 62
     7
 10
-181.44056273040511
 20
-28.339137629559708
 30
0.0
 11
-181.44056273040511
 21
-40.33913762955153
 31
0.0
  0
LINE
  5
1A1CB
  8
KI
  6
DASHED2
 62
     7
 10
-225.94056273040539
 20
-28.339137629559708
 30
0.0
 11
-225.94056273040539
 21
-40.33913762955153
 31
0.0
  0
LINE
  5
1A1CC
  8
SU
  6
CONTINUOUS
 62
     3
 10
-317.88817288730951
 20
-8.2267141804239259
 30
0.0
 11
-267.69050546812952
 21
-8.2267141804239259
 31
0.0
  0
LINE
  5
1A1CD
  8
SU
  6
CONTINUOUS
 62
     3
 10
-301.21391362401317
 20
-122.88310948969639
 30
0.0
 11
-264.11838178788003
 21
-122.88310948969639
 31
0.0
  0
TEXT
  5
1A1CE
  8
KI
  6
CONTINUOUS
 62
     7
 10
218.03312572071681
 20
-260.5773633459853
 30
0.0
 40
7.0
  1
厚壁枠（ノンケーシング枠）
 41
0.84552428
  0
TEXT
  5
1A1CF
  8
KI
  6
CONTINUOUS
 62
     7
 10
218.03312572071681
 20
-242.1848381171132
 30
0.0
 40
7.0
  1
D TOS多機能商品シリーズ
 41
0.84552428
  0
TEXT
  5
1A1D0
  8
KI
  6
CONTINUOUS
 62
     7
 10
218.03312572071681
 20
-251.654070884519
 30
0.0
 40
7.0
  1
室内ドア　中折れドア
 41
0.84552428
  0
TEXT
  5
1A1D1
  8
KI
  6
CONTINUOUS
 62
     7
 10
-381.95306689206677
 20
262.0878095051346
 30
0.0
 40
7.0
  1
●標準たて枠
 41
0.84552428
  0
LINE
  5
1A1D2
  8
OS
  6
CONTINUOUS
 62
     2
 10
-162.44056273040539
 20
-293.2076122529333
 30
0.0
 11
-382.44056273040542
 21
-293.2076122529333
 31
0.0
  0
LINE
  5
1A1D3
  8
OS
  6
CONTINUOUS
 62
     2
 10
-162.44056273040539
 20
-290.2076122529333
 30
0.0
 11
-382.44056273040542
 21
-290.2076122529333
 31
0.0
  0
LINE
  5
1A1D4
  8
OS
  6
CONTINUOUS
 62
     2
 10
-162.44056273040539
 20
-287.2076122529333
 30
0.0
 11
-382.44056273040542
 21
-287.2076122529333
 31
0.0
  0
LINE
  5
1A1D5
  8
OS
  6
CONTINUOUS
 62
     2
 10
-162.44056273040539
 20
-296.2076122529333
 30
0.0
 11
-382.44056273040542
 21
-296.2076122529333
 31
0.0
  0
LINE
  5
1A1D6
  8
SU
  6
CONTINUOUS
 62
     3
 10
-273.02483357164471
 20
-258.8610639087367
 30
0.0
 11
-254.3366392328146
 21
-281.13278672109482
 31
0.0
  0
LINE
  5
1A1D7
  8
OS
  6
CONTINUOUS
 62
     2
 10
-162.44056273040539
 20
-284.20761225293319
 30
0.0
 11
-382.44056273040542
 21
-284.20761225293319
 31
0.0
  0
LINE
  5
1A1D8
  8
SU
  6
CONTINUOUS
 62
     3
 10
-323.2225009908243
 20
-258.8610639087367
 30
0.0
 11
-273.02483357164471
 21
-258.8610639087367
 31
0.0
  0
LINE
  5
1A1D9
  8
KI
  6
CONTINUOUS
 62
     7
 10
-181.44056273040519
 20
-224.20761225293299
 30
0.0
 11
-181.44056273040519
 21
-284.20761225293319
 31
0.0
  0
LINE
  5
1A1DA
  8
KI
  6
CONTINUOUS
 62
     7
 10
-249.9405627304053
 20
-224.20761225293299
 30
0.0
 11
-249.9405627304053
 21
-279.4076122529334
 31
0.0
  0
LINE
  5
1A1DB
  8
KI
  6
CONTINUOUS
 62
     7
 10
-225.9405627304053
 20
-224.20761225293299
 30
0.0
 11
-225.9405627304055
 21
-279.4076122529334
 31
0.0
  0
LINE
  5
1A1DC
  8
KI
  6
CONTINUOUS
 62
     7
 10
-363.44056273040547
 20
-224.20761225293299
 30
0.0
 11
-363.44056273040547
 21
-284.20761225293319
 31
0.0
  0
LINE
  5
1A1DD
  8
KI
  6
DASHED2
 62
     7
 10
-363.44056273040559
 20
-284.20761225293359
 30
0.0
 11
-363.44056273040559
 21
-296.2076122529254
 31
0.0
  0
LINE
  5
1A1DE
  8
KI
  6
DASHED2
 62
     7
 10
-181.44056273040519
 20
-284.20761225293319
 30
0.0
 11
-181.44056273040519
 21
-296.20761225292512
 31
0.0
  0
LINE
  5
1A1DF
  8
KI
  6
CONTINUOUS
 62
     7
 10
-202.4405627304028
 20
-20.339137629559861
 30
0.0
 11
-202.4405627304028
 21
-22.539137629557011
 31
0.0
  0
LINE
  5
1A1E0
  8
KI
  6
CONTINUOUS
 62
     7
 10
-208.44056273040479
 20
-22.539137629557011
 30
0.0
 11
-208.44056273040479
 21
-20.339137629559861
 31
0.0
  0
LINE
  5
1A1E1
  8
KI
  6
CONTINUOUS
 62
     7
 10
-195.44056273040479
 20
-26.339137629559868
 30
0.0
 11
-215.44056273040309
 21
-26.339137629559868
 31
0.0
  0
LINE
  5
1A1E2
  8
KI
  6
CONTINUOUS
 62
     7
 10
-195.44056273040479
 20
-28.339137629559922
 30
0.0
 11
-215.44056273040309
 21
-28.339137629559922
 31
0.0
  0
LINE
  5
1A1E3
  8
KI
  6
CONTINUOUS
 62
     7
 10
-195.44056273040479
 20
-23.339137629559861
 30
0.0
 11
-215.44056273040309
 21
-23.339137629558849
 31
0.0
  0
LINE
  5
1A1E4
  8
KI
  6
CONTINUOUS
 62
     7
 10
-215.44056273040309
 20
-28.339137629559922
 30
0.0
 11
-215.44056273040309
 21
-23.339137629558849
 31
0.0
  0
LINE
  5
1A1E5
  8
KI
  6
CONTINUOUS
 62
     7
 10
-201.4405627304028
 20
-22.839137629558788
 30
0.0
 11
-209.44056273040479
 21
-22.839137629557911
 31
0.0
  0
LINE
  5
1A1E6
  8
KI
  6
CONTINUOUS
 62
     7
 10
-209.44056273040479
 20
-23.339137629558849
 30
0.0
 11
-201.4405627304028
 21
-23.339137629558849
 31
0.0
  0
LINE
  5
1A1E7
  8
KI
  6
CONTINUOUS
 62
     7
 10
-202.74056273040401
 20
-22.839137629557911
 30
0.0
 11
-208.1405627304035
 21
-22.839137629557911
 31
0.0
  0
LINE
  5
1A1E8
  8
KI
  6
CONTINUOUS
 62
     7
 10
-202.74056273040401
 20
-22.839137629557911
 30
0.0
 11
-208.1405627304035
 21
-22.839137629557911
 31
0.0
  0
ARC
  5
1A1E9
  8
KI
  6
CONTINUOUS
 62
     7
 10
-208.1405627304035
 20
-22.539137629557011
 30
0.0
 40
0.3000000000010914
 50
180.0
 51
270.0
  0
ARC
  5
1A1EA
  8
KI
  6
CONTINUOUS
 62
     7
 10
-208.1405627304035
 20
-22.539137629557011
 30
0.0
 40
0.3000000000010914
 50
180.0
 51
270.0
  0
LINE
  5
1A1EB
  8
KI
  6
CONTINUOUS
 62
     7
 10
-209.44056273040479
 20
-22.839137629557911
 30
0.0
 11
-209.44056273040479
 21
-23.339137629558849
 31
0.0
  0
ARC
  5
1A1EC
  8
KI
  6
CONTINUOUS
 62
     7
 10
-202.74056273040401
 20
-22.539137629557011
 30
0.0
 40
0.3000000000009209
 50
270.0
 51
0.0
  0
ARC
  5
1A1ED
  8
KI
  6
CONTINUOUS
 62
     7
 10
-202.74056273040401
 20
-22.539137629557011
 30
0.0
 40
0.3000000000009209
 50
270.0
 51
0.0
  0
LINE
  5
1A1EE
  8
KI
  6
CONTINUOUS
 62
     7
 10
-201.4405627304028
 20
-23.339137629558849
 30
0.0
 11
-201.4405627304028
 21
-22.839137629558788
 31
0.0
  0
LINE
  5
1A1EF
  8
KI
  6
CONTINUOUS
 62
     7
 10
-195.44056273040479
 20
-23.339137629559861
 30
0.0
 11
-195.44056273040479
 21
-28.339137629559922
 31
0.0
  0
ARC
  5
1A1F0
  8
KI
  6
CONTINUOUS
 62
     7
 10
-214.0405627304053
 20
140.4224398585327
 30
0.0
 40
4.9999999999996101
 50
53.130102000018901
 51
126.86989799998319
  0
LINE
  5
1A1F1
  8
KI
  6
CONTINUOUS
 62
     7
 10
-210.44056273040511
 20
146.460862370439
 30
0.0
 11
-218.24056273040429
 21
146.460862370439
 31
0.0
  0
LINE
  5
1A1F2
  8
KI
  6
DASHED2
 62
     7
 10
-213.34056273040551
 20
119.1608623704401
 30
0.0
 11
-197.5405627304055
 21
119.1608623704401
 31
0.0
  0
LINE
  5
1A1F3
  8
KI
  6
DASHED2
 62
     7
 10
-213.34056273040551
 20
119.1608623704401
 30
0.0
 11
-197.5405627304055
 21
119.1608623704401
 31
0.0
  0
ARC
  5
1A1F4
  8
KI
  6
CONTINUOUS
 62
     7
 10
-214.0405627304053
 20
132.42243985853301
 30
0.0
 40
4.999999999999134
 50
233.13010200000841
 51
306.86989799999151
  0
ARC
  5
1A1F5
  8
KI
  6
CONTINUOUS
 62
     7
 10
-213.8242760200331
 20
133.4224398585329
 30
0.0
 40
5.9999999999989804
 50
222.60417312489159
 51
298.72582994881981
  0
LINE
  5
1A1F6
  8
KI
  6
CONTINUOUS
 62
     7
 10
-219.44056273040479
 20
126.1608623704401
 30
0.0
 11
-210.94056273040519
 21
126.1608623704401
 31
0.0
  0
LINE
  5
1A1F7
  8
KI
  6
CONTINUOUS
 62
     7
 10
-221.94056273040479
 20
119.1608623704401
 30
0.0
 11
-188.94056273040519
 21
119.1608623704401
 31
0.0
  0
LINE
  5
1A1F8
  8
KI
  6
CONTINUOUS
 62
     7
 10
-191.4405627304057
 20
147.66086237043999
 30
0.0
 11
-219.44056273040479
 21
147.66086237043999
 31
0.0
  0
ARC
  5
1A1F9
  8
KI
  6
DASHED2
 62
     7
 10
-205.44056273040511
 20
84.060862370441313
 30
0.0
 40
7.900000000000996
 50
180.0
 51
0.0
  0
ARC
  5
1A1FA
  8
KI
  6
DASHED2
 62
     7
 10
-205.4405627304053
 20
14.76086237044197
 30
0.0
 40
7.9000000000020218
 50
0.0
 51
180.0
  0
LINE
  5
1A1FB
  8
KI
  6
DASHED2
 62
     7
 10
-197.54056273040331
 20
-20.339137629559861
 30
0.0
 11
-213.3405627304048
 21
-20.339137629559861
 31
0.0
  0
LINE
  5
1A1FC
  8
KI
  6
DASHED2
 62
     7
 10
-197.54056273040331
 20
-20.339137629559861
 30
0.0
 11
-213.3405627304048
 21
-20.339137629559861
 31
0.0
  0
LINE
  5
1A1FD
  8
KI
  6
CONTINUOUS
 62
     7
 10
-221.94056273040479
 20
-20.339137629559861
 30
0.0
 11
-188.9405627304053
 21
-20.339137629559861
 31
0.0
  0
LINE
  5
1A1FE
  8
KI
  6
CONTINUOUS
 62
     7
 10
-221.94056273040479
 20
119.1608623704401
 30
0.0
 11
-221.94056273040479
 21
51.910863205146399
 31
0.0
  0
LINE
  5
1A1FF
  8
KI
  6
CONTINUOUS
 62
     7
 10
-221.94056273040479
 20
49.910863205146391
 30
0.0
 11
-221.94056273040479
 21
-20.339137629559861
 31
0.0
  0
LINE
  5
1A200
  8
KI
  6
DASHED2
 62
     7
 10
-213.3405627304048
 20
-20.339137629559861
 30
0.0
 11
-213.3405627304048
 21
14.26086237044106
 31
0.0
  0
LINE
  5
1A201
  8
KI
  6
DASHED2
 62
     7
 10
-213.3405627304048
 20
-20.339137629559861
 30
0.0
 11
-213.3405627304048
 21
14.76086237044197
 31
0.0
  0
LINE
  5
1A202
  8
KI
  6
DASHED2
 62
     7
 10
-213.34056273040551
 20
84.060862370441313
 30
0.0
 11
-213.34056273040551
 21
119.1608623704401
 31
0.0
  0
LINE
  5
1A203
  8
KI
  6
DASHED2
 62
     7
 10
-213.34056273040551
 20
84.56086237044083
 30
0.0
 11
-213.34056273040551
 21
119.1608623704401
 31
0.0
  0
LINE
  5
1A204
  8
KI
  6
CONTINUOUS
 62
     7
 10
-219.44056273040479
 20
147.66086237043999
 30
0.0
 11
-219.44056273040479
 21
126.1608623704401
 31
0.0
  0
LINE
  5
1A205
  8
KI
  6
CONTINUOUS
 62
     7
 10
-218.24056273040429
 20
146.460862370439
 30
0.0
 11
-218.24056273040429
 21
129.36086237044
 31
0.0
  0
LINE
  5
1A206
  8
KI
  6
CONTINUOUS
 62
     7
 10
-217.0405627304049
 20
144.42243985853301
 30
0.0
 11
-217.0405627304049
 21
128.42243985853261
 31
0.0
  0
LINE
  5
1A207
  8
KI
  6
CONTINUOUS
 62
     7
 10
-188.9405627304053
 20
51.910863205146399
 30
0.0
 11
-188.94056273040519
 21
119.1608623704401
 31
0.0
  0
LINE
  5
1A208
  8
KI
  6
CONTINUOUS
 62
     7
 10
-188.9405627304053
 20
-20.339137629559861
 30
0.0
 11
-188.9405627304053
 21
49.910863205146391
 31
0.0
  0
LINE
  5
1A209
  8
KI
  6
DASHED2
 62
     7
 10
-197.54056273040331
 20
14.26086237044106
 30
0.0
 11
-197.54056273040331
 21
-20.339137629559861
 31
0.0
  0
LINE
  5
1A20A
  8
KI
  6
DASHED2
 62
     7
 10
-197.54056273040331
 20
14.76086237044197
 30
0.0
 11
-197.54056273040331
 21
-20.339137629559861
 31
0.0
  0
LINE
  5
1A20B
  8
KI
  6
CONTINUOUS
 62
     7
 10
-202.44056273040519
 20
126.422439858533
 30
0.0
 11
-202.44056273040519
 21
119.1608623704401
 31
0.0
  0
LINE
  5
1A20C
  8
KI
  6
CONTINUOUS
 62
     7
 10
-208.44056273040479
 20
119.1608623704401
 30
0.0
 11
-208.44056273040479
 21
126.422439858533
 31
0.0
  0
LINE
  5
1A20D
  8
KI
  6
DASHED2
 62
     7
 10
-197.5405627304055
 20
119.1608623704401
 30
0.0
 11
-197.5405627304055
 21
84.060862370441313
 31
0.0
  0
LINE
  5
1A20E
  8
KI
  6
DASHED2
 62
     7
 10
-197.5405627304055
 20
119.1608623704401
 30
0.0
 11
-197.5405627304055
 21
84.56086237044083
 31
0.0
  0
LINE
  5
1A20F
  8
KI
  6
CONTINUOUS
 62
     7
 10
-191.4405627304057
 20
126.1608623704401
 30
0.0
 11
-191.4405627304057
 21
147.66086237043999
 31
0.0
  0
ARC
  5
1A210
  8
KI
  6
CONTINUOUS
 62
     7
 10
-196.8405627304048
 20
140.4224398585327
 30
0.0
 40
5.0000000000001243
 50
53.130102000008492
 51
126.86989799999949
  0
LINE
  5
1A211
  8
KI
  6
CONTINUOUS
 62
     7
 10
-192.6405627304045
 20
129.36086237044
 30
0.0
 11
-192.6405627304045
 21
146.460862370439
 31
0.0
  0
ARC
  5
1A212
  8
KI
  6
CONTINUOUS
 62
     7
 10
-196.8405627304048
 20
132.42243985853301
 30
0.0
 40
4.9999999999998472
 50
233.1301019999899
 51
306.86989799999958
  0
ARC
  5
1A213
  8
KI
  6
CONTINUOUS
 62
     7
 10
-197.05684944077561
 20
133.4224398585329
 30
0.0
 40
5.9999999999989511
 50
241.27417005117059
 51
317.39582687510108
  0
LINE
  5
1A214
  8
KI
  6
CONTINUOUS
 62
     7
 10
-199.94056273040511
 20
126.1608623704401
 30
0.0
 11
-191.4405627304057
 21
126.1608623704401
 31
0.0
  0
ARC
  5
1A215
  8
KI
  6
CONTINUOUS
 62
     7
 10
-201.9405627304057
 20
132.92243985853261
 30
0.0
 40
0.9999999999999431
 50
270.0
 51
0.0
  0
ARC
  5
1A216
  8
KI
  6
CONTINUOUS
 62
     7
 10
-208.94056273040479
 20
132.92243985853261
 30
0.0
 40
0.9999999999999431
 50
180.0
 51
270.0
  0
LINE
  5
1A217
  8
KI
  6
CONTINUOUS
 62
     7
 10
-209.94056273040431
 20
130.4224398585329
 30
0.0
 11
-209.94056273040431
 21
140.92243985853301
 31
0.0
  0
LINE
  5
1A218
  8
KI
  6
CONTINUOUS
 62
     7
 10
-200.94056273040479
 20
130.4224398585329
 30
0.0
 11
-200.94056273040479
 21
140.92243985853301
 31
0.0
  0
LINE
  5
1A219
  8
KI
  6
CONTINUOUS
 62
     7
 10
-210.5405627304047
 20
132.42243985853301
 30
0.0
 11
-210.5405627304047
 21
140.4224398585327
 31
0.0
  0
LINE
  5
1A21A
  8
KI
  6
CONTINUOUS
 62
     7
 10
-200.34056273040611
 20
140.4224398585327
 30
0.0
 11
-200.34056273040611
 21
132.42243985853301
 31
0.0
  0
LINE
  5
1A21B
  8
KI
  6
CONTINUOUS
 62
     7
 10
-200.34056273040611
 20
132.1724398585327
 30
0.0
 11
-200.34056273040611
 21
140.67243985853301
 31
0.0
  0
LINE
  5
1A21C
  8
KI
  6
CONTINUOUS
 62
     7
 10
-199.84056273040551
 20
144.42243985853301
 30
0.0
 11
-199.84056273040551
 21
128.42243985853261
 31
0.0
  0
LINE
  5
1A21D
  8
KI
  6
CONTINUOUS
 62
     7
 10
-210.5405627304047
 20
140.67243985853301
 30
0.0
 11
-210.5405627304047
 21
132.1724398585327
 31
0.0
  0
LINE
  5
1A21E
  8
KI
  6
CONTINUOUS
 62
     7
 10
-211.0405627304055
 20
128.42243985853261
 30
0.0
 11
-211.0405627304055
 21
144.42243985853301
 31
0.0
  0
LINE
  5
1A21F
  8
KI
  6
CONTINUOUS
 62
     7
 10
-208.94056273040479
 20
131.92243985853261
 30
0.0
 11
-201.9405627304057
 21
131.92243985853261
 31
0.0
  0
LINE
  5
1A220
  8
KI
  6
CONTINUOUS
 62
     7
 10
-208.94056273040479
 20
129.42243985853301
 30
0.0
 11
-201.9405627304057
 21
129.42243985853301
 31
0.0
  0
LINE
  5
1A221
  8
KI
  6
CONTINUOUS
 62
     7
 10
-208.94056273040479
 20
126.422439858533
 30
0.0
 11
-201.9405627304057
 21
126.422439858533
 31
0.0
  0
ARC
  5
1A222
  8
KI
  6
CONTINUOUS
 62
     7
 10
-210.44056273040511
 20
131.92243985853261
 30
0.0
 40
0.500000000000057
 50
0.0
 51
90.0
  0
ARC
  5
1A223
  8
KI
  6
CONTINUOUS
 62
     7
 10
-210.44056273040511
 20
131.92243985853261
 30
0.0
 40
0.500000000000057
 50
0.0
 51
90.0
  0
ARC
  5
1A224
  8
KI
  6
CONTINUOUS
 62
     7
 10
-211.94056273040479
 20
127.4224398585329
 30
0.0
 40
2.0000000000000551
 50
0.0
 51
63.256869000008393
  0
ARC
  5
1A225
  8
KI
  6
CONTINUOUS
 62
     7
 10
-208.94056273040479
 20
130.4224398585329
 30
0.0
 40
0.9999999999999431
 50
180.0
 51
270.0
  0
ARC
  5
1A226
  8
KI
  6
CONTINUOUS
 62
     7
 10
-208.94056273040479
 20
127.4224398585329
 30
0.0
 40
0.9999999999999431
 50
180.0
 51
270.0
  0
LINE
  5
1A227
  8
KI
  6
CONTINUOUS
 62
     7
 10
-210.5405627304047
 20
132.42243985853301
 30
0.0
 11
-210.44056273040511
 21
132.42243985853301
 31
0.0
  0
LINE
  5
1A228
  8
KI
  6
CONTINUOUS
 62
     7
 10
-210.5405627304047
 20
132.1724398585327
 30
0.0
 11
-211.0405627304055
 21
132.1724398585327
 31
0.0
  0
LINE
  5
1A229
  8
KI
  6
CONTINUOUS
 62
     7
 10
-210.94056273040519
 20
128.1608623704401
 30
0.0
 11
-210.94056273040519
 21
126.1608623704401
 31
0.0
  0
ARC
  5
1A22A
  8
KI
  6
CONTINUOUS
 62
     7
 10
-200.44056273040519
 20
131.92243985853261
 30
0.0
 40
0.5000000000001421
 50
90.0
 51
180.0
  0
ARC
  5
1A22B
  8
KI
  6
CONTINUOUS
 62
     7
 10
-201.9405627304057
 20
130.4224398585329
 30
0.0
 40
0.9999999999998575
 50
270.0
 51
0.0
  0
ARC
  5
1A22C
  8
KI
  6
CONTINUOUS
 62
     7
 10
-201.9405627304057
 20
127.4224398585329
 30
0.0
 40
0.9999999999998575
 50
270.0
 51
0.0
  0
ARC
  5
1A22D
  8
KI
  6
CONTINUOUS
 62
     7
 10
-198.94056273040479
 20
127.4224398585329
 30
0.0
 40
2.0000000000010441
 50
116.7431310000127
 51
180.0
  0
LINE
  5
1A22E
  8
KI
  6
CONTINUOUS
 62
     7
 10
-200.44056273040519
 20
132.42243985853301
 30
0.0
 11
-200.34056273040611
 21
132.42243985853301
 31
0.0
  0
LINE
  5
1A22F
  8
KI
  6
CONTINUOUS
 62
     7
 10
-199.84056273040551
 20
132.1724398585327
 30
0.0
 11
-200.34056273040611
 21
132.1724398585327
 31
0.0
  0
LINE
  5
1A230
  8
KI
  6
CONTINUOUS
 62
     7
 10
-199.94056273040511
 20
128.1608623704401
 30
0.0
 11
-199.94056273040511
 21
126.1608623704401
 31
0.0
  0
LINE
  5
1A231
  8
KI
  6
CONTINUOUS
 62
     7
 10
-199.84056273040551
 20
141.9224398585327
 30
0.0
 11
-211.0405627304055
 21
141.9224398585327
 31
0.0
  0
ARC
  5
1A232
  8
KI
  6
CONTINUOUS
 62
     7
 10
-210.44056273040511
 20
140.92243985853301
 30
0.0
 40
0.500000000000057
 50
270.0
 51
0.0
  0
ARC
  5
1A233
  8
KI
  6
CONTINUOUS
 62
     7
 10
-208.94056273040479
 20
140.92243985853301
 30
0.0
 40
0.9999999999999431
 50
90.0
 51
180.0
  0
LINE
  5
1A234
  8
KI
  6
CONTINUOUS
 62
     7
 10
-210.44056273040511
 20
140.4224398585327
 30
0.0
 11
-210.5405627304047
 21
140.4224398585327
 31
0.0
  0
LINE
  5
1A235
  8
KI
  6
CONTINUOUS
 62
     7
 10
-211.0405627304055
 20
140.67243985853301
 30
0.0
 11
-210.5405627304047
 21
140.67243985853301
 31
0.0
  0
ARC
  5
1A236
  8
KI
  6
CONTINUOUS
 62
     7
 10
-200.44056273040519
 20
140.92243985853301
 30
0.0
 40
0.4999999999998864
 50
180.0
 51
270.0
  0
ARC
  5
1A237
  8
KI
  6
CONTINUOUS
 62
     7
 10
-201.9405627304057
 20
140.92243985853301
 30
0.0
 40
1.000000000000113
 50
0.0
 51
90.0
  0
LINE
  5
1A238
  8
KI
  6
CONTINUOUS
 62
     7
 10
-200.34056273040611
 20
140.4224398585327
 30
0.0
 11
-200.44056273040519
 21
140.4224398585327
 31
0.0
  0
LINE
  5
1A239
  8
KI
  6
CONTINUOUS
 62
     7
 10
-200.34056273040611
 20
140.67243985853301
 30
0.0
 11
-199.84056273040551
 21
140.67243985853301
 31
0.0
  0
LINE
  5
1A23A
  8
KI
  6
CONTINUOUS
 62
     7
 10
-193.84056273040551
 20
128.42243985853261
 30
0.0
 11
-193.84056273040551
 21
144.42243985853301
 31
0.0
  0
LINE
  5
1A23B
  8
KI
  6
CONTINUOUS
 62
     7
 10
-192.6405627304045
 20
146.460862370439
 30
0.0
 11
-200.44056273040519
 21
146.460862370439
 31
0.0
  0
LINE
  5
1A23C
  8
KI
  6
CONTINUOUS
 62
     7
 10
-201.44056273040479
 20
146.460862370439
 30
0.0
 11
-209.44056273040479
 21
146.460862370439
 31
0.0
  0
LINE
  5
1A23D
  8
KI
  6
CONTINUOUS
 62
     7
 10
-210.44056273040511
 20
146.460862370439
 30
0.0
 11
-210.44056273040511
 21
144.8608623704402
 31
0.0
  0
LINE
  5
1A23E
  8
KI
  6
CONTINUOUS
 62
     7
 10
-210.44056273040511
 20
144.8608623704402
 30
0.0
 11
-209.44056273040479
 21
144.8608623704402
 31
0.0
  0
LINE
  5
1A23F
  8
KI
  6
CONTINUOUS
 62
     7
 10
-209.44056273040479
 20
144.8608623704402
 30
0.0
 11
-209.44056273040479
 21
146.460862370439
 31
0.0
  0
LINE
  5
1A240
  8
KI
  6
CONTINUOUS
 62
     7
 10
-201.44056273040479
 20
146.460862370439
 30
0.0
 11
-201.44056273040479
 21
144.8608623704402
 31
0.0
  0
LINE
  5
1A241
  8
KI
  6
CONTINUOUS
 62
     7
 10
-201.44056273040479
 20
144.8608623704402
 30
0.0
 11
-200.44056273040519
 21
144.8608623704402
 31
0.0
  0
LINE
  5
1A242
  8
KI
  6
CONTINUOUS
 62
     7
 10
-200.44056273040519
 20
144.8608623704402
 30
0.0
 11
-200.44056273040519
 21
146.460862370439
 31
0.0
  0
LINE
  5
1A243
  8
KI
  6
CONTINUOUS
 62
     7
 10
-195.44056273040479
 20
-157.89107889273731
 30
0.0
 11
-215.44056273040309
 21
-157.89107889273731
 31
0.0
  0
LINE
  5
1A244
  8
KI
  6
CONTINUOUS
 62
     7
 10
-195.44056273040479
 20
-159.89107889273731
 30
0.0
 11
-215.44056273040309
 21
-159.89107889273731
 31
0.0
  0
LINE
  5
1A245
  8
KI
  6
CONTINUOUS
 62
     7
 10
-195.44056273040479
 20
-154.8910788927374
 30
0.0
 11
-215.44056273040309
 21
-154.89107889273609
 31
0.0
  0
LINE
  5
1A246
  8
KI
  6
CONTINUOUS
 62
     7
 10
-221.94056273040479
 20
-151.8910788927374
 30
0.0
 11
-188.9405627304053
 21
-151.8910788927374
 31
0.0
  0
LINE
  5
1A247
  8
KI
  6
CONTINUOUS
 62
     7
 10
-221.94056273040479
 20
-87.89107889272131
 30
0.0
 11
-221.94056273040479
 21
-151.8910788927374
 31
0.0
  0
LINE
  5
1A248
  8
KI
  6
CONTINUOUS
 62
     7
 10
-215.44056273040309
 20
-159.89107889273731
 30
0.0
 11
-215.44056273040309
 21
-154.89107889273609
 31
0.0
  0
LINE
  5
1A249
  8
KI
  6
CONTINUOUS
 62
     7
 10
-188.9405627304053
 20
-151.8910788927374
 30
0.0
 11
-188.9405627304053
 21
-87.89107889272131
 31
0.0
  0
LINE
  5
1A24A
  8
KI
  6
CONTINUOUS
 62
     7
 10
-202.4405627304028
 20
-151.8910788927374
 30
0.0
 11
-202.4405627304028
 21
-154.0910788927344
 31
0.0
  0
LINE
  5
1A24B
  8
KI
  6
CONTINUOUS
 62
     7
 10
-208.44056273040479
 20
-154.0910788927344
 30
0.0
 11
-208.44056273040479
 21
-151.8910788927374
 31
0.0
  0
LINE
  5
1A24C
  8
KI
  6
CONTINUOUS
 62
     7
 10
-201.4405627304028
 20
-154.391078892736
 30
0.0
 11
-209.44056273040479
 21
-154.39107889273541
 31
0.0
  0
LINE
  5
1A24D
  8
KI
  6
CONTINUOUS
 62
     7
 10
-209.44056273040479
 20
-154.89107889273609
 30
0.0
 11
-201.4405627304028
 21
-154.89107889273609
 31
0.0
  0
LINE
  5
1A24E
  8
KI
  6
CONTINUOUS
 62
     7
 10
-202.74056273040401
 20
-154.39107889273541
 30
0.0
 11
-208.1405627304035
 21
-154.39107889273541
 31
0.0
  0
LINE
  5
1A24F
  8
KI
  6
CONTINUOUS
 62
     7
 10
-202.74056273040401
 20
-154.39107889273541
 30
0.0
 11
-208.1405627304035
 21
-154.39107889273541
 31
0.0
  0
ARC
  5
1A250
  8
KI
  6
CONTINUOUS
 62
     7
 10
-208.1405627304035
 20
-154.0910788927344
 30
0.0
 40
0.3000000000010914
 50
180.0
 51
270.0
  0
ARC
  5
1A251
  8
KI
  6
CONTINUOUS
 62
     7
 10
-208.1405627304035
 20
-154.0910788927344
 30
0.0
 40
0.3000000000010914
 50
180.0
 51
270.0
  0
LINE
  5
1A252
  8
KI
  6
CONTINUOUS
 62
     7
 10
-209.44056273040479
 20
-154.39107889273541
 30
0.0
 11
-209.44056273040479
 21
-154.89107889273609
 31
0.0
  0
LINE
  5
1A253
  8
KI
  6
CONTINUOUS
 62
     7
 10
-195.44056273040479
 20
-154.8910788927374
 30
0.0
 11
-195.44056273040479
 21
-159.89107889273731
 31
0.0
  0
ARC
  5
1A254
  8
KI
  6
CONTINUOUS
 62
     7
 10
-202.74056273040401
 20
-154.0910788927344
 30
0.0
 40
0.3000000000009209
 50
270.0
 51
0.0
  0
ARC
  5
1A255
  8
KI
  6
CONTINUOUS
 62
     7
 10
-202.74056273040401
 20
-154.0910788927344
 30
0.0
 40
0.3000000000009209
 50
270.0
 51
0.0
  0
LINE
  5
1A256
  8
KI
  6
CONTINUOUS
 62
     7
 10
-201.4405627304028
 20
-154.89107889273609
 30
0.0
 11
-201.4405627304028
 21
-154.391078892736
 31
0.0
  0
LINE
  5
1A257
  8
KI
  6
CONTINUOUS
 62
     7
 10
-221.94056273040479
 20
-276.20761225293302
 30
0.0
 11
-188.9405627304053
 21
-276.20761225293302
 31
0.0
  0
LINE
  5
1A258
  8
KI
  6
CONTINUOUS
 62
     7
 10
-195.44056273040479
 20
-279.2076122529333
 30
0.0
 11
-215.44056273040309
 21
-279.20761225293222
 31
0.0
  0
LINE
  5
1A259
  8
KI
  6
CONTINUOUS
 62
     7
 10
-195.44056273040479
 20
-284.20761225293319
 30
0.0
 11
-215.44056273040309
 21
-284.20761225293319
 31
0.0
  0
LINE
  5
1A25A
  8
KI
  6
CONTINUOUS
 62
     7
 10
-195.44056273040479
 20
-282.2076122529333
 30
0.0
 11
-215.44056273040309
 21
-282.2076122529333
 31
0.0
  0
LINE
  5
1A25B
  8
KI
  6
CONTINUOUS
 62
     7
 10
-221.94056273040479
 20
-224.20761225294149
 30
0.0
 11
-221.94056273040479
 21
-276.20761225293302
 31
0.0
  0
LINE
  5
1A25C
  8
KI
  6
CONTINUOUS
 62
     7
 10
-215.44056273040309
 20
-284.20761225293319
 30
0.0
 11
-215.44056273040309
 21
-279.20761225293222
 31
0.0
  0
LINE
  5
1A25D
  8
KI
  6
CONTINUOUS
 62
     7
 10
-188.9405627304053
 20
-276.20761225293302
 30
0.0
 11
-188.9405627304053
 21
-224.20761225294149
 31
0.0
  0
LINE
  5
1A25E
  8
KI
  6
CONTINUOUS
 62
     7
 10
-202.74056273040401
 20
-278.70761225293143
 30
0.0
 11
-208.1405627304035
 21
-278.70761225293143
 31
0.0
  0
LINE
  5
1A25F
  8
KI
  6
CONTINUOUS
 62
     7
 10
-202.74056273040401
 20
-278.70761225293143
 30
0.0
 11
-208.1405627304035
 21
-278.70761225293143
 31
0.0
  0
LINE
  5
1A260
  8
KI
  6
CONTINUOUS
 62
     7
 10
-209.44056273040479
 20
-279.20761225293222
 30
0.0
 11
-201.4405627304028
 21
-279.20761225293222
 31
0.0
  0
LINE
  5
1A261
  8
KI
  6
CONTINUOUS
 62
     7
 10
-201.4405627304028
 20
-278.70761225293222
 30
0.0
 11
-209.44056273040479
 21
-278.70761225293143
 31
0.0
  0
LINE
  5
1A262
  8
KI
  6
CONTINUOUS
 62
     7
 10
-209.44056273040479
 20
-278.70761225293143
 30
0.0
 11
-209.44056273040479
 21
-279.20761225293222
 31
0.0
  0
ARC
  5
1A263
  8
KI
  6
CONTINUOUS
 62
     7
 10
-208.1405627304035
 20
-278.40761225293022
 30
0.0
 40
0.3000000000010914
 50
180.0
 51
270.0
  0
ARC
  5
1A264
  8
KI
  6
CONTINUOUS
 62
     7
 10
-208.1405627304035
 20
-278.40761225293022
 30
0.0
 40
0.3000000000010914
 50
180.0
 51
270.0
  0
LINE
  5
1A265
  8
KI
  6
CONTINUOUS
 62
     7
 10
-208.44056273040479
 20
-278.40761225293022
 30
0.0
 11
-208.44056273040479
 21
-276.20761225293302
 31
0.0
  0
LINE
  5
1A266
  8
KI
  6
CONTINUOUS
 62
     7
 10
-201.4405627304028
 20
-279.20761225293222
 30
0.0
 11
-201.4405627304028
 21
-278.70761225293222
 31
0.0
  0
ARC
  5
1A267
  8
KI
  6
CONTINUOUS
 62
     7
 10
-202.74056273040401
 20
-278.40761225293022
 30
0.0
 40
0.3000000000009209
 50
270.0
 51
0.0
  0
ARC
  5
1A268
  8
KI
  6
CONTINUOUS
 62
     7
 10
-202.74056273040401
 20
-278.40761225293022
 30
0.0
 40
0.3000000000009209
 50
270.0
 51
0.0
  0
LINE
  5
1A269
  8
KI
  6
CONTINUOUS
 62
     7
 10
-195.44056273040479
 20
-279.2076122529333
 30
0.0
 11
-195.44056273040479
 21
-284.20761225293319
 31
0.0
  0
LINE
  5
1A26A
  8
KI
  6
CONTINUOUS
 62
     7
 10
-202.4405627304028
 20
-276.20761225293302
 30
0.0
 11
-202.4405627304028
 21
-278.40761225293022
 31
0.0
  0
LINE
  5
1A26B
  8
KI
  6
PHANTOM2
 62
     7
 10
356.85078987973708
 20
-56.14650941920501
 30
0.0
 11
389.85078987973668
 21
-56.14650941920501
 31
0.0
  0
LINE
  5
1A26C
  8
KI
  6
PHANTOM2
 62
     7
 10
389.85078987973668
 20
-56.14650941920501
 30
0.0
 11
389.85078987973668
 21
83.153876423599371
 31
0.0
  0
LINE
  5
1A26D
  8
KI
  6
PHANTOM2
 62
     7
 10
356.85078987973708
 20
83.153876423599371
 30
0.0
 11
356.85078987973708
 21
-56.14650941920501
 31
0.0
  0
LINE
  5
1A26E
  8
KI
  6
PHANTOM2
 62
     7
 10
355.85078987973679
 20
-168.5455610220618
 30
0.0
 11
355.85078987973679
 21
83.153876423600309
 31
0.0
  0
LINE
  5
1A26F
  8
KI
  6
PHANTOM2
 62
     7
 10
322.85078987973679
 20
83.153876423599399
 30
0.0
 11
322.85078987973679
 21
-168.5455610220618
 31
0.0
  0
LINE
  5
1A270
  8
KI
  6
PHANTOM2
 62
     7
 10
355.85078987973679
 20
83.153876423600309
 30
0.0
 11
322.85078987973679
 21
83.153876423599399
 31
0.0
  0
LINE
  5
1A271
  8
KI
  6
PHANTOM2
 62
     7
 10
389.85078987973668
 20
83.153876423599371
 30
0.0
 11
356.85078987973708
 21
83.153876423599371
 31
0.0
  0
LINE
  5
1A272
  8
KI
  6
PHANTOM2
 62
     7
 10
322.85078987973679
 20
-168.5455610220618
 30
0.0
 11
355.85078987973679
 21
-168.5455610220618
 31
0.0
  0
LINE
  5
1A273
  8
KI
  6
CONTINUOUS
 62
     7
 10
13.35096659126957
 20
-42.646509419203753
 30
0.0
 11
136.20068531410161
 21
-42.646509419203753
 31
0.0
  0
LINE
  5
1A274
  8
KI
  6
CONTINUOUS
 62
     7
 10
136.20068531410161
 20
-9.6465094192037668
 30
0.0
 11
13.35096659127298
 21
-9.6465094192037668
 31
0.0
  0
LINE
  5
1A275
  8
KI
  6
CONTINUOUS
 62
     7
 10
11.350966591272419
 20
-11.64650941920388
 30
0.0
 11
11.350966591269691
 21
-40.646509419203731
 31
0.0
  0
ARC
  5
1A276
  8
KI
  6
CONTINUOUS
 62
     7
 10
13.35096659126957
 20
-40.646509419203731
 30
0.0
 40
2.0000000000001421
 50
180.0
 51
270.0
  0
ARC
  5
1A277
  8
KI
  6
CONTINUOUS
 62
     7
 10
13.35096659127298
 20
-11.64650941920388
 30
0.0
 40
2.0000000000000551
 50
90.0
 51
180.0
  0
LINE
  5
1A278
  8
KI
  6
CENTER2
 62
     7
 10
373.35078987973679
 20
-34.39650941920376
 30
0.0
 11
373.35078987973679
 21
-17.89650941920376
 31
0.0
  0
LINE
  5
1A279
  8
KI
  6
CENTER2
 62
     7
 10
339.35078987973662
 20
-34.39650941920376
 30
0.0
 11
339.35078987973662
 21
-17.89650941920376
 31
0.0
  0
LINE
  5
1A27A
  8
KI
  6
CONTINUOUS
 62
     7
 10
403.35078987973679
 20
-40.646509419203731
 30
0.0
 11
403.35078987973679
 21
-11.64650941920388
 31
0.0
  0
LINE
  5
1A27B
  8
KI
  6
CONTINUOUS
 62
     7
 10
263.05040403693232
 20
-42.646509419203753
 30
0.0
 11
263.05040403693232
 21
-9.6465094192037668
 31
0.0
  0
LINE
  5
1A27C
  8
KI
  6
CONTINUOUS
 62
     7
 10
264.05040403693238
 20
-9.6465094192037668
 30
0.0
 11
264.05040403693238
 21
-42.646509419203753
 31
0.0
  0
LINE
  5
1A27D
  8
KI
  6
CENTER2
 62
     7
 10
331.10078987973662
 20
-26.14650941920376
 30
0.0
 11
347.60078987973668
 21
-26.14650941920376
 31
0.0
  0
LINE
  5
1A27E
  8
KI
  6
CONTINUOUS
 62
     7
 10
138.20068531410169
 20
-42.646509419203753
 30
0.0
 11
263.05040403693232
 21
-42.646509419203753
 31
0.0
  0
LINE
  5
1A27F
  8
KI
  6
CONTINUOUS
 62
     7
 10
264.05040403693238
 20
-42.646509419203753
 30
0.0
 11
332.70059695833447
 21
-42.646509419203753
 31
0.0
  0
ARC
  5
1A280
  8
KI
  6
CONTINUOUS
 62
     7
 10
401.35078987973668
 20
-40.646509419203731
 30
0.0
 40
1.9999999999998861
 50
270.0
 51
0.0
  0
LINE
  5
1A281
  8
KI
  6
CONTINUOUS
 62
     7
 10
334.70059695833447
 20
-42.646509419203753
 30
0.0
 11
401.35078987973668
 21
-42.646509419203753
 31
0.0
  0
LINE
  5
1A282
  8
KI
  6
CENTER2
 62
     7
 10
365.10078987973668
 20
-26.14650941920376
 30
0.0
 11
381.60078987973679
 21
-26.14650941920376
 31
0.0
  0
LINE
  5
1A283
  8
KI
  6
PHANTOM2
 62
     7
 10
356.85078987973668
 20
-56.146509419203767
 30
0.0
 11
389.85078987973668
 21
-56.146509419203767
 31
0.0
  0
LINE
  5
1A284
  8
KI
  6
CONTINUOUS
 62
     7
 10
255.05040403693181
 20
-9.6465094192037668
 30
0.0
 11
138.20068531410169
 21
-9.6465094192037668
 31
0.0
  0
LINE
  5
1A285
  8
KI
  6
CONTINUOUS
 62
     7
 10
332.70059695833447
 20
-9.6465094192037668
 30
0.0
 11
264.05040403693238
 21
-9.6465094192037668
 31
0.0
  0
LINE
  5
1A286
  8
KI
  6
CONTINUOUS
 62
     7
 10
263.05040403693232
 20
-8.9465094192036059
 30
0.0
 11
275.05040403693232
 21
-8.9465094192036059
 31
0.0
  0
LINE
  5
1A287
  8
KI
  6
CONTINUOUS
 62
     7
 10
271.05040403693209
 20
0.3534905807964606
 30
0.0
 11
253.05040403693229
 21
0.3534905807964606
 31
0.0
  0
LINE
  5
1A288
  8
KI
  6
CONTINUOUS
 62
     7
 10
249.05040403693229
 20
-3.646509419203765
 30
0.0
 11
249.05040403693229
 21
-9.6465094192037668
 31
0.0
  0
LINE
  5
1A289
  8
KI
  6
CONTINUOUS
 62
     7
 10
257.05040403693232
 20
-15.14650941920376
 30
0.0
 11
258.95040403693298
 21
-13.64650941920376
 31
0.0
  0
LINE
  5
1A28A
  8
KI
  6
CONTINUOUS
 62
     7
 10
259.05040403693221
 20
-15.64650941920376
 30
0.0
 11
255.05040403693181
 21
-15.64650941920376
 31
0.0
  0
LINE
  5
1A28B
  8
KI
  6
CONTINUOUS
 62
     7
 10
255.15040403693209
 20
-13.64650941920376
 30
0.0
 11
257.05040403693232
 21
-15.14650941920376
 31
0.0
  0
LINE
  5
1A28C
  8
KI
  6
CONTINUOUS
 62
     7
 10
255.55040403693201
 20
-13.64650941920376
 30
0.0
 11
255.15040403693209
 21
-13.64650941920376
 31
0.0
  0
LINE
  5
1A28D
  8
KI
  6
CONTINUOUS
 62
     7
 10
255.15040403693209
 20
-12.646509419203531
 30
0.0
 11
255.55040403693201
 21
-13.64650941920376
 31
0.0
  0
LINE
  5
1A28E
  8
KI
  6
CONTINUOUS
 62
     7
 10
255.55040403693201
 20
-12.14650941920376
 30
0.0
 11
255.15040403693209
 21
-12.646509419203531
 31
0.0
  0
LINE
  5
1A28F
  8
KI
  6
CONTINUOUS
 62
     7
 10
255.15040403693209
 20
-11.64650941920388
 30
0.0
 11
255.55040403693201
 21
-12.14650941920376
 31
0.0
  0
LINE
  5
1A290
  8
KI
  6
CONTINUOUS
 62
     7
 10
255.55040403693201
 20
-10.646509419203991
 30
0.0
 11
255.15040403693209
 21
-11.64650941920388
 31
0.0
  0
LINE
  5
1A291
  8
KI
  6
CONTINUOUS
 62
     7
 10
255.55040403693201
 20
-9.6465094192037668
 30
0.0
 11
255.55040403693201
 21
-10.646509419203991
 31
0.0
  0
LINE
  5
1A292
  8
KI
  6
CONTINUOUS
 62
     7
 10
249.05040403693229
 20
-9.6465094192037668
 30
0.0
 11
255.55040403693201
 21
-9.6465094192037668
 31
0.0
  0
LINE
  5
1A293
  8
KI
  6
CONTINUOUS
 62
     7
 10
255.05040403693181
 20
-9.6465094192037668
 30
0.0
 11
255.05040403693181
 21
-15.64650941920376
 31
0.0
  0
LINE
  5
1A294
  8
KI
  6
CONTINUOUS
 62
     7
 10
258.55040403693232
 20
-9.6465094192037668
 30
0.0
 11
263.05040403693232
 21
-9.6465094192037668
 31
0.0
  0
LINE
  5
1A295
  8
KI
  6
CONTINUOUS
 62
     7
 10
263.05040403693232
 20
-9.6465094192037668
 30
0.0
 11
263.05040403693232
 21
-8.9465094192036059
 31
0.0
  0
LINE
  5
1A296
  8
KI
  6
CONTINUOUS
 62
     7
 10
258.95040403693298
 20
-13.64650941920376
 30
0.0
 11
258.55040403693232
 21
-13.64650941920376
 31
0.0
  0
LINE
  5
1A297
  8
KI
  6
CONTINUOUS
 62
     7
 10
258.55040403693232
 20
-13.64650941920376
 30
0.0
 11
258.95040403693298
 21
-12.646509419203531
 31
0.0
  0
LINE
  5
1A298
  8
KI
  6
CONTINUOUS
 62
     7
 10
258.95040403693298
 20
-12.646509419203531
 30
0.0
 11
258.55040403693232
 21
-12.14650941920376
 31
0.0
  0
LINE
  5
1A299
  8
KI
  6
CONTINUOUS
 62
     7
 10
258.55040403693232
 20
-12.14650941920376
 30
0.0
 11
258.95040403693298
 21
-11.64650941920388
 31
0.0
  0
LINE
  5
1A29A
  8
KI
  6
CONTINUOUS
 62
     7
 10
258.95040403693298
 20
-11.64650941920388
 30
0.0
 11
258.55040403693232
 21
-10.646509419203991
 31
0.0
  0
LINE
  5
1A29B
  8
KI
  6
CONTINUOUS
 62
     7
 10
258.55040403693232
 20
-10.646509419203991
 30
0.0
 11
258.55040403693232
 21
-9.6465094192037668
 31
0.0
  0
LINE
  5
1A29C
  8
KI
  6
CONTINUOUS
 62
     7
 10
263.05040403693232
 20
-9.6465094192037668
 30
0.0
 11
259.05040403693221
 21
-9.6465094192037668
 31
0.0
  0
LINE
  5
1A29D
  8
KI
  6
CONTINUOUS
 62
     7
 10
259.05040403693221
 20
-9.6465094192037668
 30
0.0
 11
259.05040403693221
 21
-15.64650941920376
 31
0.0
  0
LINE
  5
1A29E
  8
KI
  6
CONTINUOUS
 62
     7
 10
263.05040403693232
 20
-9.6465094192037668
 30
0.0
 11
259.05040403693221
 21
-9.6465094192037668
 31
0.0
  0
LINE
  5
1A29F
  8
KI
  6
CONTINUOUS
 62
     7
 10
249.05040403693229
 20
-3.646509419203765
 30
0.0
 11
250.05040403693249
 21
-2.6465094192038801
 31
0.0
  0
LINE
  5
1A2A0
  8
KI
  6
CONTINUOUS
 62
     7
 10
252.05040403693241
 20
-2.6465094192038801
 30
0.0
 11
250.05040403693249
 21
-2.6465094192038801
 31
0.0
  0
LINE
  5
1A2A1
  8
KI
  6
CONTINUOUS
 62
     7
 10
252.05040403693241
 20
-0.6465094192035396
 30
0.0
 11
252.05040403693241
 21
-2.6465094192038801
 31
0.0
  0
LINE
  5
1A2A2
  8
KI
  6
CONTINUOUS
 62
     7
 10
252.05040403693241
 20
-0.6465094192035396
 30
0.0
 11
253.05040403693229
 21
0.3534905807964606
 31
0.0
  0
LINE
  5
1A2A3
  8
KI
  6
CONTINUOUS
 62
     7
 10
275.05040403693232
 20
-8.9465094192036059
 30
0.0
 11
275.05040403693232
 21
-3.646509419203765
 31
0.0
  0
LINE
  5
1A2A4
  8
KI
  6
CONTINUOUS
 62
     7
 10
274.05040403693238
 20
-2.6465094192038801
 30
0.0
 11
275.05040403693232
 21
-3.646509419203765
 31
0.0
  0
LINE
  5
1A2A5
  8
KI
  6
CONTINUOUS
 62
     7
 10
272.05040403693232
 20
-2.6465094192038801
 30
0.0
 11
272.05040403693232
 21
-0.6465094192035396
 31
0.0
  0
LINE
  5
1A2A6
  8
KI
  6
CONTINUOUS
 62
     7
 10
274.05040403693238
 20
-2.6465094192038801
 30
0.0
 11
272.05040403693232
 21
-2.6465094192038801
 31
0.0
  0
LINE
  5
1A2A7
  8
KI
  6
CONTINUOUS
 62
     7
 10
271.05040403693209
 20
0.3534905807964606
 30
0.0
 11
272.05040403693232
 21
-0.6465094192035396
 31
0.0
  0
ARC
  5
1A2A8
  8
KI
  6
CONTINUOUS
 62
     7
 10
401.35078987973668
 20
-11.64650941920388
 30
0.0
 40
2.000000000000397
 50
0.0
 51
90.0
  0
LINE
  5
1A2A9
  8
KI
  6
CONTINUOUS
 62
     7
 10
401.35078987973668
 20
-9.6465094192037668
 30
0.0
 11
334.70059695833447
 21
-9.6465094192037668
 31
0.0
  0
LINE
  5
1A2AA
  8
KI
  6
DASHED2
 62
     7
 10
-197.54056273040331
 20
-151.8910788927374
 30
0.0
 11
-213.3405627304048
 21
-151.8910788927374
 31
0.0
  0
LINE
  5
1A2AB
  8
KI
  6
DASHED2
 62
     7
 10
-197.54056273040331
 20
-151.8910788927374
 30
0.0
 11
-213.3405627304048
 21
-151.8910788927374
 31
0.0
  0
ARC
  5
1A2AC
  8
KI
  6
DASHED2
 62
     7
 10
-205.4405627304053
 20
-116.7910788927355
 30
0.0
 40
7.9000000000020218
 50
0.0
 51
180.0
  0
LINE
  5
1A2AD
  8
KI
  6
DASHED2
 62
     7
 10
-213.3405627304048
 20
-151.8910788927374
 30
0.0
 11
-213.3405627304048
 21
-116.7910788927355
 31
0.0
  0
LINE
  5
1A2AE
  8
KI
  6
DASHED2
 62
     7
 10
-213.3405627304048
 20
-151.8910788927374
 30
0.0
 11
-213.3405627304048
 21
-117.29107889273639
 31
0.0
  0
LINE
  5
1A2AF
  8
KI
  6
DASHED2
 62
     7
 10
-197.54056273040331
 20
-116.7910788927355
 30
0.0
 11
-197.54056273040331
 21
-151.8910788927374
 31
0.0
  0
LINE
  5
1A2B0
  8
KI
  6
DASHED2
 62
     7
 10
-197.54056273040331
 20
-117.29107889273639
 30
0.0
 11
-197.54056273040331
 21
-151.8910788927374
 31
0.0
  0
LINE
  5
1A2B1
  8
KI
  6
DASHED2
 62
     7
 10
-197.54056273040331
 20
-276.20761225293302
 30
0.0
 11
-213.3405627304048
 21
-276.20761225293302
 31
0.0
  0
LINE
  5
1A2B2
  8
KI
  6
DASHED2
 62
     7
 10
-197.54056273040331
 20
-276.20761225293302
 30
0.0
 11
-213.3405627304048
 21
-276.20761225293302
 31
0.0
  0
ARC
  5
1A2B3
  8
KI
  6
DASHED2
 62
     7
 10
-205.4405627304053
 20
-241.10761225293149
 30
0.0
 40
7.9000000000020218
 50
0.0
 51
180.0
  0
LINE
  5
1A2B4
  8
KI
  6
DASHED2
 62
     7
 10
-213.3405627304048
 20
-276.20761225293302
 30
0.0
 11
-213.3405627304048
 21
-241.10761225293149
 31
0.0
  0
LINE
  5
1A2B5
  8
KI
  6
DASHED2
 62
     7
 10
-213.3405627304048
 20
-276.20761225293302
 30
0.0
 11
-213.3405627304048
 21
-241.60761225293231
 31
0.0
  0
LINE
  5
1A2B6
  8
KI
  6
DASHED2
 62
     7
 10
-197.54056273040331
 20
-241.10761225293149
 30
0.0
 11
-197.54056273040331
 21
-276.20761225293302
 31
0.0
  0
LINE
  5
1A2B7
  8
KI
  6
DASHED2
 62
     7
 10
-197.54056273040331
 20
-241.60761225293231
 30
0.0
 11
-197.54056273040331
 21
-276.20761225293302
 31
0.0
  0
LINE
  5
1A2B8
  8
SU
  6
CONTINUOUS
 62
     3
 10
-361.44056273040491
 20
147.66086237043999
 30
0.0
 11
-386.4405627304053
 21
147.66086237043999
 31
0.0
  0
LINE
  5
1A2B9
  8
SU
  6
CONTINUOUS
 62
     3
 10
-250.9405627304053
 20
134.66086897044011
 30
0.0
 11
-386.4405627304053
 21
134.66086897044011
 31
0.0
  0
LINE
  5
1A2BA
  8
SU
  6
CONTINUOUS
 62
     3
 10
-383.4405627304053
 20
147.66086237043999
 30
0.0
 11
-383.4405627304053
 21
134.66086897044011
 31
0.0
  0
LINE
  5
1A2BB
  8
SU
  6
CONTINUOUS
 62
     3
 10
-383.4405627304053
 20
134.66086897044011
 30
0.0
 11
-383.44056273040542
 21
117.8353451609164
 31
0.0
  0
LINE
  5
1A2BC
  8
SU
  6
CONTINUOUS
 62
     3
 10
-364.4405627304053
 20
171.66086237043999
 30
0.0
 11
-386.4405627304053
 21
171.66086237043999
 31
0.0
  0
LINE
  5
1A2BD
  8
SU
  6
CONTINUOUS
 62
     3
 10
-361.44056273040491
 20
147.66086237043999
 30
0.0
 11
-386.4405627304053
 21
147.66086237043999
 31
0.0
  0
LINE
  5
1A2BE
  8
SU
  6
CONTINUOUS
 62
     3
 10
-383.44056273040519
 20
171.66086237043999
 30
0.0
 11
-383.44056273040519
 21
147.66086237043999
 31
0.0
  0
LINE
  5
1A2BF
  8
SU
  6
CONTINUOUS
 62
     3
 10
263.05040403693232
 20
-43.64650941920376
 30
0.0
 11
263.05040403693232
 21
-73.146521045041936
 31
0.0
  0
LINE
  5
1A2C0
  8
SU
  6
CONTINUOUS
 62
     3
 10
263.05040403693232
 20
-70.146521045041936
 30
0.0
 11
260.65040403693212
 21
-70.146521045041936
 31
0.0
  0
LINE
  5
1A2C1
  8
SU
  6
CONTINUOUS
 62
     3
 10
264.05040403693238
 20
-70.146521045041936
 30
0.0
 11
272.24088022740841
 21
-70.146521045041936
 31
0.0
  0
LINE
  5
1A2C2
  8
SU
  6
CONTINUOUS
 62
     3
 10
263.05040403693232
 20
-70.146521045041936
 30
0.0
 11
264.05040403693238
 21
-70.146521045041936
 31
0.0
  0
LINE
  5
1A2C3
  8
SU
  6
CONTINUOUS
 62
     3
 10
264.05040403693238
 20
-43.64650941920376
 30
0.0
 11
264.05040403693238
 21
-73.146521045041936
 31
0.0
  0
LINE
  5
1A2C4
  8
SU
  6
CONTINUOUS
 62
     3
 10
403.35078986414999
 20
-70.146521045041936
 30
0.0
 11
264.05040403693238
 21
-70.146521045041936
 31
0.0
  0
LINE
  5
1A2C5
  8
SU
  6
CONTINUOUS
 62
     3
 10
263.05040403693232
 20
-70.146521045041936
 30
0.0
 11
11.35096659127105
 21
-70.146521045041936
 31
0.0
  0
LINE
  5
1A2C6
  8
SU
  6
CONTINUOUS
 62
     3
 10
403.35078986414999
 20
-43.646509419204989
 30
0.0
 11
403.35078986414999
 21
-103.14652104504199
 31
0.0
  0
LINE
  5
1A2C7
  8
SU
  6
CONTINUOUS
 62
     3
 10
11.35096659127106
 20
-43.646509419204989
 30
0.0
 11
11.35096659127105
 21
-103.14652104504199
 31
0.0
  0
LINE
  5
1A2C8
  8
SU
  6
CONTINUOUS
 62
     3
 10
403.35078986414999
 20
-100.14652104504199
 30
0.0
 11
11.35096659127105
 21
-100.14652104504199
 31
0.0
  0
LINE
  5
1A2C9
  8
KI
  6
CONTINUOUS
 62
     7
 10
-360.44056273040633
 20
171.66086237043999
 30
0.0
 11
-184.4405627304053
 21
171.66086237043999
 31
0.0
  0
LINE
  5
1A2CA
  8
KI
  6
CONTINUOUS
 62
     7
 10
-360.4405627304053
 20
150.1608623704401
 30
0.0
 11
-357.9405627304053
 21
147.66086237043999
 31
0.0
1001
GENIUS_GENFIL_13
1070
     0
1040
2.5
1040
2.5
1040
20.0
1040
0.0
1002
{
1002
}
1001
GENIUS_GENOBJ-N-CHA_13
1002
{
1000
OWNER
1000
GEN
1002
}
1001
GENIUS_GENODEF_13
1002
{
1000
HIER
1070
     0
1002
}
1002
{
1000
MANEDIT
1070
     0
1002
}
1002
{
1000
NOSEL
1070
     0
1002
}
1002
{
1000
BEHIND
1070
     0
1002
}
1002
{
1000
OTHER
1070
     0
1002
}
1002
{
1000
REACTOR
1002
}
  0
LINE
  5
1A2CB
  8
KI
  6
CONTINUOUS
 62
     7
 10
-360.4405627304053
 20
150.1608623704401
 30
0.0
 11
-360.4405627304053
 21
171.66086237043999
 31
0.0
  0
LINE
  5
1A2CC
  8
KI
  6
CONTINUOUS
 62
     7
 10
-186.9405627304053
 20
147.66086237043999
 30
0.0
 11
-227.94056271040711
 21
147.66086237043999
 31
0.0
  0
LINE
  5
1A2CD
  8
KI
  6
CONTINUOUS
 62
     7
 10
-184.4405627304053
 20
150.1608623704401
 30
0.0
 11
-186.9405627304053
 21
147.66086237043999
 31
0.0
1001
GENIUS_GENFIL_13
1070
     0
1040
2.5
1040
2.5
1040
20.0
1040
0.0
1002
{
1002
}
1001
GENIUS_GENOBJ-N-CHA_13
1002
{
1000
OWNER
1000
GEN
1002
}
1001
GENIUS_GENODEF_13
1002
{
1000
HIER
1070
     0
1002
}
1002
{
1000
MANEDIT
1070
     0
1002
}
1002
{
1000
NOSEL
1070
     0
1002
}
1002
{
1000
BEHIND
1070
     0
1002
}
1002
{
1000
OTHER
1070
     0
1002
}
1002
{
1000
REACTOR
1002
}
  0
LINE
  5
1A2CE
  8
KI
  6
CONTINUOUS
 62
     7
 10
-184.4405627304053
 20
171.66086237043999
 30
0.0
 11
-184.4405627304053
 21
150.1608623704401
 31
0.0
  0
LINE
  5
1A2CF
  8
KI
  6
CONTINUOUS
 62
     7
 10
-231.34056271040711
 20
147.66086237043999
 30
0.0
 11
-231.34056271040711
 21
156.6608623704401
 31
0.0
  0
LINE
  5
1A2D0
  8
KI
  6
CONTINUOUS
 62
     7
 10
-227.94056271040711
 20
147.66086237043999
 30
0.0
 11
-227.94056271040711
 21
156.6608623704401
 31
0.0
  0
LINE
  5
1A2D1
  8
KI
  6
CONTINUOUS
 62
     7
 10
-227.94056271040711
 20
156.6608623704401
 30
0.0
 11
-231.34056271040711
 21
156.6608623704401
 31
0.0
  0
LINE
  5
1A2D2
  8
KI
  6
CONTINUOUS
 62
     7
 10
-244.5405627104069
 20
156.6608623704401
 30
0.0
 11
-244.5405627104069
 21
147.66086237043999
 31
0.0
  0
LINE
  5
1A2D3
  8
KI
  6
CONTINUOUS
 62
     7
 10
-247.94056271040719
 20
156.6608623704401
 30
0.0
 11
-247.94056271040719
 21
147.66086237043999
 31
0.0
  0
LINE
  5
1A2D4
  8
KI
  6
CONTINUOUS
 62
     7
 10
-244.5405627104069
 20
156.6608623704401
 30
0.0
 11
-247.94056271040719
 21
156.6608623704401
 31
0.0
  0
LINE
  5
1A2D5
  8
OS
  6
CONTINUOUS
 62
     2
 10
-360.44056273040519
 20
171.14215317017781
 30
0.0
 11
-359.92185353014293
 21
171.66086237043999
 31
0.0
  0
LINE
  5
1A2D6
  8
OS
  6
CONTINUOUS
 62
     2
 10
-360.44056273040519
 20
161.242658233566
 30
0.0
 11
-350.02235859353112
 21
171.66086237043999
 31
0.0
  0
LINE
  5
1A2D7
  8
OS
  6
CONTINUOUS
 62
     2
 10
-360.44056273040519
 20
151.3431632969544
 30
0.0
 11
-340.12286365691961
 21
171.6608623704399
 31
0.0
  0
LINE
  5
1A2D8
  8
OS
  6
CONTINUOUS
 62
     2
 10
-354.22336872030769
 20
147.66086237043999
 30
0.0
 11
-330.22336872030792
 21
171.66086237043999
 31
0.0
  0
LINE
  5
1A2D9
  8
OS
  6
CONTINUOUS
 62
     2
 10
-344.32387378369617
 20
147.66086237043979
 30
0.0
 11
-320.32387378369617
 21
171.66086237043999
 31
0.0
  0
LINE
  5
1A2DA
  8
OS
  6
CONTINUOUS
 62
     2
 10
-334.42437884708443
 20
147.66086237043999
 30
0.0
 11
-310.4243788470846
 21
171.6608623704399
 31
0.0
  0
LINE
  5
1A2DB
  8
OS
  6
CONTINUOUS
 62
     2
 10
-324.52488391047279
 20
147.66086237043999
 30
0.0
 11
-300.52488391047302
 21
171.66086237043999
 31
0.0
  0
LINE
  5
1A2DC
  8
OS
  6
CONTINUOUS
 62
     2
 10
-314.62538897386139
 20
147.66086237043979
 30
0.0
 11
-290.62538897386122
 21
171.66086237043999
 31
0.0
  0
LINE
  5
1A2DD
  8
OS
  6
CONTINUOUS
 62
     2
 10
-304.72589403724942
 20
147.66086237043999
 30
0.0
 11
-280.72589403724947
 21
171.66086237043999
 31
0.0
  0
LINE
  5
1A2DE
  8
OS
  6
CONTINUOUS
 62
     2
 10
-294.8263991006379
 20
147.66086237043999
 30
0.0
 11
-270.82639910063801
 21
171.66086237043999
 31
0.0
  0
LINE
  5
1A2DF
  8
OS
  6
CONTINUOUS
 62
     2
 10
-284.92690416402633
 20
147.66086237043979
 30
0.0
 11
-260.92690416402621
 21
171.66086237043999
 31
0.0
  0
LINE
  5
1A2E0
  8
OS
  6
CONTINUOUS
 62
     2
 10
-275.0274092274143
 20
147.66086237043999
 30
0.0
 11
-251.02740922741441
 21
171.66086237043999
 31
0.0
  0
LINE
  5
1A2E1
  8
OS
  6
CONTINUOUS
 62
     2
 10
-265.12791429080289
 20
147.66086237043999
 30
0.0
 11
-241.12791429080301
 21
171.66086237043999
 31
0.0
  0
LINE
  5
1A2E2
  8
OS
  6
CONTINUOUS
 62
     2
 10
-255.22841935419109
 20
147.66086237043999
 30
0.0
 11
-247.94056271040719
 21
154.94871901422411
 31
0.0
  0
LINE
  5
1A2E3
  8
OS
  6
CONTINUOUS
 62
     2
 10
-244.5405627104069
 20
148.4492240776126
 30
0.0
 11
-221.3289244175796
 21
171.66086237043999
 31
0.0
  0
LINE
  5
1A2E4
  8
OS
  6
CONTINUOUS
 62
     2
 10
-235.4294294809678
 20
147.66086237043999
 30
0.0
 11
-231.34056271040711
 21
151.7497291410009
 31
0.0
  0
LINE
  5
1A2E5
  8
OS
  6
CONTINUOUS
 62
     2
 10
-225.52993454435591
 20
147.66086237043999
 30
0.0
 11
-201.52993454435631
 21
171.6608623704399
 31
0.0
  0
LINE
  5
1A2E6
  8
OS
  6
CONTINUOUS
 62
     2
 10
-215.63043960774439
 20
147.66086237043999
 30
0.0
 11
-191.63043960774439
 21
171.66086237043999
 31
0.0
  0
LINE
  5
1A2E7
  8
OS
  6
CONTINUOUS
 62
     2
 10
-205.73094467113279
 20
147.66086237043999
 30
0.0
 11
-184.44056273040511
 21
168.95124431116781
 31
0.0
  0
LINE
  5
1A2E8
  8
OS
  6
CONTINUOUS
 62
     2
 10
-195.8314497345211
 20
147.66086237043999
 30
0.0
 11
-184.44056273040511
 21
159.0517493745561
 31
0.0
  0
LINE
  5
1A2E9
  8
OS
  6
CONTINUOUS
 62
     2
 10
-227.94056271040711
 20
155.14972914100079
 30
0.0
 11
-211.42942948096791
 21
171.66086237043999
 31
0.0
  0
LINE
  5
1A2EA
  8
OS
  6
CONTINUOUS
 62
     2
 10
-246.22841935419081
 20
156.6608623704401
 30
0.0
 11
-231.228419354191
 21
171.66086237043999
 31
0.0
  0
LINE
  5
1A2EB
  8
KI
  6
CONTINUOUS
 62
     7
 10
-247.94056271040719
 20
147.66086237043999
 30
0.0
 11
-357.9405627304053
 21
147.66086237043999
 31
0.0
  0
LINE
  5
1A2EC
  8
KI
  6
CONTINUOUS
 62
     7
 10
-231.34056271040711
 20
147.66086237043999
 30
0.0
 11
-244.5405627104069
 21
147.66086237043999
 31
0.0
  0
LINE
  5
1A2ED
  8
SU
  6
CONTINUOUS
 62
     3
 10
409.350789864148
 20
-51.146521045041382
 30
0.0
 11
409.350789864148
 21
-103.1465210450432
 31
0.0
  0
LINE
  5
1A2EE
  8
SU
  6
CONTINUOUS
 62
     3
 10
403.3507898641501
 20
-100.1465210450433
 30
0.0
 11
409.350789864148
 21
-100.1465210450433
 31
0.0
  0
LINE
  5
1A2EF
  8
SU
  6
CONTINUOUS
 62
     3
 10
40.350966575684367
 20
-9.6465094192049126
 30
0.0
 11
40.350966575684367
 21
-42.646509419204911
 31
0.0
  0
LINE
  5
1A2F0
  8
SU
  6
CONTINUOUS
 62
     3
 10
322.85078987973719
 20
84.153876423599399
 30
0.0
 11
322.85078987973719
 21
154.85349058078131
 31
0.0
  0
LINE
  5
1A2F1
  8
SU
  6
CONTINUOUS
 62
     3
 10
20.35096657568414
 20
151.85349058078131
 30
0.0
 11
322.85078987973719
 21
151.85349058078131
 31
0.0
  0
LINE
  5
1A2F2
  8
SU
  6
CONTINUOUS
 62
     3
 10
-221.9405627304053
 20
87.160861685956903
 30
0.0
 11
-188.9405627304053
 21
87.160861685956903
 31
0.0
  0
LINE
  5
1A2F3
  8
KI
  6
CONTINUOUS
 62
     7
 10
409.35096657568153
 20
16.35349058077751
 30
0.0
 11
409.35096657568153
 21
129.35349058077719
 31
0.0
  0
LINE
  5
1A2F4
  8
KI
  6
CONTINUOUS
 62
     7
 10
409.35096657568153
 20
-47.646509419222397
 30
0.0
 11
409.35096657568153
 21
-3.6465094192224869
 31
0.0
  0
LINE
  5
1A2F5
  8
KI
  6
CONTINUOUS
 62
     7
 10
411.8509665756817
 20
131.8534905807775
 30
0.0
 11
433.3509665756817
 21
131.8534905807775
 31
0.0
  0
LINE
  5
1A2F6
  8
KI
  6
CONTINUOUS
 62
     7
 10
411.8509665756817
 20
131.8534905807775
 30
0.0
 11
409.35096657568153
 21
129.35349058077719
 31
0.0
1001
GENIUS_GENFIL_13
1070
     0
1040
2.5
1040
2.5
1040
20.0
1040
0.0
1002
{
1002
}
1001
GENIUS_GENOBJ-N-CHA_13
1002
{
1000
OWNER
1000
GEN
1002
}
1001
GENIUS_GENODEF_13
1002
{
1000
HIER
1070
     0
1002
}
1002
{
1000
MANEDIT
1070
     0
1002
}
1002
{
1000
NOSEL
1070
     0
1002
}
1002
{
1000
BEHIND
1070
     0
1002
}
1002
{
1000
OTHER
1070
     0
1002
}
1002
{
1000
REACTOR
1002
}
  0
LINE
  5
1A2F7
  8
KI
  6
CONTINUOUS
 62
     7
 10
433.3509665756817
 20
131.8534905807789
 30
0.0
 11
433.3509665756817
 21
-50.146509419222411
 31
0.0
  0
LINE
  5
1A2F8
  8
KI
  6
CONTINUOUS
 62
     7
 10
433.3509665756817
 20
-50.146509419222411
 30
0.0
 11
411.8509665756817
 21
-50.146509419222411
 31
0.0
  0
LINE
  5
1A2F9
  8
KI
  6
CONTINUOUS
 62
     7
 10
411.8509665756817
 20
-50.146509419222411
 30
0.0
 11
409.35096657568153
 21
-47.646509419222397
 31
0.0
1001
GENIUS_GENFIL_13
1070
     0
1040
2.5
1040
2.5
1040
20.0
1040
0.0
1002
{
1002
}
1001
GENIUS_GENOBJ-N-CHA_13
1002
{
1000
OWNER
1000
GEN
1002
}
1001
GENIUS_GENODEF_13
1002
{
1000
HIER
1070
     0
1002
}
1002
{
1000
MANEDIT
1070
     0
1002
}
1002
{
1000
NOSEL
1070
     0
1002
}
1002
{
1000
BEHIND
1070
     0
1002
}
1002
{
1000
OTHER
1070
     0
1002
}
1002
{
1000
REACTOR
1002
}
  0
LINE
  5
1A2FA
  8
KI
  6
CONTINUOUS
 62
     7
 10
409.35096657568153
 20
-0.2465094192225408
 30
0.0
 11
409.35096657568153
 21
12.953490580777441
 31
0.0
  0
LINE
  5
1A2FB
  8
KI
  6
CONTINUOUS
 62
     7
 10
409.35096657568153
 20
-3.6465094192224869
 30
0.0
 11
418.35096657568153
 21
-3.6465094192224869
 31
0.0
  0
LINE
  5
1A2FC
  8
KI
  6
CONTINUOUS
 62
     7
 10
409.35096657568153
 20
-0.2465094192225123
 30
0.0
 11
418.35096657568153
 21
-0.2465094192225123
 31
0.0
  0
LINE
  5
1A2FD
  8
KI
  6
CONTINUOUS
 62
     7
 10
418.35096657568153
 20
-3.6465094192224869
 30
0.0
 11
418.35096657568153
 21
-0.2465094192225123
 31
0.0
  0
LINE
  5
1A2FE
  8
KI
  6
CONTINUOUS
 62
     7
 10
418.35096657568153
 20
12.953490580777419
 30
0.0
 11
409.35096657568153
 21
12.953490580777419
 31
0.0
  0
LINE
  5
1A2FF
  8
KI
  6
CONTINUOUS
 62
     7
 10
418.35096657568153
 20
16.35349058077751
 30
0.0
 11
409.35096657568153
 21
16.35349058077751
 31
0.0
  0
LINE
  5
1A300
  8
KI
  6
CONTINUOUS
 62
     7
 10
418.35096657568153
 20
12.953490580777419
 30
0.0
 11
418.35096657568153
 21
16.35349058077751
 31
0.0
  0
LINE
  5
1A301
  8
OS
  6
CONTINUOUS
 62
     2
 10
433.35096657568158
 20
127.0057769812874
 30
0.0
 11
428.50325297619167
 21
131.8534905807775
 31
0.0
  0
LINE
  5
1A302
  8
OS
  6
CONTINUOUS
 62
     2
 10
433.35096657568158
 20
117.10628204467569
 30
0.0
 11
418.60375803957987
 21
131.8534905807773
 31
0.0
  0
LINE
  5
1A303
  8
OS
  6
CONTINUOUS
 62
     2
 10
433.35096657568158
 20
107.20678710806411
 30
0.0
 11
410.277614839325
 21
130.28013884442041
 31
0.0
  0
LINE
  5
1A304
  8
OS
  6
CONTINUOUS
 62
     2
 10
433.35096657568158
 20
97.307292171452687
 30
0.0
 11
409.35096657568153
 21
121.3072921714525
 31
0.0
  0
LINE
  5
1A305
  8
OS
  6
CONTINUOUS
 62
     2
 10
433.35096657568158
 20
87.407797234840913
 30
0.0
 11
409.35096657568153
 21
111.4077972348407
 31
0.0
  0
LINE
  5
1A306
  8
OS
  6
CONTINUOUS
 62
     2
 10
433.35096657568158
 20
77.508302298229154
 30
0.0
 11
409.35096657568153
 21
101.508302298229
 31
0.0
  0
LINE
  5
1A307
  8
OS
  6
CONTINUOUS
 62
     2
 10
433.35096657568158
 20
67.60880736161765
 30
0.0
 11
409.35096657568153
 21
91.608807361617494
 31
0.0
  0
LINE
  5
1A308
  8
OS
  6
CONTINUOUS
 62
     2
 10
433.35096657568158
 20
57.709312425005912
 30
0.0
 11
409.35096657568153
 21
81.709312425005805
 31
0.0
  0
LINE
  5
1A309
  8
OS
  6
CONTINUOUS
 62
     2
 10
433.35096657568158
 20
47.809817488394152
 30
0.0
 11
409.35096657568153
 21
71.809817488394046
 31
0.0
  0
LINE
  5
1A30A
  8
OS
  6
CONTINUOUS
 62
     2
 10
433.35096657568158
 20
37.910322551782642
 30
0.0
 11
409.35096657568153
 21
61.910322551782528
 31
0.0
  0
LINE
  5
1A30B
  8
OS
  6
CONTINUOUS
 62
     2
 10
433.35096657568158
 20
28.010827615170879
 30
0.0
 11
409.35096657568153
 21
52.010827615170783
 31
0.0
  0
LINE
  5
1A30C
  8
OS
  6
CONTINUOUS
 62
     2
 10
433.35096657568141
 20
18.111332678559151
 30
0.0
 11
409.35096657568153
 21
42.11133267855903
 31
0.0
  0
LINE
  5
1A30D
  8
OS
  6
CONTINUOUS
 62
     2
 10
433.35096657568158
 20
8.2118377419476332
 30
0.0
 11
409.35096657568153
 21
32.211837741947519
 31
0.0
  0
LINE
  5
1A30E
  8
OS
  6
CONTINUOUS
 62
     2
 10
433.35096657568158
 20
-1.687657194664109
 30
0.0
 11
418.35096657568153
 21
13.312342805335661
 31
0.0
  0
LINE
  5
1A30F
  8
OS
  6
CONTINUOUS
 62
     2
 10
415.30981880023973
 20
16.35349058077751
 30
0.0
 11
409.35096657568153
 21
22.31234280533576
 31
0.0
  0
LINE
  5
1A310
  8
OS
  6
CONTINUOUS
 62
     2
 10
433.35096657568141
 20
-11.58715213127573
 30
0.0
 11
409.35096657568153
 21
12.412847868723951
 31
0.0
  0
LINE
  5
1A311
  8
OS
  6
CONTINUOUS
 62
     2
 10
433.35096657568158
 20
-21.48664706788735
 30
0.0
 11
415.51082892701669
 21
-3.646509419222479
 31
0.0
  0
LINE
  5
1A312
  8
OS
  6
CONTINUOUS
 62
     2
 10
433.3509665756817
 20
-31.386142004499121
 30
0.0
 11
409.35096657568153
 21
-7.3861420044992334
 31
0.0
  0
LINE
  5
1A313
  8
OS
  6
CONTINUOUS
 62
     2
 10
433.35096657568141
 20
-41.285636941110752
 30
0.0
 11
409.35096657568153
 21
-17.285636941110958
 31
0.0
  0
LINE
  5
1A314
  8
OS
  6
CONTINUOUS
 62
     2
 10
432.31234411718168
 20
-50.146509419222539
 30
0.0
 11
409.35096657568153
 21
-27.18513187772249
 31
0.0
  0
LINE
  5
1A315
  8
OS
  6
CONTINUOUS
 62
     2
 10
422.41284918056982
 20
-50.146509419222419
 30
0.0
 11
409.35096657568153
 21
-37.084626814334129
 31
0.0
  0
LINE
  5
1A316
  8
OS
  6
CONTINUOUS
 62
     2
 10
412.51335424395819
 20
-50.146509419222539
 30
0.0
 11
409.35096657568153
 21
-46.98412175094586
 31
0.0
  0
LINE
  5
1A317
  8
OS
  6
CONTINUOUS
 62
     2
 10
412.11082892701671
 20
-0.2465094192225052
 30
0.0
 11
409.35096657568153
 21
2.5133529321124182
 31
0.0
  0
LINE
  5
1A318
  8
KI
  6
CONTINUOUS
 62
     7
 10
397.9509685356818
 20
-4.046504119223977
 30
0.0
 11
397.9509685356818
 21
6.3534906007756469
 31
0.0
  0
LINE
  5
1A319
  8
KI
  6
CONTINUOUS
 62
     7
 10
396.3509731756817
 20
6.3534906007756451
 30
0.0
 11
396.3509731756817
 21
-4.6464961992226081
 31
0.0
  0
LINE
  5
1A31A
  8
KI
  6
CONTINUOUS
 62
     7
 10
407.60488269568191
 20
16.75348532077598
 30
0.0
 11
397.9509685356818
 21
16.75348532077598
 31
0.0
  0
LINE
  5
1A31B
  8
KI
  6
CONTINUOUS
 62
     7
 10
409.35096657568192
 20
18.353480680776869
 30
0.0
 11
397.3509764556818
 21
18.353480680776869
 31
0.0
  0
LINE
  5
1A31C
  8
KI
  6
CONTINUOUS
 62
     7
 10
397.9509685356818
 20
16.75348532077598
 30
0.0
 11
397.9509685356818
 21
6.3534906007756469
 31
0.0
  0
LINE
  5
1A31D
  8
KI
  6
CONTINUOUS
 62
     7
 10
396.3509731756817
 20
6.3534906007756451
 30
0.0
 11
396.3509731756817
 21
17.353477400777681
 31
0.0
  0
ARC
  5
1A31E
  8
KI
  6
CONTINUOUS
 62
     7
 10
397.3509764556818
 20
17.35347740077767
 30
0.0
 40
0.9999999999999218
 50
90.0
 51
180.0
  0
LINE
  5
1A31F
  8
KI
  6
CONTINUOUS
 62
     7
 10
417.3509682156818
 20
13.853490600775981
 30
0.0
 11
415.85096325568111
 21
13.35351368077723
 31
0.0
  0
LINE
  5
1A320
  8
KI
  6
CONTINUOUS
 62
     7
 10
417.3509682156818
 20
15.85349720077734
 30
0.0
 11
415.85096325568111
 21
16.35347408077617
 31
0.0
  0
LINE
  5
1A321
  8
KI
  6
CONTINUOUS
 62
     7
 10
411.3509731756817
 20
13.853490600775981
 30
0.0
 11
407.35115789568158
 21
13.853490600775981
 31
0.0
  0
LINE
  5
1A322
  8
KI
  6
CONTINUOUS
 62
     7
 10
411.3509731756817
 20
15.85349720077734
 30
0.0
 11
409.13225449568142
 21
15.85349720077734
 31
0.0
  0
LINE
  5
1A323
  8
KI
  6
CONTINUOUS
 62
     7
 10
409.13225449568142
 20
15.85349720077734
 30
0.0
 11
409.35096657568192
 21
18.353480680776869
 31
0.0
  0
LINE
  5
1A324
  8
KI
  6
CONTINUOUS
 62
     7
 10
407.35115789568158
 20
13.853490600775981
 30
0.0
 11
407.60488269568191
 21
16.75348532077598
 31
0.0
  0
LINE
  5
1A325
  8
KI
  6
CONTINUOUS
 62
     7
 10
414.35095829568201
 20
13.35351368077723
 30
0.0
 11
414.35095829568201
 21
13.853490600775981
 31
0.0
  0
LINE
  5
1A326
  8
KI
  6
CONTINUOUS
 62
     7
 10
412.85097809568191
 20
13.35351368077723
 30
0.0
 11
414.35095829568201
 21
13.853490600775981
 31
0.0
  0
LINE
  5
1A327
  8
KI
  6
CONTINUOUS
 62
     7
 10
414.35095829568201
 20
13.35351368077723
 30
0.0
 11
415.85096325568111
 21
13.853490600775981
 31
0.0
  0
LINE
  5
1A328
  8
KI
  6
CONTINUOUS
 62
     7
 10
415.85096325568111
 20
13.35351368077723
 30
0.0
 11
415.85096325568111
 21
13.853490600775981
 31
0.0
  0
LINE
  5
1A329
  8
KI
  6
CONTINUOUS
 62
     7
 10
412.85097809568191
 20
13.853490600775981
 30
0.0
 11
412.85097809568191
 21
13.35351368077723
 31
0.0
  0
LINE
  5
1A32A
  8
KI
  6
CONTINUOUS
 62
     7
 10
411.3509731756817
 20
13.35351368077724
 30
0.0
 11
411.3509731756817
 21
13.853490600775981
 31
0.0
  0
LINE
  5
1A32B
  8
KI
  6
CONTINUOUS
 62
     7
 10
412.85097809568191
 20
13.853490600775981
 30
0.0
 11
411.3509731756817
 21
13.35351368077724
 31
0.0
  0
LINE
  5
1A32C
  8
KI
  6
CONTINUOUS
 62
     7
 10
414.35095829568201
 20
16.35347408077617
 30
0.0
 11
414.35095829568201
 21
15.85349720077734
 31
0.0
  0
LINE
  5
1A32D
  8
KI
  6
CONTINUOUS
 62
     7
 10
412.85097809568191
 20
16.35347408077617
 30
0.0
 11
414.35095829568201
 21
15.85349720077734
 31
0.0
  0
LINE
  5
1A32E
  8
KI
  6
CONTINUOUS
 62
     7
 10
414.35095829568201
 20
16.35347408077617
 30
0.0
 11
415.85096325568111
 21
15.85349720077734
 31
0.0
  0
LINE
  5
1A32F
  8
KI
  6
CONTINUOUS
 62
     7
 10
415.85096325568111
 20
16.35347408077617
 30
0.0
 11
415.85096325568111
 21
15.85349720077734
 31
0.0
  0
LINE
  5
1A330
  8
KI
  6
CONTINUOUS
 62
     7
 10
412.85097809568191
 20
15.85349720077734
 30
0.0
 11
412.85097809568191
 21
16.35347408077617
 31
0.0
  0
LINE
  5
1A331
  8
KI
  6
CONTINUOUS
 62
     7
 10
411.3509731756817
 20
16.35347408077617
 30
0.0
 11
411.3509731756817
 21
15.85349720077734
 31
0.0
  0
LINE
  5
1A332
  8
KI
  6
CONTINUOUS
 62
     7
 10
412.85097809568191
 20
15.85349720077734
 30
0.0
 11
411.3509731756817
 21
16.35347408077617
 31
0.0
  0
LINE
  5
1A333
  8
KI
  6
CONTINUOUS
 62
     7
 10
417.3509682156818
 20
13.853490600775981
 30
0.0
 11
417.3509682156818
 21
15.85349720077734
 31
0.0
  0
LINE
  5
1A334
  8
KI
  6
CONTINUOUS
 62
     7
 10
407.60488269568191
 20
-4.046504119223977
 30
0.0
 11
397.9509685356818
 21
-4.046504119223977
 31
0.0
  0
LINE
  5
1A335
  8
KI
  6
CONTINUOUS
 62
     7
 10
409.35096657568192
 20
-5.646499519223763
 30
0.0
 11
397.3509764556818
 21
-5.646499519223763
 31
0.0
  0
ARC
  5
1A336
  8
KI
  6
CONTINUOUS
 62
     7
 10
407.01521889268997
 20
1.857501385683463
 30
0.0
 40
10.69122105122808
 50
224.57835668230149
 51
270.42869406124839
  0
ARC
  5
1A337
  8
KI
  6
CONTINUOUS
 62
     7
 10
407.13539090628979
 20
1.894569545130423
 30
0.0
 40
11.577295993930599
 50
220.64471820006369
 51
274.53565778094941
  0
ARC
  5
1A338
  8
KI
  6
CONTINUOUS
 62
     7
 10
397.3509764556818
 20
-4.6464961992226081
 30
0.0
 40
0.9999999999999431
 50
180.0
 51
270.0
  0
LINE
  5
1A339
  8
KI
  6
CONTINUOUS
 62
     7
 10
417.3509682156818
 20
-1.14650939922433
 30
0.0
 11
415.85096325568111
 21
-0.646532519223798
 31
0.0
  0
LINE
  5
1A33A
  8
KI
  6
CONTINUOUS
 62
     7
 10
417.3509682156818
 20
-3.1465159992239942
 30
0.0
 11
415.85096325568111
 21
-3.646492919222736
 31
0.0
  0
LINE
  5
1A33B
  8
KI
  6
CONTINUOUS
 62
     7
 10
407.35115789568158
 20
-1.146509399224328
 30
0.0
 11
407.60488269568191
 21
-4.046504119223977
 31
0.0
  0
LINE
  5
1A33C
  8
KI
  6
CONTINUOUS
 62
     7
 10
411.3509731756817
 20
-1.146509399224328
 30
0.0
 11
407.35115789568158
 21
-1.146509399224328
 31
0.0
  0
LINE
  5
1A33D
  8
KI
  6
CONTINUOUS
 62
     7
 10
414.35095829568201
 20
-0.646532519223798
 30
0.0
 11
414.35095829568201
 21
-1.146509399224328
 31
0.0
  0
LINE
  5
1A33E
  8
KI
  6
CONTINUOUS
 62
     7
 10
412.85097809568191
 20
-0.646532519223798
 30
0.0
 11
414.35095829568201
 21
-1.146509399224328
 31
0.0
  0
LINE
  5
1A33F
  8
KI
  6
CONTINUOUS
 62
     7
 10
414.35095829568201
 20
-0.646532519223798
 30
0.0
 11
415.85096325568111
 21
-1.146509399224328
 31
0.0
  0
LINE
  5
1A340
  8
KI
  6
CONTINUOUS
 62
     7
 10
415.85096325568111
 20
-0.646532519223798
 30
0.0
 11
415.85096325568111
 21
-1.146509399224328
 31
0.0
  0
LINE
  5
1A341
  8
KI
  6
CONTINUOUS
 62
     7
 10
412.85097809568191
 20
-1.146509399224328
 30
0.0
 11
412.85097809568191
 21
-0.646532519223798
 31
0.0
  0
LINE
  5
1A342
  8
KI
  6
CONTINUOUS
 62
     7
 10
411.3509731756817
 20
-0.6465325192237971
 30
0.0
 11
411.3509731756817
 21
-1.146509399224328
 31
0.0
  0
LINE
  5
1A343
  8
KI
  6
CONTINUOUS
 62
     7
 10
412.85097809568191
 20
-1.146509399224328
 30
0.0
 11
411.3509731756817
 21
-0.6465325192237971
 31
0.0
  0
LINE
  5
1A344
  8
KI
  6
CONTINUOUS
 62
     7
 10
411.3509731756817
 20
-3.1465159992239911
 30
0.0
 11
409.13225449568142
 21
-3.1465159992239911
 31
0.0
  0
LINE
  5
1A345
  8
KI
  6
CONTINUOUS
 62
     7
 10
406.5332703356807
 20
-5.646499519223763
 30
0.0
 11
407.09520617568171
 21
-8.8334254392236708
 31
0.0
  0
LINE
  5
1A346
  8
KI
  6
CONTINUOUS
 62
     7
 10
407.34561525568159
 20
-5.646499519223763
 30
0.0
 11
408.05091773568108
 21
-9.6464631992225751
 31
0.0
  0
LINE
  5
1A347
  8
KI
  6
CONTINUOUS
 62
     7
 10
409.13225449568142
 20
-3.1465159992239911
 30
0.0
 11
409.35096657568192
 21
-5.646499519223763
 31
0.0
  0
LINE
  5
1A348
  8
KI
  6
CONTINUOUS
 62
     7
 10
407.34561525568159
 20
-5.646499519223763
 30
0.0
 11
406.5332703356807
 21
-5.646499519223763
 31
0.0
  0
LINE
  5
1A349
  8
KI
  6
CONTINUOUS
 62
     7
 10
414.35095829568201
 20
-3.646492919222736
 30
0.0
 11
414.35095829568201
 21
-3.1465159992239942
 31
0.0
  0
LINE
  5
1A34A
  8
KI
  6
CONTINUOUS
 62
     7
 10
412.85097809568191
 20
-3.646492919222736
 30
0.0
 11
414.35095829568201
 21
-3.1465159992239942
 31
0.0
  0
LINE
  5
1A34B
  8
KI
  6
CONTINUOUS
 62
     7
 10
414.35095829568201
 20
-3.646492919222736
 30
0.0
 11
415.85096325568111
 21
-3.1465159992239911
 31
0.0
  0
LINE
  5
1A34C
  8
KI
  6
CONTINUOUS
 62
     7
 10
415.85096325568111
 20
-3.646492919222736
 30
0.0
 11
415.85096325568111
 21
-3.1465159992239911
 31
0.0
  0
LINE
  5
1A34D
  8
KI
  6
CONTINUOUS
 62
     7
 10
412.85097809568191
 20
-3.1465159992239911
 30
0.0
 11
412.85097809568191
 21
-3.646492919222736
 31
0.0
  0
LINE
  5
1A34E
  8
KI
  6
CONTINUOUS
 62
     7
 10
411.3509731756817
 20
-3.646492919222736
 30
0.0
 11
411.3509731756817
 21
-3.1465159992239911
 31
0.0
  0
LINE
  5
1A34F
  8
KI
  6
CONTINUOUS
 62
     7
 10
412.85097809568191
 20
-3.1465159992239911
 30
0.0
 11
411.3509731756817
 21
-3.646492919222736
 31
0.0
  0
LINE
  5
1A350
  8
KI
  6
CONTINUOUS
 62
     7
 10
417.3509682156818
 20
-1.14650939922433
 30
0.0
 11
417.3509682156818
 21
-3.1465159992239942
 31
0.0
  0
LINE
  5
1A351
  8
KI
  6
CONTINUOUS
 62
     7
 10
7.35096657568414
 20
16.353490580778871
 30
0.0
 11
7.35096657568414
 21
129.35349058077861
 31
0.0
  0
LINE
  5
1A352
  8
KI
  6
CONTINUOUS
 62
     7
 10
7.35096657568414
 20
-47.646509419221047
 30
0.0
 11
7.35096657568414
 21
-3.6465094192211231
 31
0.0
  0
LINE
  5
1A353
  8
KI
  6
CONTINUOUS
 62
     7
 10
4.85096657568414
 20
131.8534905807789
 30
0.0
 11
-16.649033424315849
 21
131.8534905807789
 31
0.0
  0
LINE
  5
1A354
  8
KI
  6
CONTINUOUS
 62
     7
 10
4.85096657568414
 20
131.8534905807789
 30
0.0
 11
7.35096657568414
 21
129.35349058077861
 31
0.0
1001
GENIUS_GENFIL_13
1070
     0
1040
2.5
1040
2.5
1040
20.0
1040
0.0
1002
{
1002
}
1001
GENIUS_GENOBJ-N-CHA_13
1002
{
1000
OWNER
1000
GEN
1002
}
1001
GENIUS_GENODEF_13
1002
{
1000
HIER
1070
     0
1002
}
1002
{
1000
MANEDIT
1070
     0
1002
}
1002
{
1000
NOSEL
1070
     0
1002
}
1002
{
1000
BEHIND
1070
     0
1002
}
1002
{
1000
OTHER
1070
     0
1002
}
1002
{
1000
REACTOR
1002
}
  0
LINE
  5
1A355
  8
KI
  6
CONTINUOUS
 62
     7
 10
-16.649033424315849
 20
131.85349058078
 30
0.0
 11
-16.649033424315849
 21
-50.146509419221047
 31
0.0
  0
LINE
  5
1A356
  8
KI
  6
CONTINUOUS
 62
     7
 10
-16.649033424315849
 20
-50.146509419221047
 30
0.0
 11
4.85096657568414
 21
-50.146509419221047
 31
0.0
  0
LINE
  5
1A357
  8
KI
  6
CONTINUOUS
 62
     7
 10
4.85096657568414
 20
-50.146509419221047
 30
0.0
 11
7.35096657568414
 21
-47.646509419221047
 31
0.0
1001
GENIUS_GENFIL_13
1070
     0
1040
2.5
1040
2.5
1040
20.0
1040
0.0
1002
{
1002
}
1001
GENIUS_GENOBJ-N-CHA_13
1002
{
1000
OWNER
1000
GEN
1002
}
1001
GENIUS_GENODEF_13
1002
{
1000
HIER
1070
     0
1002
}
1002
{
1000
MANEDIT
1070
     0
1002
}
1002
{
1000
NOSEL
1070
     0
1002
}
1002
{
1000
BEHIND
1070
     0
1002
}
1002
{
1000
OTHER
1070
     0
1002
}
1002
{
1000
REACTOR
1002
}
  0
LINE
  5
1A358
  8
KI
  6
CONTINUOUS
 62
     7
 10
7.3509665756841658
 20
-0.2465094192211765
 30
0.0
 11
7.3509665756841658
 21
12.95349058077881
 31
0.0
  0
LINE
  5
1A359
  8
KI
  6
CONTINUOUS
 62
     7
 10
7.3509665756841658
 20
-3.6465094192211231
 30
0.0
 11
-1.6490334243158311
 21
-3.6465094192211231
 31
0.0
  0
LINE
  5
1A35A
  8
KI
  6
CONTINUOUS
 62
     7
 10
7.3509665756841658
 20
-0.2465094192211481
 30
0.0
 11
-1.6490334243158311
 21
-0.2465094192211481
 31
0.0
  0
LINE
  5
1A35B
  8
KI
  6
CONTINUOUS
 62
     7
 10
-1.6490334243158311
 20
-3.6465094192211231
 30
0.0
 11
-1.6490334243158311
 21
-0.2465094192211481
 31
0.0
  0
LINE
  5
1A35C
  8
KI
  6
CONTINUOUS
 62
     7
 10
-1.6490334243158311
 20
12.95349058077878
 30
0.0
 11
7.3509665756841658
 21
12.95349058077878
 31
0.0
  0
LINE
  5
1A35D
  8
KI
  6
CONTINUOUS
 62
     7
 10
-1.6490334243158311
 20
16.353490580778871
 30
0.0
 11
7.3509665756841658
 21
16.353490580778871
 31
0.0
  0
LINE
  5
1A35E
  8
KI
  6
CONTINUOUS
 62
     7
 10
-1.6490334243158311
 20
12.95349058077878
 30
0.0
 11
-1.6490334243158311
 21
16.353490580778871
 31
0.0
  0
LINE
  5
1A35F
  8
OS
  6
CONTINUOUS
 62
     2
 10
-16.649033424315618
 20
127.005776981289
 30
0.0
 11
-11.80131982482572
 21
131.8534905807789
 31
0.0
  0
LINE
  5
1A360
  8
OS
  6
CONTINUOUS
 62
     2
 10
-16.649033424315618
 20
117.1062820446772
 30
0.0
 11
-1.90182488821409
 21
131.8534905807787
 31
0.0
  0
LINE
  5
1A361
  8
OS
  6
CONTINUOUS
 62
     2
 10
-16.649033424315618
 20
107.2067871080654
 30
0.0
 11
6.4243183120409491
 21
130.28013884442211
 31
0.0
  0
LINE
  5
1A362
  8
OS
  6
CONTINUOUS
 62
     2
 10
-16.649033424315618
 20
97.307292171454023
 30
0.0
 11
7.3509665756842519
 21
121.3072921714537
 31
0.0
  0
LINE
  5
1A363
  8
OS
  6
CONTINUOUS
 62
     2
 10
-16.649033424315618
 20
87.407797234842263
 30
0.0
 11
7.3509665756842519
 21
111.40779723484211
 31
0.0
  0
LINE
  5
1A364
  8
OS
  6
CONTINUOUS
 62
     2
 10
-16.649033424315618
 20
77.508302298230532
 30
0.0
 11
7.3509665756842519
 21
101.5083022982304
 31
0.0
  0
LINE
  5
1A365
  8
OS
  6
CONTINUOUS
 62
     2
 10
-16.649033424315618
 20
67.608807361619
 30
0.0
 11
7.3509665756842519
 21
91.608807361618915
 31
0.0
  0
LINE
  5
1A366
  8
OS
  6
CONTINUOUS
 62
     2
 10
-16.649033424315618
 20
57.709312425007269
 30
0.0
 11
7.3509665756842519
 21
81.709312425007155
 31
0.0
  0
LINE
  5
1A367
  8
OS
  6
CONTINUOUS
 62
     2
 10
-16.649033424315618
 20
47.809817488395502
 30
0.0
 11
7.3509665756842519
 21
71.80981748839541
 31
0.0
  0
LINE
  5
1A368
  8
OS
  6
CONTINUOUS
 62
     2
 10
-16.649033424315618
 20
37.910322551783999
 30
0.0
 11
7.3509665756842519
 21
61.910322551783878
 31
0.0
  0
LINE
  5
1A369
  8
OS
  6
CONTINUOUS
 62
     2
 10
-16.649033424315618
 20
28.010827615172261
 30
0.0
 11
7.3509665756842519
 21
52.010827615172147
 31
0.0
  0
LINE
  5
1A36A
  8
OS
  6
CONTINUOUS
 62
     2
 10
-16.649033424315519
 20
18.111332678560512
 30
0.0
 11
7.3509665756842519
 21
42.111332678560402
 31
0.0
  0
LINE
  5
1A36B
  8
OS
  6
CONTINUOUS
 62
     2
 10
-16.649033424315618
 20
8.2118377419489974
 30
0.0
 11
7.3509665756842519
 21
32.211837741948877
 31
0.0
  0
LINE
  5
1A36C
  8
OS
  6
CONTINUOUS
 62
     2
 10
-16.649033424315618
 20
-1.6876571946627461
 30
0.0
 11
-1.6490334243158311
 21
13.312342805337019
 31
0.0
  0
LINE
  5
1A36D
  8
OS
  6
CONTINUOUS
 62
     2
 10
1.3921143511260961
 20
16.353490580778882
 30
0.0
 11
7.3509665756842519
 21
22.31234280533711
 31
0.0
  0
LINE
  5
1A36E
  8
OS
  6
CONTINUOUS
 62
     2
 10
-16.649033424315519
 20
-11.587152131274379
 30
0.0
 11
7.3509665756841658
 21
12.412847868725301
 31
0.0
  0
LINE
  5
1A36F
  8
OS
  6
CONTINUOUS
 62
     2
 10
-16.649033424315618
 20
-21.486647067886
 30
0.0
 11
1.191104224349274
 21
-3.646509419221116
 31
0.0
  0
LINE
  5
1A370
  8
OS
  6
CONTINUOUS
 62
     2
 10
-16.649033424315739
 20
-31.386142004497749
 30
0.0
 11
7.35096657568414
 21
-7.3861420044978701
 31
0.0
  0
LINE
  5
1A371
  8
OS
  6
CONTINUOUS
 62
     2
 10
-16.649033424315519
 20
-41.28563694110936
 30
0.0
 11
7.3509665756843638
 21
-17.285636941109608
 31
0.0
  0
LINE
  5
1A372
  8
OS
  6
CONTINUOUS
 62
     2
 10
-15.610410965815779
 20
-50.146509419221168
 30
0.0
 11
7.3509665756842519
 21
-27.18513187772113
 31
0.0
  0
LINE
  5
1A373
  8
OS
  6
CONTINUOUS
 62
     2
 10
-5.710916029204153
 20
-50.146509419221061
 30
0.0
 11
7.35096657568414
 21
-37.084626814332751
 31
0.0
  0
LINE
  5
1A374
  8
OS
  6
CONTINUOUS
 62
     2
 10
4.1885789074076989
 20
-50.146509419221168
 30
0.0
 11
7.3509665756843638
 21
-46.98412175094451
 31
0.0
  0
LINE
  5
1A375
  8
OS
  6
CONTINUOUS
 62
     2
 10
4.591104224349249
 20
-0.246509419221141
 30
0.0
 11
7.3509665756841658
 21
2.5133529321137802
 31
0.0
  0
LINE
  5
1A376
  8
KI
  6
CONTINUOUS
 62
     7
 10
18.750964615684151
 20
-4.0465041192226172
 30
0.0
 11
18.750964615684151
 21
6.3534906007770111
 31
0.0
  0
LINE
  5
1A377
  8
KI
  6
CONTINUOUS
 62
     7
 10
20.350959975684191
 20
6.353490600777004
 30
0.0
 11
20.350959975684191
 21
-4.6464961992212492
 31
0.0
  0
LINE
  5
1A378
  8
KI
  6
CONTINUOUS
 62
     7
 10
9.0970504556840464
 20
16.75348532077734
 30
0.0
 11
18.750964615684161
 21
16.75348532077733
 31
0.0
  0
LINE
  5
1A379
  8
KI
  6
CONTINUOUS
 62
     7
 10
7.3509665756840308
 20
18.35348068077823
 30
0.0
 11
19.35095669568415
 21
18.353480680778191
 31
0.0
  0
LINE
  5
1A37A
  8
KI
  6
CONTINUOUS
 62
     7
 10
18.750964615684161
 20
16.75348532077733
 30
0.0
 11
18.750964615684151
 21
6.3534906007770111
 31
0.0
  0
LINE
  5
1A37B
  8
KI
  6
CONTINUOUS
 62
     7
 10
20.350959975684191
 20
6.353490600777004
 30
0.0
 11
20.350959975684191
 21
17.353477400779042
 31
0.0
  0
ARC
  5
1A37C
  8
KI
  6
CONTINUOUS
 62
     7
 10
19.35095669568415
 20
17.353477400779031
 30
0.0
 40
0.9999999999999218
 50
0.0
 51
90.0
  0
LINE
  5
1A37D
  8
KI
  6
CONTINUOUS
 62
     7
 10
-0.6490350643159069
 20
13.85349060077734
 30
0.0
 11
0.8509698956846181
 21
13.35351368077859
 31
0.0
  0
LINE
  5
1A37E
  8
KI
  6
CONTINUOUS
 62
     7
 10
-0.6490350643159051
 20
15.853497200778721
 30
0.0
 11
0.8509698956846181
 21
16.353474080777541
 31
0.0
  0
LINE
  5
1A37F
  8
KI
  6
CONTINUOUS
 62
     7
 10
5.3509599756841952
 20
13.85349060077734
 30
0.0
 11
9.3507752556841996
 21
13.85349060077734
 31
0.0
  0
LINE
  5
1A380
  8
KI
  6
CONTINUOUS
 62
     7
 10
5.3509599756841961
 20
15.85349720077871
 30
0.0
 11
7.5696786556844691
 21
15.85349720077871
 31
0.0
  0
LINE
  5
1A381
  8
KI
  6
CONTINUOUS
 62
     7
 10
7.5696786556844691
 20
15.85349720077871
 30
0.0
 11
7.3509665756840308
 21
18.35348068077823
 31
0.0
  0
LINE
  5
1A382
  8
KI
  6
CONTINUOUS
 62
     7
 10
9.3507752556841996
 20
13.85349060077734
 30
0.0
 11
9.0970504556840464
 21
16.75348532077734
 31
0.0
  0
LINE
  5
1A383
  8
KI
  6
CONTINUOUS
 62
     7
 10
2.3509748556838912
 20
13.35351368077859
 30
0.0
 11
2.3509748556838912
 21
13.85349060077734
 31
0.0
  0
LINE
  5
1A384
  8
KI
  6
CONTINUOUS
 62
     7
 10
3.8509550556839871
 20
13.35351368077859
 30
0.0
 11
2.3509748556838912
 21
13.85349060077734
 31
0.0
  0
LINE
  5
1A385
  8
KI
  6
CONTINUOUS
 62
     7
 10
2.3509748556838912
 20
13.35351368077859
 30
0.0
 11
0.8509698956846181
 21
13.85349060077734
 31
0.0
  0
LINE
  5
1A386
  8
KI
  6
CONTINUOUS
 62
     7
 10
0.8509698956846181
 20
13.35351368077859
 30
0.0
 11
0.8509698956846181
 21
13.85349060077734
 31
0.0
  0
LINE
  5
1A387
  8
KI
  6
CONTINUOUS
 62
     7
 10
3.8509550556839871
 20
13.85349060077734
 30
0.0
 11
3.8509550556839871
 21
13.35351368077859
 31
0.0
  0
LINE
  5
1A388
  8
KI
  6
CONTINUOUS
 62
     7
 10
5.3509599756841952
 20
13.35351368077859
 30
0.0
 11
5.3509599756841952
 21
13.85349060077734
 31
0.0
  0
LINE
  5
1A389
  8
KI
  6
CONTINUOUS
 62
     7
 10
3.8509550556839871
 20
13.85349060077734
 30
0.0
 11
5.3509599756841952
 21
13.35351368077859
 31
0.0
  0
LINE
  5
1A38A
  8
KI
  6
CONTINUOUS
 62
     7
 10
2.3509748556838912
 20
16.353474080777541
 30
0.0
 11
2.3509748556838912
 21
15.85349720077871
 31
0.0
  0
LINE
  5
1A38B
  8
KI
  6
CONTINUOUS
 62
     7
 10
3.8509550556839871
 20
16.353474080777541
 30
0.0
 11
2.3509748556838912
 21
15.85349720077871
 31
0.0
  0
LINE
  5
1A38C
  8
KI
  6
CONTINUOUS
 62
     7
 10
2.3509748556838912
 20
16.353474080777541
 30
0.0
 11
0.8509698956846181
 21
15.85349720077871
 31
0.0
  0
LINE
  5
1A38D
  8
KI
  6
CONTINUOUS
 62
     7
 10
0.8509698956846181
 20
16.353474080777541
 30
0.0
 11
0.8509698956846181
 21
15.85349720077871
 31
0.0
  0
LINE
  5
1A38E
  8
KI
  6
CONTINUOUS
 62
     7
 10
3.8509550556839871
 20
15.85349720077871
 30
0.0
 11
3.8509550556839871
 21
16.353474080777541
 31
0.0
  0
LINE
  5
1A38F
  8
KI
  6
CONTINUOUS
 62
     7
 10
5.3509599756841961
 20
16.353474080777541
 30
0.0
 11
5.3509599756841961
 21
15.85349720077871
 31
0.0
  0
LINE
  5
1A390
  8
KI
  6
CONTINUOUS
 62
     7
 10
3.8509550556839871
 20
15.85349720077871
 30
0.0
 11
5.3509599756841961
 21
16.353474080777541
 31
0.0
  0
LINE
  5
1A391
  8
KI
  6
CONTINUOUS
 62
     7
 10
-0.6490350643159069
 20
13.85349060077734
 30
0.0
 11
-0.6490350643159051
 21
15.853497200778721
 31
0.0
  0
LINE
  5
1A392
  8
KI
  6
CONTINUOUS
 62
     7
 10
9.0970504556840392
 20
-4.0465041192226163
 30
0.0
 11
18.750964615684151
 21
-4.0465041192226172
 31
0.0
  0
LINE
  5
1A393
  8
KI
  6
CONTINUOUS
 62
     7
 10
7.3509665756840219
 20
-5.6464995192223988
 30
0.0
 11
19.350956695684118
 21
-5.6464995192224032
 31
0.0
  0
ARC
  5
1A394
  8
KI
  6
CONTINUOUS
 62
     7
 10
9.6867142586760355
 20
1.857501385684823
 30
0.0
 40
10.69122105122808
 50
269.57130593875138
 51
315.42164331769908
  0
ARC
  5
1A395
  8
KI
  6
CONTINUOUS
 62
     7
 10
9.5665422450757696
 20
1.8945695451317861
 30
0.0
 40
11.577295993930599
 50
265.46434221905042
 51
319.35528179993622
  0
ARC
  5
1A396
  8
KI
  6
CONTINUOUS
 62
     7
 10
19.350956695684118
 20
-4.6464961992212492
 30
0.0
 40
0.9999999999999431
 50
270.0
 51
0.0
  0
LINE
  5
1A397
  8
KI
  6
CONTINUOUS
 62
     7
 10
-0.6490350643159089
 20
-1.146509399222962
 30
0.0
 11
0.8509698956846143
 21
-0.6465325192224311
 31
0.0
  0
LINE
  5
1A398
  8
KI
  6
CONTINUOUS
 62
     7
 10
-0.6490350643159104
 20
-3.146515999222625
 30
0.0
 11
0.8509698956846143
 21
-3.6464929192213682
 31
0.0
  0
LINE
  5
1A399
  8
KI
  6
CONTINUOUS
 62
     7
 10
9.3507752556841943
 20
-1.146509399222964
 30
0.0
 11
9.0970504556840392
 21
-4.0465041192226163
 31
0.0
  0
LINE
  5
1A39A
  8
KI
  6
CONTINUOUS
 62
     7
 10
5.350959975684189
 20
-1.146509399222962
 30
0.0
 11
9.3507752556841943
 21
-1.146509399222964
 31
0.0
  0
LINE
  5
1A39B
  8
KI
  6
CONTINUOUS
 62
     7
 10
2.3509748556838881
 20
-0.646532519222432
 30
0.0
 11
2.3509748556838881
 21
-1.146509399222962
 31
0.0
  0
LINE
  5
1A39C
  8
KI
  6
CONTINUOUS
 62
     7
 10
3.8509550556839831
 20
-0.646532519222432
 30
0.0
 11
2.3509748556838881
 21
-1.146509399222962
 31
0.0
  0
LINE
  5
1A39D
  8
KI
  6
CONTINUOUS
 62
     7
 10
2.3509748556838881
 20
-0.646532519222432
 30
0.0
 11
0.8509698956846143
 21
-1.146509399222962
 31
0.0
  0
LINE
  5
1A39E
  8
KI
  6
CONTINUOUS
 62
     7
 10
0.8509698956846143
 20
-0.6465325192224311
 30
0.0
 11
0.8509698956846143
 21
-1.146509399222962
 31
0.0
  0
LINE
  5
1A39F
  8
KI
  6
CONTINUOUS
 62
     7
 10
3.8509550556839831
 20
-1.146509399222962
 30
0.0
 11
3.8509550556839831
 21
-0.646532519222432
 31
0.0
  0
LINE
  5
1A3A0
  8
KI
  6
CONTINUOUS
 62
     7
 10
5.350959975684189
 20
-0.646532519222432
 30
0.0
 11
5.350959975684189
 21
-1.146509399222962
 31
0.0
  0
LINE
  5
1A3A1
  8
KI
  6
CONTINUOUS
 62
     7
 10
3.8509550556839831
 20
-1.146509399222962
 30
0.0
 11
5.350959975684189
 21
-0.646532519222432
 31
0.0
  0
LINE
  5
1A3A2
  8
KI
  6
CONTINUOUS
 62
     7
 10
5.350959975684189
 20
-3.1465159992226281
 30
0.0
 11
7.5696786556844691
 21
-3.146515999222629
 31
0.0
  0
LINE
  5
1A3A3
  8
KI
  6
CONTINUOUS
 62
     7
 10
10.16866281568524
 20
-5.646499519222397
 30
0.0
 11
9.6067269756841824
 21
-8.8334254392223048
 31
0.0
  0
LINE
  5
1A3A4
  8
KI
  6
CONTINUOUS
 62
     7
 10
9.3563178956843558
 20
-5.6464995192223979
 30
0.0
 11
8.6510154156848671
 21
-9.6464631992212144
 31
0.0
  0
LINE
  5
1A3A5
  8
KI
  6
CONTINUOUS
 62
     7
 10
7.5696786556844691
 20
-3.146515999222629
 30
0.0
 11
7.3509665756840219
 21
-5.6464995192223988
 31
0.0
  0
LINE
  5
1A3A6
  8
KI
  6
CONTINUOUS
 62
     7
 10
9.3563178956843558
 20
-5.6464995192223979
 30
0.0
 11
10.16866281568524
 21
-5.646499519222397
 31
0.0
  0
LINE
  5
1A3A7
  8
KI
  6
CONTINUOUS
 62
     7
 10
2.3509748556838881
 20
-3.6464929192213722
 30
0.0
 11
2.3509748556838881
 21
-3.1465159992226281
 31
0.0
  0
LINE
  5
1A3A8
  8
KI
  6
CONTINUOUS
 62
     7
 10
3.8509550556839831
 20
-3.64649291922137
 30
0.0
 11
2.3509748556838881
 21
-3.1465159992226281
 31
0.0
  0
LINE
  5
1A3A9
  8
KI
  6
CONTINUOUS
 62
     7
 10
2.3509748556838881
 20
-3.6464929192213722
 30
0.0
 11
0.8509698956846143
 21
-3.146515999222625
 31
0.0
  0
LINE
  5
1A3AA
  8
KI
  6
CONTINUOUS
 62
     7
 10
0.8509698956846143
 20
-3.6464929192213682
 30
0.0
 11
0.8509698956846143
 21
-3.146515999222625
 31
0.0
  0
LINE
  5
1A3AB
  8
KI
  6
CONTINUOUS
 62
     7
 10
3.8509550556839831
 20
-3.146515999222625
 30
0.0
 11
3.8509550556839831
 21
-3.64649291922137
 31
0.0
  0
LINE
  5
1A3AC
  8
KI
  6
CONTINUOUS
 62
     7
 10
5.350959975684189
 20
-3.6464929192213722
 30
0.0
 11
5.350959975684189
 21
-3.1465159992226281
 31
0.0
  0
LINE
  5
1A3AD
  8
KI
  6
CONTINUOUS
 62
     7
 10
3.8509550556839831
 20
-3.146515999222625
 30
0.0
 11
5.350959975684189
 21
-3.6464929192213722
 31
0.0
  0
LINE
  5
1A3AE
  8
KI
  6
CONTINUOUS
 62
     7
 10
-0.6490350643159089
 20
-1.146509399222962
 30
0.0
 11
-0.6490350643159104
 21
-3.146515999222625
 31
0.0
  0
LINE
  5
1A3AF
  8
KI
  6
CONTINUOUS
 62
     7
 10
-227.54056801040551
 20
136.2608643304402
 30
0.0
 11
-237.94056273040519
 21
136.2608643304402
 31
0.0
  0
LINE
  5
1A3B0
  8
KI
  6
CONTINUOUS
 62
     7
 10
-237.94056273040519
 20
134.66086897044011
 30
0.0
 11
-226.94057593040671
 21
134.66086897044011
 31
0.0
  0
LINE
  5
1A3B1
  8
KI
  6
CONTINUOUS
 62
     7
 10
-248.3405574504053
 20
145.91477849044031
 30
0.0
 11
-248.3405574504053
 21
136.2608643304402
 31
0.0
  0
LINE
  5
1A3B2
  8
KI
  6
CONTINUOUS
 62
     7
 10
-249.9405528104065
 20
147.66086237043999
 30
0.0
 11
-249.9405528104065
 21
135.66087225044021
 31
0.0
  0
LINE
  5
1A3B3
  8
KI
  6
CONTINUOUS
 62
     7
 10
-248.3405574504053
 20
136.2608643304402
 30
0.0
 11
-237.94056273040519
 21
136.2608643304402
 31
0.0
  0
LINE
  5
1A3B4
  8
KI
  6
CONTINUOUS
 62
     7
 10
-237.94056273040519
 20
134.66086897044011
 30
0.0
 11
-248.94054953040711
 21
134.66086897044011
 31
0.0
  0
ARC
  5
1A3B5
  8
KI
  6
CONTINUOUS
 62
     7
 10
-248.94054953040711
 20
135.66087225044021
 30
0.0
 40
0.9999999999999218
 50
180.0
 51
270.0
  0
LINE
  5
1A3B6
  8
KI
  6
CONTINUOUS
 62
     7
 10
-245.4405627304053
 20
155.66086401044021
 30
0.0
 11
-244.9405858104069
 21
154.16085905043971
 31
0.0
  0
LINE
  5
1A3B7
  8
KI
  6
CONTINUOUS
 62
     7
 10
-247.4405693304069
 20
155.66086401044021
 30
0.0
 11
-247.9405462104057
 21
154.16085905043971
 31
0.0
  0
LINE
  5
1A3B8
  8
KI
  6
CONTINUOUS
 62
     7
 10
-245.4405627304053
 20
149.66086897044019
 30
0.0
 11
-245.4405627304053
 21
145.6610536904401
 31
0.0
  0
LINE
  5
1A3B9
  8
KI
  6
CONTINUOUS
 62
     7
 10
-247.4405693304069
 20
149.66086897044019
 30
0.0
 11
-247.4405693304069
 21
147.44215029043991
 31
0.0
  0
LINE
  5
1A3BA
  8
KI
  6
CONTINUOUS
 62
     7
 10
-247.4405693304069
 20
147.44215029043991
 30
0.0
 11
-249.9405528104065
 21
147.66086237043999
 31
0.0
  0
LINE
  5
1A3BB
  8
KI
  6
CONTINUOUS
 62
     7
 10
-245.4405627304053
 20
145.6610536904401
 30
0.0
 11
-248.3405574504053
 21
145.91477849044031
 31
0.0
  0
LINE
  5
1A3BC
  8
KI
  6
CONTINUOUS
 62
     7
 10
-244.9405858104069
 20
152.66085409044041
 30
0.0
 11
-245.4405627304053
 21
152.66085409044041
 31
0.0
  0
LINE
  5
1A3BD
  8
KI
  6
CONTINUOUS
 62
     7
 10
-244.9405858104069
 20
151.16087389044031
 30
0.0
 11
-245.4405627304053
 21
152.66085409044041
 31
0.0
  0
LINE
  5
1A3BE
  8
KI
  6
CONTINUOUS
 62
     7
 10
-244.9405858104069
 20
152.66085409044041
 30
0.0
 11
-245.4405627304053
 21
154.16085905043971
 31
0.0
  0
LINE
  5
1A3BF
  8
KI
  6
CONTINUOUS
 62
     7
 10
-244.9405858104069
 20
154.16085905043971
 30
0.0
 11
-245.4405627304053
 21
154.16085905043971
 31
0.0
  0
LINE
  5
1A3C0
  8
KI
  6
CONTINUOUS
 62
     7
 10
-245.4405627304053
 20
151.16087389044031
 30
0.0
 11
-244.9405858104069
 21
151.16087389044031
 31
0.0
  0
LINE
  5
1A3C1
  8
KI
  6
CONTINUOUS
 62
     7
 10
-244.9405858104069
 20
149.66086897044019
 30
0.0
 11
-245.4405627304053
 21
149.66086897044019
 31
0.0
  0
LINE
  5
1A3C2
  8
KI
  6
CONTINUOUS
 62
     7
 10
-245.4405627304053
 20
151.16087389044031
 30
0.0
 11
-244.9405858104069
 21
149.66086897044019
 31
0.0
  0
LINE
  5
1A3C3
  8
KI
  6
CONTINUOUS
 62
     7
 10
-247.9405462104057
 20
152.66085409044041
 30
0.0
 11
-247.4405693304069
 21
152.66085409044041
 31
0.0
  0
LINE
  5
1A3C4
  8
KI
  6
CONTINUOUS
 62
     7
 10
-247.9405462104057
 20
151.16087389044031
 30
0.0
 11
-247.4405693304069
 21
152.66085409044041
 31
0.0
  0
LINE
  5
1A3C5
  8
KI
  6
CONTINUOUS
 62
     7
 10
-247.9405462104057
 20
152.66085409044041
 30
0.0
 11
-247.4405693304069
 21
154.16085905043971
 31
0.0
  0
LINE
  5
1A3C6
  8
KI
  6
CONTINUOUS
 62
     7
 10
-247.9405462104057
 20
154.16085905043971
 30
0.0
 11
-247.4405693304069
 21
154.16085905043971
 31
0.0
  0
LINE
  5
1A3C7
  8
KI
  6
CONTINUOUS
 62
     7
 10
-247.4405693304069
 20
151.16087389044031
 30
0.0
 11
-247.9405462104057
 21
151.16087389044031
 31
0.0
  0
LINE
  5
1A3C8
  8
KI
  6
CONTINUOUS
 62
     7
 10
-247.9405462104057
 20
149.66086897044019
 30
0.0
 11
-247.4405693304069
 21
149.66086897044019
 31
0.0
  0
LINE
  5
1A3C9
  8
KI
  6
CONTINUOUS
 62
     7
 10
-247.4405693304069
 20
151.16087389044031
 30
0.0
 11
-247.9405462104057
 21
149.66086897044019
 31
0.0
  0
LINE
  5
1A3CA
  8
KI
  6
CONTINUOUS
 62
     7
 10
-245.4405627304053
 20
155.66086401044021
 30
0.0
 11
-247.4405693304069
 21
155.66086401044021
 31
0.0
  0
LINE
  5
1A3CB
  8
KI
  6
CONTINUOUS
 62
     7
 10
-227.54056801040551
 20
145.91477849044031
 30
0.0
 11
-227.54056801040551
 21
136.2608643304402
 31
0.0
  0
LINE
  5
1A3CC
  8
KI
  6
CONTINUOUS
 62
     7
 10
-225.94057261040589
 20
147.66086237043999
 30
0.0
 11
-225.94057261040589
 21
135.66087225044021
 31
0.0
  0
ARC
  5
1A3CD
  8
KI
  6
CONTINUOUS
 62
     7
 10
-233.4445735153131
 20
145.32511468744821
 30
0.0
 40
10.69122105122808
 50
314.57835668230018
 51
0.4286940612485687
  0
ARC
  5
1A3CE
  8
KI
  6
CONTINUOUS
 62
     7
 10
-233.48164167476
 20
145.44528670104859
 30
0.0
 40
11.577295993930599
 50
310.64471820006332
 51
4.5356577809493803
  0
ARC
  5
1A3CF
  8
KI
  6
CONTINUOUS
 62
     7
 10
-226.94057593040671
 20
135.66087225044021
 30
0.0
 40
0.9999999999999431
 50
270.0
 51
0.0
  0
LINE
  5
1A3D0
  8
KI
  6
CONTINUOUS
 62
     7
 10
-230.4405627304053
 20
155.66086401044021
 30
0.0
 11
-230.94053961040569
 21
154.16085905043971
 31
0.0
  0
LINE
  5
1A3D1
  8
KI
  6
CONTINUOUS
 62
     7
 10
-228.4405561304053
 20
155.66086401044021
 30
0.0
 11
-227.9405792104069
 21
154.16085905043971
 31
0.0
  0
LINE
  5
1A3D2
  8
KI
  6
CONTINUOUS
 62
     7
 10
-230.4405627304053
 20
145.6610536904401
 30
0.0
 11
-227.54056801040551
 21
145.91477849044031
 31
0.0
  0
LINE
  5
1A3D3
  8
KI
  6
CONTINUOUS
 62
     7
 10
-230.4405627304053
 20
149.66086897044019
 30
0.0
 11
-230.4405627304053
 21
145.6610536904401
 31
0.0
  0
LINE
  5
1A3D4
  8
KI
  6
CONTINUOUS
 62
     7
 10
-230.94053961040569
 20
152.66085409044041
 30
0.0
 11
-230.4405627304053
 21
152.66085409044041
 31
0.0
  0
LINE
  5
1A3D5
  8
KI
  6
CONTINUOUS
 62
     7
 10
-230.94053961040569
 20
151.16087389044031
 30
0.0
 11
-230.4405627304053
 21
152.66085409044041
 31
0.0
  0
LINE
  5
1A3D6
  8
KI
  6
CONTINUOUS
 62
     7
 10
-230.94053961040569
 20
152.66085409044041
 30
0.0
 11
-230.4405627304053
 21
154.16085905043971
 31
0.0
  0
LINE
  5
1A3D7
  8
KI
  6
CONTINUOUS
 62
     7
 10
-230.94053961040569
 20
154.16085905043971
 30
0.0
 11
-230.4405627304053
 21
154.16085905043971
 31
0.0
  0
LINE
  5
1A3D8
  8
KI
  6
CONTINUOUS
 62
     7
 10
-230.4405627304053
 20
151.16087389044031
 30
0.0
 11
-230.94053961040569
 21
151.16087389044031
 31
0.0
  0
LINE
  5
1A3D9
  8
KI
  6
CONTINUOUS
 62
     7
 10
-230.94053961040569
 20
149.66086897044019
 30
0.0
 11
-230.4405627304053
 21
149.66086897044019
 31
0.0
  0
LINE
  5
1A3DA
  8
KI
  6
CONTINUOUS
 62
     7
 10
-230.4405627304053
 20
151.16087389044031
 30
0.0
 11
-230.94053961040569
 21
149.66086897044019
 31
0.0
  0
LINE
  5
1A3DB
  8
KI
  6
CONTINUOUS
 62
     7
 10
-228.4405561304053
 20
149.66086897044019
 30
0.0
 11
-228.4405561304053
 21
147.44215029043991
 31
0.0
  0
LINE
  5
1A3DC
  8
KI
  6
CONTINUOUS
 62
     7
 10
-225.94057261040589
 20
144.8431661304391
 30
0.0
 11
-222.75364669040599
 21
145.4051019704402
 31
0.0
  0
LINE
  5
1A3DD
  8
KI
  6
CONTINUOUS
 62
     7
 10
-225.94057261040589
 20
145.65551105043991
 30
0.0
 11
-221.94060893040711
 21
146.3608135304392
 31
0.0
  0
LINE
  5
1A3DE
  8
KI
  6
CONTINUOUS
 62
     7
 10
-228.4405561304053
 20
147.44215029043991
 30
0.0
 11
-225.94057261040589
 21
147.66086237043999
 31
0.0
  0
LINE
  5
1A3DF
  8
KI
  6
CONTINUOUS
 62
     7
 10
-225.94057261040589
 20
145.65551105043991
 30
0.0
 11
-225.94057261040589
 21
144.8431661304391
 31
0.0
  0
LINE
  5
1A3E0
  8
KI
  6
CONTINUOUS
 62
     7
 10
-227.9405792104069
 20
152.66085409044041
 30
0.0
 11
-228.4405561304053
 21
152.66085409044041
 31
0.0
  0
LINE
  5
1A3E1
  8
KI
  6
CONTINUOUS
 62
     7
 10
-227.9405792104069
 20
151.16087389044031
 30
0.0
 11
-228.4405561304053
 21
152.66085409044041
 31
0.0
  0
LINE
  5
1A3E2
  8
KI
  6
CONTINUOUS
 62
     7
 10
-227.9405792104069
 20
152.66085409044041
 30
0.0
 11
-228.4405561304053
 21
154.16085905043971
 31
0.0
  0
LINE
  5
1A3E3
  8
KI
  6
CONTINUOUS
 62
     7
 10
-227.9405792104069
 20
154.16085905043971
 30
0.0
 11
-228.4405561304053
 21
154.16085905043971
 31
0.0
  0
LINE
  5
1A3E4
  8
KI
  6
CONTINUOUS
 62
     7
 10
-228.4405561304053
 20
151.16087389044031
 30
0.0
 11
-227.9405792104069
 21
151.16087389044031
 31
0.0
  0
LINE
  5
1A3E5
  8
KI
  6
CONTINUOUS
 62
     7
 10
-227.9405792104069
 20
149.66086897044019
 30
0.0
 11
-228.4405561304053
 21
149.66086897044019
 31
0.0
  0
LINE
  5
1A3E6
  8
KI
  6
CONTINUOUS
 62
     7
 10
-228.4405561304053
 20
151.16087389044031
 30
0.0
 11
-227.9405792104069
 21
149.66086897044019
 31
0.0
  0
LINE
  5
1A3E7
  8
KI
  6
CONTINUOUS
 62
     7
 10
-230.4405627304053
 20
155.66086401044021
 30
0.0
 11
-228.4405561304053
 21
155.66086401044021
 31
0.0
  0
LINE
  5
1A3E8
  8
SU
  6
CONTINUOUS
 62
     3
 10
-161.44056273040539
 20
-296.2076122529333
 30
0.0
 11
-128.4405626169027
 21
-296.20761225293342
 31
0.0
  0
LINE
  5
1A3E9
  8
SU
  6
CONTINUOUS
 62
     3
 10
-131.44056261690261
 20
-284.20761225293342
 30
0.0
 11
-131.44056261690261
 21
-296.20761225293342
 31
0.0
  0
LINE
  5
1A3EA
  8
SU
  6
CONTINUOUS
 62
     3
 10
-181.44056273040519
 20
-297.2076122529333
 30
0.0
 11
-181.44056273040519
 21
-316.2076122529333
 31
0.0
  0
LINE
  5
1A3EB
  8
SU
  6
CONTINUOUS
 62
     3
 10
-205.44056273040701
 20
-285.2076122529333
 30
0.0
 11
-205.44056273040701
 21
-316.2076122529333
 31
0.0
  0
LINE
  5
1A3EC
  8
SU
  6
CONTINUOUS
 62
     3
 10
-181.44056273040519
 20
-313.20761225293319
 30
0.0
 11
-205.44056273040701
 21
-313.20761225293319
 31
0.0
  0
TEXT
  5
1A3ED
  8
SU
  6
CONTINUOUS
 62
     3
 10
-321.7905244240917
 20
-257.52773057540361
 30
0.0
 40
4.0
  1
直張り沓摺（床先張り用）
 41
0.8299999999999999
  0
TEXT
  5
1A3EE
  8
SU
  6
CONTINUOUS
 62
     3
 10
-310.64481013837712
 20
-264.19439724207001
 30
0.0
 40
4.0
  1
〔オプション〕
 41
0.8299999999999999
  0
LINE
  5
1A3EF
  8
SU
  6
CONTINUOUS
 62
     3
 10
-137.44056261690261
 20
-274.20761225293302
 30
0.0
 11
-131.44056261690261
 21
-284.20761225293302
 31
0.0
  0
LINE
  5
1A3F0
  8
SU
  6
CONTINUOUS
 62
     3
 10
-125.4405626169027
 20
-274.20761225293302
 30
0.0
 11
-131.44056261690261
 21
-284.20761225293302
 31
0.0
  0
LINE
  5
1A3F1
  8
SU
  6
CONTINUOUS
 62
     3
 10
-137.44056261690261
 20
-274.20761225293302
 30
0.0
 11
-125.4405626169027
 21
-274.20761225293302
 31
0.0
  0
LINE
  5
1A3F2
  8
SU
  6
CONTINUOUS
 62
     3
 10
-222.9405627304057
 20
-279.4076122529334
 30
0.0
 11
-143.4405626169013
 21
-279.4076122529334
 31
0.0
  0
LINE
  5
1A3F3
  8
SU
  6
CONTINUOUS
 62
     3
 10
-146.4405626169013
 20
-279.4076122529334
 30
0.0
 11
-146.4405626169013
 21
-284.20761225293342
 31
0.0
  0
LINE
  5
1A3F4
  8
SU
  6
CONTINUOUS
 62
     3
 10
-146.4405626169013
 20
-284.20761225293342
 30
0.0
 11
-146.4405626169013
 21
-297.87123130055232
 31
0.0
  0
LINE
  5
1A3F5
  8
SU
  6
CONTINUOUS
 62
     3
 10
-161.44056273040539
 20
-284.20761225293319
 30
0.0
 11
-128.4405626169027
 21
-284.20761225293342
 31
0.0
  0
LINE
  5
1A3F6
  8
SU
  6
CONTINUOUS
 62
     3
 10
-131.44056261690261
 20
-224.2076122529329
 30
0.0
 11
-131.44056261690261
 21
-284.20761225293342
 31
0.0
  0
LINE
  5
1A3F7
  8
SU
  6
CONTINUOUS
 62
     3
 10
-187.9405627304055
 20
-276.20761225293302
 30
0.0
 11
-143.4405626169013
 21
-276.20761225293302
 31
0.0
  0
LINE
  5
1A3F8
  8
SU
  6
CONTINUOUS
 62
     3
 10
-146.4405626169013
 20
-224.2076122529329
 30
0.0
 11
-146.4405626169013
 21
-276.20761225293302
 31
0.0
  0
LINE
  5
1A3F9
  8
SU
  6
CONTINUOUS
 62
     3
 10
-146.4405626169013
 20
-276.20761225293302
 30
0.0
 11
-146.4405626169013
 21
-279.4076122529334
 31
0.0
  0
LINE
  5
1A3FA
  8
SU
  6
CONTINUOUS
 62
     3
 10
-146.4405626169013
 20
-277.80761225293321
 30
0.0
 11
-161.44009507181991
 21
-266.25546679882638
 31
0.0
  0
LINE
  5
1A3FB
  8
SU
  6
CONTINUOUS
 62
     3
 10
-161.44009507181991
 20
-266.25546679882638
 30
0.0
 11
-161.44009507181991
 21
-254.9918477512075
 31
0.0
  0
LINE
  5
1A3FC
  8
SU
  6
CONTINUOUS
 62
     3
 10
-218.94056273040559
 20
-262.10761210989
 30
0.0
 11
-181.44056273040519
 21
-262.10761210989
 31
0.0
  0
LINE
  5
1A3FD
  8
SU
  6
CONTINUOUS
 62
     3
 10
-256.94056273040542
 20
-282.26372912496299
 30
0.0
 11
-256.94056273040542
 21
-259.10761210988989
 31
0.0
  0
LINE
  5
1A3FE
  8
SU
  6
CONTINUOUS
 62
     3
 10
-218.94056273040559
 20
-282.26372912496299
 30
0.0
 11
-218.94056273040559
 21
-259.10761210988989
 31
0.0
  0
LINE
  5
1A3FF
  8
SU
  6
CONTINUOUS
 62
     3
 10
-256.94056273040542
 20
-262.10761210989
 30
0.0
 11
-218.94056273040559
 21
-262.10761210989
 31
0.0
  0
LINE
  5
1A400
  8
SU
  6
CONTINUOUS
 62
     3
 10
-254.3366391645294
 20
-281.13278670698412
 30
0.0
 11
-256.12054385809171
 21
-279.4981392247974
 31
0.0
  0
LINE
  5
1A401
  8
SU
  6
CONTINUOUS
 62
     3
 10
-254.3366391645294
 20
-281.13278670698412
 30
0.0
 11
-255.63703765728621
 21
-279.09156994839901
 31
0.0
  0
LINE
  5
1A402
  8
KI
  6
CONTINUOUS
 62
     7
 10
-244.3988202999009
 20
-283.0076122529332
 30
0.0
 11
-250.34056273040571
 21
-283.0076122529332
 31
0.0
  0
LINE
  5
1A403
  8
KI
  6
CONTINUOUS
 62
     7
 10
-251.0405627304057
 20
-284.20761225293319
 30
0.0
 11
-224.84056273040551
 21
-284.20761225293319
 31
0.0
  0
LINE
  5
1A404
  8
KI
  6
CONTINUOUS
 62
     7
 10
-250.2405627304054
 20
-280.60761225293328
 30
0.0
 11
-250.54056273040581
 21
-280.60761225293328
 31
0.0
  0
ARC
  5
1A405
  8
KI
  6
CONTINUOUS
 62
     7
 10
-251.0405627304057
 20
-283.7076122529333
 30
0.0
 40
0.5
 50
180.0
 51
270.0
1001
GENIUS_GENOBJ-N-FIL_13
1002
{
1000
OWNER
1000
GEN
1002
}
1001
GENIUS_GENODEF_13
1002
{
1000
HIER
1070
     0
1002
}
1002
{
1000
MANEDIT
1070
     0
1002
}
1002
{
1000
NOSEL
1070
     0
1002
}
1002
{
1000
BEHIND
1070
     0
1002
}
1002
{
1000
OTHER
1070
     0
1002
}
1002
{
1000
REACTOR
1002
}
  0
LINE
  5
1A406
  8
KI
  6
CONTINUOUS
 62
     7
 10
-250.64056273040569
 20
-282.7076122529333
 30
0.0
 11
-250.64056273040569
 21
-281.84926963970719
 31
0.0
  0
LINE
  5
1A407
  8
KI
  6
CONTINUOUS
 62
     7
 10
-251.5405627304057
 20
-281.60761225293339
 30
0.0
 11
-251.5405627304057
 21
-283.7076122529333
 31
0.0
  0
ARC
  5
1A408
  8
KI
  6
CONTINUOUS
 62
     7
 10
-250.34056273040571
 20
-282.7076122529333
 30
0.0
 40
0.3
 50
180.0
 51
270.0
1001
GENIUS_GENOBJ-N-FIL_13
1002
{
1000
OWNER
1000
GEN
1002
}
1001
GENIUS_GENODEF_13
1002
{
1000
HIER
1070
     0
1002
}
1002
{
1000
MANEDIT
1070
     0
1002
}
1002
{
1000
NOSEL
1070
     0
1002
}
1002
{
1000
BEHIND
1070
     0
1002
}
1002
{
1000
OTHER
1070
     0
1002
}
1002
{
1000
REACTOR
1002
}
  0
LINE
  5
1A409
  8
KI
  6
CONTINUOUS
 62
     7
 10
-250.45120275667361
 20
-281.45747533898242
 30
0.0
 11
-250.05417871464491
 21
-281.14268883336803
 31
0.0
  0
ARC
  5
1A40A
  8
KI
  6
CONTINUOUS
 62
     7
 10
-250.14056273040541
 20
-281.84926963970719
 30
0.0
 40
0.5
 50
128.4096710634123
 51
180.0
1001
GENIUS_GENODEF_13
1002
{
1000
HIER
1070
     0
1002
}
1002
{
1000
MANEDIT
1070
     0
1002
}
1002
{
1000
NOSEL
1070
     0
1002
}
1002
{
1000
BEHIND
1070
     0
1002
}
1002
{
1000
OTHER
1070
     0
1002
}
1002
{
1000
REACTOR
1002
}
1001
GENIUS_GENOBJ-N-FIL_13
1002
{
1000
OWNER
1000
GEN
1002
}
  0
ARC
  5
1A40B
  8
KI
  6
CONTINUOUS
 62
     7
 10
-250.2405627304054
 20
-280.90761225293329
 30
0.0
 40
0.3
 50
308.40967106341247
 51
90.0
  0
ARC
  5
1A40C
  8
KI
  6
CONTINUOUS
 62
     7
 10
-250.5405627304055
 20
-281.60761225293339
 30
0.0
 40
1.0
 50
90.000000000003226
 51
180.0
1001
GENIUS_GENOBJ-N-FIL_13
1002
{
1000
OWNER
1000
GEN
1002
}
1001
GENIUS_GENODEF_13
1002
{
1000
HIER
1070
     0
1002
}
1002
{
1000
MANEDIT
1070
     0
1002
}
1002
{
1000
NOSEL
1070
     0
1002
}
1002
{
1000
BEHIND
1070
     0
1002
}
1002
{
1000
OTHER
1070
     0
1002
}
1002
{
1000
REACTOR
1002
}
  0
ARC
  5
1A40D
  8
KI
  6
CONTINUOUS
 62
     7
 10
-225.64056273040541
 20
-280.90761225293329
 30
0.0
 40
0.3
 50
90.0
 51
231.5903289365875
  0
LINE
  5
1A40E
  8
KI
  6
CONTINUOUS
 62
     7
 10
-225.5405627304055
 20
-283.0076122529332
 30
0.0
 11
-231.4823051609101
 21
-283.0076122529332
 31
0.0
  0
ARC
  5
1A40F
  8
KI
  6
CONTINUOUS
 62
     7
 10
-237.94056273040559
 20
-282.80761225293321
 30
0.0
 40
0.5
 50
203.5781784782005
 51
336.42182152179942
  0
LINE
  5
1A410
  8
KI
  6
CONTINUOUS
 62
     7
 10
-238.3988202999009
 20
-283.0076122529332
 30
0.0
 11
-243.4823051609101
 21
-283.0076122529332
 31
0.0
  0
ARC
  5
1A411
  8
KI
  6
CONTINUOUS
 62
     7
 10
-243.94056273040559
 20
-282.80761225293321
 30
0.0
 40
0.5
 50
203.5781784782005
 51
336.42182152179942
  0
ARC
  5
1A412
  8
KI
  6
CONTINUOUS
 62
     7
 10
-231.9405627304055
 20
-282.80761225293321
 30
0.0
 40
0.5
 50
203.5781784782005
 51
336.42182152179942
  0
LINE
  5
1A413
  8
KI
  6
CONTINUOUS
 62
     7
 10
-232.3988202999009
 20
-283.0076122529332
 30
0.0
 11
-237.4823051609101
 21
-283.0076122529332
 31
0.0
  0
LINE
  5
1A414
  8
KI
  6
CONTINUOUS
 62
     7
 10
-225.64056273040541
 20
-280.60761225293328
 30
0.0
 11
-225.34056273040551
 21
-280.60761225293328
 31
0.0
  0
ARC
  5
1A415
  8
KI
  6
CONTINUOUS
 62
     7
 10
-224.84056273040551
 20
-283.7076122529333
 30
0.0
 40
0.5
 50
270.0
 51
0.0
1001
GENIUS_GENOBJ-N-FIL_13
1002
{
1000
OWNER
1000
GEN
1002
}
1001
GENIUS_GENODEF_13
1002
{
1000
HIER
1070
     0
1002
}
1002
{
1000
MANEDIT
1070
     0
1002
}
1002
{
1000
NOSEL
1070
     0
1002
}
1002
{
1000
BEHIND
1070
     0
1002
}
1002
{
1000
OTHER
1070
     0
1002
}
1002
{
1000
REACTOR
1002
}
  0
LINE
  5
1A416
  8
KI
  6
CONTINUOUS
 62
     7
 10
-225.2405627304054
 20
-282.7076122529333
 30
0.0
 11
-225.2405627304054
 21
-281.84926963970719
 31
0.0
  0
LINE
  5
1A417
  8
KI
  6
CONTINUOUS
 62
     7
 10
-224.34056273040551
 20
-281.60761225293339
 30
0.0
 11
-224.34056273040551
 21
-283.7076122529333
 31
0.0
  0
ARC
  5
1A418
  8
KI
  6
CONTINUOUS
 62
     7
 10
-225.5405627304055
 20
-282.7076122529333
 30
0.0
 40
0.3
 50
270.0
 51
0.0
1001
GENIUS_GENOBJ-N-FIL_13
1002
{
1000
OWNER
1000
GEN
1002
}
1001
GENIUS_GENODEF_13
1002
{
1000
HIER
1070
     0
1002
}
1002
{
1000
MANEDIT
1070
     0
1002
}
1002
{
1000
NOSEL
1070
     0
1002
}
1002
{
1000
BEHIND
1070
     0
1002
}
1002
{
1000
OTHER
1070
     0
1002
}
1002
{
1000
REACTOR
1002
}
  0
ARC
  5
1A419
  8
KI
  6
CONTINUOUS
 62
     7
 10
-225.74056273040529
 20
-281.84926963970719
 30
0.0
 40
0.5
 50
0.0
 51
51.590328936587497
1001
GENIUS_GENODEF_13
1002
{
1000
HIER
1070
     0
1002
}
1002
{
1000
MANEDIT
1070
     0
1002
}
1002
{
1000
NOSEL
1070
     0
1002
}
1002
{
1000
BEHIND
1070
     0
1002
}
1002
{
1000
OTHER
1070
     0
1002
}
1002
{
1000
REACTOR
1002
}
1001
GENIUS_GENOBJ-N-FIL_13
1002
{
1000
OWNER
1000
GEN
1002
}
  0
LINE
  5
1A41A
  8
KI
  6
CONTINUOUS
 62
     7
 10
-225.4299227041376
 20
-281.45747533898242
 30
0.0
 11
-225.82694674616641
 21
-281.14268883336803
 31
0.0
  0
ARC
  5
1A41B
  8
KI
  6
CONTINUOUS
 62
     7
 10
-225.34056273040551
 20
-281.60761225293322
 30
0.0
 40
1.0
 50
359.9999999999967
 51
89.999999999993477
1001
GENIUS_GENOBJ-N-FIL_13
1002
{
1000
OWNER
1000
GEN
1002
}
1001
GENIUS_GENODEF_13
1002
{
1000
HIER
1070
     0
1002
}
1002
{
1000
MANEDIT
1070
     0
1002
}
1002
{
1000
NOSEL
1070
     0
1002
}
1002
{
1000
BEHIND
1070
     0
1002
}
1002
{
1000
OTHER
1070
     0
1002
}
1002
{
1000
REACTOR
1002
}
  0
LINE
  5
1A41C
  8
KI
  6
CONTINUOUS
 62
     7
 10
-219.14841036748311
 20
-282.85796195423762
 30
0.0
 11
-223.9405627304055
 21
-279.4076122529334
 31
0.0
  0
LINE
  5
1A41D
  8
KI
  6
CONTINUOUS
 62
     7
 10
-219.88317452606111
 20
-283.8076122529331
 30
0.0
 11
-224.6053967482834
 21
-280.4076122529334
 31
0.0
  0
LINE
  5
1A41E
  8
KI
  6
CONTINUOUS
 62
     7
 10
-226.94056273040559
 20
-280.4076122529334
 30
0.0
 11
-248.9405627304055
 21
-280.4076122529334
 31
0.0
  0
LINE
  5
1A41F
  8
KI
  6
CONTINUOUS
 62
     7
 10
-223.9405627304055
 20
-279.4076122529334
 30
0.0
 11
-251.94056273040559
 21
-279.4076122529334
 31
0.0
  0
ARC
  5
1A420
  8
KI
  6
CONTINUOUS
 62
     7
 10
-256.44056273040559
 20
-283.26372912496311
 30
0.0
 40
0.5
 50
125.7538872544371
 51
180.0
1001
GENIUS_GENOBJ-N-FIL_13
1002
{
1000
OWNER
1000
GEN
1002
}
1001
GENIUS_GENODEF_13
1002
{
1000
HIER
1070
     0
1002
}
1002
{
1000
MANEDIT
1070
     0
1002
}
1002
{
1000
NOSEL
1070
     0
1002
}
1002
{
1000
BEHIND
1070
     0
1002
}
1002
{
1000
OTHER
1070
     0
1002
}
1002
{
1000
REACTOR
1002
}
  0
LINE
  5
1A421
  8
KI
  6
CONTINUOUS
 62
     7
 10
-255.99795093474989
 20
-283.8076122529331
 30
0.0
 11
-251.27572871252781
 21
-280.4076122529334
 31
0.0
  0
LINE
  5
1A422
  8
KI
  6
CONTINUOUS
 62
     7
 10
-256.94056273040542
 20
-283.8076122529331
 30
0.0
 11
-255.99795093474989
 21
-283.8076122529331
 31
0.0
  0
LINE
  5
1A423
  8
KI
  6
CONTINUOUS
 62
     7
 10
-256.94056273040542
 20
-283.8076122529331
 30
0.0
 11
-256.94056273040542
 21
-283.26372912496311
 31
0.0
  0
LINE
  5
1A424
  8
KI
  6
CONTINUOUS
 62
     7
 10
-256.73271509332818
 20
-282.85796195423762
 30
0.0
 11
-251.94056273040559
 21
-279.4076122529334
 31
0.0
  0
LINE
  5
1A425
  8
KI
  6
CONTINUOUS
 62
     7
 10
-249.84056273040551
 20
-280.4076122529334
 30
0.0
 11
-251.27572871252781
 21
-280.4076122529334
 31
0.0
  0
LINE
  5
1A426
  8
KI
  6
CONTINUOUS
 62
     7
 10
-249.84056273040551
 20
-280.90761225293329
 30
0.0
 11
-250.1438188241913
 21
-281.18696103417591
 31
0.0
  0
LINE
  5
1A427
  8
KI
  6
CONTINUOUS
 62
     7
 10
-250.21009839302221
 20
-281.53933365050341
 30
0.0
 11
-249.69994361389459
 21
-282.58324078302672
 31
0.0
  0
ARC
  5
1A428
  8
KI
  6
CONTINUOUS
 62
     7
 10
-249.9405627304057
 20
-281.4076122529334
 30
0.0
 40
0.3
 50
132.65017409566951
 51
206.04464303945329
  0
ARC
  5
1A429
  8
KI
  6
CONTINUOUS
 62
     7
 10
-249.34056273040551
 20
-282.4076122529334
 30
0.0
 40
0.4
 50
206.04464303945329
 51
0.0
  0
LINE
  5
1A42A
  8
KI
  6
CONTINUOUS
 62
     7
 10
-248.9405627304055
 20
-280.4076122529334
 30
0.0
 11
-248.9405627304055
 21
-282.4076122529334
 31
0.0
  0
LINE
  5
1A42B
  8
KI
  6
CONTINUOUS
 62
     7
 10
-249.84056273040551
 20
-280.4076122529334
 30
0.0
 11
-249.84056273040551
 21
-280.90761225293329
 31
0.0
  0
ARC
  5
1A42C
  8
KI
  6
CONTINUOUS
 62
     7
 10
-225.9405627304055
 20
-281.4076122529334
 30
0.0
 40
0.3
 50
333.95535696054662
 51
47.349825904330501
  0
LINE
  5
1A42D
  8
KI
  6
CONTINUOUS
 62
     7
 10
-224.6053967482834
 20
-280.4076122529334
 30
0.0
 11
-226.0405627304057
 21
-280.4076122529334
 31
0.0
  0
LINE
  5
1A42E
  8
KI
  6
CONTINUOUS
 62
     7
 10
-225.6710270677888
 20
-281.53933365050341
 30
0.0
 11
-226.18118184691659
 21
-282.58324078302672
 31
0.0
  0
LINE
  5
1A42F
  8
KI
  6
CONTINUOUS
 62
     7
 10
-226.0405627304057
 20
-280.4076122529334
 30
0.0
 11
-226.0405627304057
 21
-280.90761225293329
 31
0.0
  0
LINE
  5
1A430
  8
KI
  6
CONTINUOUS
 62
     7
 10
-226.0405627304057
 20
-280.90761225293329
 30
0.0
 11
-225.73730663661991
 21
-281.18696103417591
 31
0.0
  0
LINE
  5
1A431
  8
KI
  6
CONTINUOUS
 62
     7
 10
-226.94056273040559
 20
-280.4076122529334
 30
0.0
 11
-226.94056273040559
 21
-282.4076122529334
 31
0.0
  0
ARC
  5
1A432
  8
KI
  6
CONTINUOUS
 62
     7
 10
-226.5405627304057
 20
-282.4076122529334
 30
0.0
 40
0.4
 50
180.0
 51
333.95535696054662
  0
ARC
  5
1A433
  8
KI
  6
CONTINUOUS
 62
     7
 10
-219.4405627304055
 20
-283.26372912496311
 30
0.0
 40
0.5
 50
0.0
 51
54.24611274556284
1001
GENIUS_GENOBJ-N-FIL_13
1002
{
1000
OWNER
1000
GEN
1002
}
1001
GENIUS_GENODEF_13
1002
{
1000
HIER
1070
     0
1002
}
1002
{
1000
MANEDIT
1070
     0
1002
}
1002
{
1000
NOSEL
1070
     0
1002
}
1002
{
1000
BEHIND
1070
     0
1002
}
1002
{
1000
OTHER
1070
     0
1002
}
1002
{
1000
REACTOR
1002
}
  0
LINE
  5
1A434
  8
KI
  6
CONTINUOUS
 62
     7
 10
-218.94056273040559
 20
-283.8076122529331
 30
0.0
 11
-218.94056273040559
 21
-283.26372912496311
 31
0.0
  0
LINE
  5
1A435
  8
KI
  6
CONTINUOUS
 62
     7
 10
-218.94056273040559
 20
-283.8076122529331
 30
0.0
 11
-219.88317452606111
 21
-283.8076122529331
 31
0.0
  0
LINE
  5
1A436
  8
SU
  6
CONTINUOUS
 62
     3
 10
-221.44058561858941
 20
-26.039137438824628
 30
0.0
 11
-143.44056273040391
 21
-26.03913743882465
 31
0.0
  0
LINE
  5
1A437
  8
SU
  6
CONTINUOUS
 62
     3
 10
-146.440562730404
 20
-26.03913743882465
 30
0.0
 11
-146.440562730404
 21
-23.639137438824658
 31
0.0
  0
LINE
  5
1A438
  8
SU
  6
CONTINUOUS
 62
     3
 10
-146.440562730404
 20
-28.33913762955962
 30
0.0
 11
-146.440562730404
 21
-37.952470962892939
 31
0.0
  0
LINE
  5
1A439
  8
SU
  6
CONTINUOUS
 62
     3
 10
-146.440562730404
 20
-26.03913743882465
 30
0.0
 11
-146.440562730404
 21
-28.33913762955962
 31
0.0
  0
LINE
  5
1A43A
  8
SU
  6
CONTINUOUS
 62
     3
 10
-146.440562730404
 20
-20.339137629559861
 30
0.0
 11
-146.440562730404
 21
-26.03913743882465
 31
0.0
  0
TEXT
  5
1A43B
  8
SU
  6
CONTINUOUS
 62
     3
 10
-301.52314324861823
 20
-121.54977615636319
 30
0.0
 40
4.0
  1
薄敷居（床後張り用）
 41
0.8299999999999999
  0
TEXT
  5
1A43C
  8
SU
  6
CONTINUOUS
 62
     3
 10
-294.36142896290397
 20
-128.21644282302981
 30
0.0
 40
4.0
  1
〔オプション〕
 41
0.8299999999999999
  0
TEXT
  5
1A43D
  8
SU
  6
CONTINUOUS
 62
     3
 10
-314.46419632057672
 20
-6.8933808470906204
 30
0.0
 40
4.0
  1
埋込敷居（床先張り用）
 41
0.8299999999999999
  0
TEXT
  5
1A43E
  8
SU
  6
CONTINUOUS
 62
     3
 10
-305.31048203486222
 20
-13.560047513757279
 30
0.0
 40
4.0
  1
〔オプション〕
 41
0.8299999999999999
  0
LINE
  5
1A43F
  8
SU
  6
CONTINUOUS
 62
     3
 10
-205.4405627304042
 20
-160.89107837422071
 30
0.0
 11
-205.4405627304042
 21
-197.89107837423609
 31
0.0
  0
LINE
  5
1A440
  8
SU
  6
CONTINUOUS
 62
     3
 10
-205.4405627304042
 20
-194.89107837423609
 30
0.0
 11
-184.44056273953279
 21
-194.89107837423609
 31
0.0
  0
LINE
  5
1A441
  8
SU
  6
CONTINUOUS
 62
     3
 10
-324.9405627304053
 20
213.66086217970511
 30
0.0
 11
-324.9405627304053
 21
235.66086217970511
 31
0.0
  0
LINE
  5
1A442
  8
SU
  6
CONTINUOUS
 62
     3
 10
-219.9405627304053
 20
213.66086217970511
 30
0.0
 11
-219.9405627304053
 21
235.66086217970511
 31
0.0
  0
LINE
  5
1A443
  8
SU
  6
CONTINUOUS
 62
     3
 10
-324.9405627304053
 20
232.66086217970511
 30
0.0
 11
-219.9405627304053
 21
232.66086217970511
 31
0.0
  0
LINE
  5
1A444
  8
SU
  6
CONTINUOUS
 62
     3
 10
-195.44056273040511
 20
213.6608621797063
 30
0.0
 11
-195.44056273040511
 21
250.66086217970511
 31
0.0
  0
LINE
  5
1A445
  8
SU
  6
CONTINUOUS
 62
     3
 10
-181.44056273040511
 20
172.6608623704399
 30
0.0
 11
-181.44056273040511
 21
250.66086217970511
 31
0.0
  0
LINE
  5
1A446
  8
SU
  6
CONTINUOUS
 62
     3
 10
-195.44056273040511
 20
247.66086217970511
 30
0.0
 11
-181.44056273040511
 21
247.66086217970511
 31
0.0
  0
LINE
  5
1A447
  8
SU
  6
CONTINUOUS
 62
     3
 10
-207.94056273040511
 20
213.6608621797063
 30
0.0
 11
-207.94056273040511
 21
235.66086217970511
 31
0.0
  0
LINE
  5
1A448
  8
SU
  6
CONTINUOUS
 62
     3
 10
-219.9405627304053
 20
232.66086217970511
 30
0.0
 11
-207.94056273040511
 21
232.66086217970511
 31
0.0
  0
LINE
  5
1A449
  8
SU
  6
CONTINUOUS
 62
     3
 10
-207.94056273040511
 20
232.66086217970511
 30
0.0
 11
-195.44056273040511
 21
232.66086217970511
 31
0.0
  0
LINE
  5
1A44A
  8
SU
  6
CONTINUOUS
 62
     3
 10
-195.44056273040511
 20
232.66086217970511
 30
0.0
 11
-169.70907804074491
 21
232.66086217970511
 31
0.0
  0
LINE
  5
1A44B
  8
SU
  6
CONTINUOUS
 62
     3
 10
-349.4405627304053
 20
213.6608621797063
 30
0.0
 11
-349.4405627304053
 21
250.66086217970511
 31
0.0
  0
LINE
  5
1A44C
  8
SU
  6
CONTINUOUS
 62
     3
 10
-363.4405627304053
 20
172.6608623704399
 30
0.0
 11
-363.4405627304053
 21
250.66086217970511
 31
0.0
  0
LINE
  5
1A44D
  8
SU
  6
CONTINUOUS
 62
     3
 10
-349.4405627304053
 20
247.66086217970511
 30
0.0
 11
-363.4405627304053
 21
247.66086217970511
 31
0.0
  0
LINE
  5
1A44E
  8
SU
  6
CONTINUOUS
 62
     3
 10
-195.44056273040511
 20
247.66086217970511
 30
0.0
 11
-349.4405627304053
 21
247.66086217970511
 31
0.0
  0
LINE
  5
1A44F
  8
SU
  6
CONTINUOUS
 62
     3
 10
-336.9405627304053
 20
232.66086217970511
 30
0.0
 11
-349.4405627304053
 21
232.66086217970511
 31
0.0
  0
LINE
  5
1A450
  8
SU
  6
CONTINUOUS
 62
     3
 10
-349.4405627304053
 20
232.66086217970511
 30
0.0
 11
-375.1720474200655
 21
232.66086217970511
 31
0.0
  0
LINE
  5
1A451
  8
SU
  6
CONTINUOUS
 62
     3
 10
-336.9405627304053
 20
213.6608621797063
 30
0.0
 11
-336.9405627304053
 21
235.66086217970511
 31
0.0
  0
LINE
  5
1A452
  8
SU
  6
CONTINUOUS
 62
     3
 10
-324.9405627304053
 20
232.66086217970511
 30
0.0
 11
-336.9405627304053
 21
232.66086217970511
 31
0.0
  0
LINE
  5
1A453
  8
SU
  6
CONTINUOUS
 62
     3
 10
-68.649035872846198
 20
-23.646509419221029
 30
0.0
 11
-90.649035872844948
 21
-23.646509419221012
 31
0.0
  0
LINE
  5
1A454
  8
SU
  6
CONTINUOUS
 62
     3
 10
-87.649035872844976
 20
-11.646509419221021
 30
0.0
 11
-87.649035872844976
 21
-23.646509419221029
 31
0.0
  0
LINE
  5
1A455
  8
SU
  6
CONTINUOUS
 62
     3
 10
-87.649035872844976
 20
-23.646509419221029
 30
0.0
 11
-87.649035872844976
 21
-36.146509419220997
 31
0.0
  0
LINE
  5
1A456
  8
SU
  6
CONTINUOUS
 62
     3
 10
-87.649035872844976
 20
-36.146509419220997
 30
0.0
 11
-87.649035872844976
 21
-61.877994108881282
 31
0.0
  0
LINE
  5
1A457
  8
SU
  6
CONTINUOUS
 62
     3
 10
-68.649035872846198
 20
105.3534905807789
 30
0.0
 11
-90.649035872844948
 21
105.3534905807789
 31
0.0
  0
LINE
  5
1A458
  8
SU
  6
CONTINUOUS
 62
     3
 10
-87.649035872844976
 20
93.353490580778967
 30
0.0
 11
-87.649035872844976
 21
105.3534905807789
 31
0.0
  0
LINE
  5
1A459
  8
OS
  6
CONTINUOUS
 62
     2
 10
-162.44056273040539
 20
-40.339137629559502
 30
0.0
 11
-382.44056273040542
 21
-40.339137629559502
 31
0.0
  0
LINE
  5
1A45A
  8
OS
  6
CONTINUOUS
 62
     2
 10
-251.44056273040539
 20
-28.339137629559708
 30
0.0
 11
-382.44056273040542
 21
-28.339137629559708
 31
0.0
  0
LINE
  5
1A45B
  8
OS
  6
CONTINUOUS
 62
     2
 10
-251.44056273040539
 20
-34.339137629559502
 30
0.0
 11
-382.44056273040542
 21
-34.339137629559502
 31
0.0
  0
LINE
  5
1A45C
  8
OS
  6
CONTINUOUS
 62
     2
 10
-251.44056273040539
 20
-31.339137629559499
 30
0.0
 11
-382.44056273040542
 21
-31.339137629559499
 31
0.0
  0
LINE
  5
1A45D
  8
OS
  6
CONTINUOUS
 62
     2
 10
-251.44056273040539
 20
-37.339137629559509
 30
0.0
 11
-382.44056273040542
 21
-37.339137629559509
 31
0.0
  0
LINE
  5
1A45E
  8
OS
  6
CONTINUOUS
 62
     2
 10
-251.44056273040539
 20
-40.339137629551317
 30
0.0
 11
-251.44056273040539
 21
-28.339137629559708
 31
0.0
  0
LINE
  5
1A45F
  8
OS
  6
CONTINUOUS
 62
     2
 10
-162.44056273040539
 20
-31.339137629559499
 30
0.0
 11
-226.44056273040539
 21
-31.339137629559499
 31
0.0
  0
LINE
  5
1A460
  8
OS
  6
CONTINUOUS
 62
     2
 10
-162.44056273040539
 20
-34.339137629559502
 30
0.0
 11
-226.44056273040539
 21
-34.339137629559502
 31
0.0
  0
LINE
  5
1A461
  8
OS
  6
CONTINUOUS
 62
     2
 10
-162.44056273040539
 20
-28.339137629559708
 30
0.0
 11
-226.44056273040539
 21
-28.339137629559708
 31
0.0
  0
LINE
  5
1A462
  8
OS
  6
CONTINUOUS
 62
     2
 10
-162.44056273040539
 20
-37.339137629559509
 30
0.0
 11
-226.44056273040539
 21
-37.339137629559509
 31
0.0
  0
LINE
  5
1A463
  8
OS
  6
CONTINUOUS
 62
     2
 10
-226.44056273040539
 20
-40.339137629551317
 30
0.0
 11
-226.44056273040539
 21
-28.339137629559708
 31
0.0
  0
LINE
  5
1A464
  8
OS
  6
CONTINUOUS
 62
     2
 10
-162.4405627304055
 20
-174.89107837422071
 30
0.0
 11
-382.44056273040542
 21
-174.89107837422071
 31
0.0
  0
LINE
  5
1A465
  8
OS
  6
CONTINUOUS
 62
     2
 10
-162.4405627304055
 20
-168.89107837422071
 30
0.0
 11
-184.4405627304053
 21
-168.89107837422071
 31
0.0
  0
LINE
  5
1A466
  8
OS
  6
CONTINUOUS
 62
     2
 10
-162.4405627304055
 20
-171.89107837422071
 30
0.0
 11
-184.4405627304053
 21
-171.89107837422071
 31
0.0
  0
LINE
  5
1A467
  8
OS
  6
CONTINUOUS
 62
     2
 10
-162.4405627304055
 20
-165.89107837422071
 30
0.0
 11
-184.4405627304053
 21
-165.89107837422071
 31
0.0
  0
LINE
  5
1A468
  8
OS
  6
CONTINUOUS
 62
     2
 10
-162.4405627304055
 20
-162.89107837422071
 30
0.0
 11
-184.4405627304053
 21
-162.89107837422071
 31
0.0
  0
LINE
  5
1A469
  8
OS
  6
CONTINUOUS
 62
     2
 10
-330.44056273040542
 20
-162.89107837422071
 30
0.0
 11
-382.44056273040542
 21
-162.89107837422071
 31
0.0
  0
LINE
  5
1A46A
  8
OS
  6
CONTINUOUS
 62
     2
 10
-330.44056273040542
 20
-165.89107837422071
 30
0.0
 11
-382.44056273040542
 21
-165.89107837422071
 31
0.0
  0
LINE
  5
1A46B
  8
OS
  6
CONTINUOUS
 62
     2
 10
-330.44056273040542
 20
-168.89107837422071
 30
0.0
 11
-382.44056273040542
 21
-168.89107837422071
 31
0.0
  0
LINE
  5
1A46C
  8
OS
  6
CONTINUOUS
 62
     2
 10
-330.44056273040542
 20
-171.89107837422071
 30
0.0
 11
-382.44056273040542
 21
-171.89107837422071
 31
0.0
  0
LINE
  5
1A46D
  8
OS
  6
CONTINUOUS
 62
     2
 10
484.35096902421071
 20
-25.646509419221051
 30
0.0
 11
433.3509665756817
 21
-25.646509419221051
 31
0.0
  0
LINE
  5
1A46E
  8
OS
  6
CONTINUOUS
 62
     2
 10
484.35096902421071
 20
-23.64650941922104
 30
0.0
 11
433.3509665756817
 21
-23.64650941922104
 31
0.0
  0
LINE
  5
1A46F
  8
OS
  6
CONTINUOUS
 62
     2
 10
484.35096902421071
 20
-36.14650941922104
 30
0.0
 11
433.3509665756817
 21
-36.14650941922104
 31
0.0
  0
LINE
  5
1A470
  8
OS
  6
CONTINUOUS
 62
     2
 10
484.35096902421071
 20
-34.14650941922104
 30
0.0
 11
433.3509665756817
 21
-34.14650941922104
 31
0.0
  0
LINE
  5
1A471
  8
OS
  6
CONTINUOUS
 62
     2
 10
484.35096902421071
 20
-11.646509419221021
 30
0.0
 11
433.3509665756817
 21
-11.646509419221021
 31
0.0
  0
LINE
  5
1A472
  8
OS
  6
CONTINUOUS
 62
     2
 10
438.35082924657161
 20
93.353551615934947
 30
0.0
 11
484.35096902421071
 21
47.353420937081857
 31
0.0
  0
LINE
  5
1A473
  8
OS
  6
CONTINUOUS
 62
     2
 10
484.35096902421071
 20
34.353664040779449
 30
0.0
 11
438.35084450536169
 21
-11.64645982815613
 31
0.0
  0
LINE
  5
1A474
  8
OS
  6
CONTINUOUS
 62
     2
 10
484.35096902421071
 20
93.353490580778967
 30
0.0
 11
433.3509665756817
 21
93.353490580778967
 31
0.0
  0
LINE
  5
1A475
  8
OS
  6
CONTINUOUS
 62
     2
 10
484.35096902421071
 20
107.3534905807789
 30
0.0
 11
433.3509665756817
 21
107.3534905807789
 31
0.0
  0
LINE
  5
1A476
  8
OS
  6
CONTINUOUS
 62
     2
 10
484.35096902421071
 20
117.8534905807789
 30
0.0
 11
433.3509665756817
 21
117.8534905807789
 31
0.0
  0
LINE
  5
1A477
  8
OS
  6
CONTINUOUS
 62
     2
 10
484.35096902421071
 20
105.3534905807789
 30
0.0
 11
433.3509665756817
 21
105.3534905807789
 31
0.0
  0
LINE
  5
1A478
  8
OS
  6
CONTINUOUS
 62
     2
 10
484.35096902421071
 20
115.8534905807789
 30
0.0
 11
433.3509665756817
 21
115.8534905807789
 31
0.0
  0
LINE
  5
1A479
  8
OS
  6
CONTINUOUS
 62
     2
 10
433.35099709325158
 20
93.353494395475991
 30
0.0
 11
438.35099709325158
 21
-11.64651323391808
 31
0.0
  0
LINE
  5
1A47A
  8
OS
  6
CONTINUOUS
 62
     2
 10
438.35096657568153
 20
93.353490580778967
 30
0.0
 11
438.35096657568153
 21
-11.646509419221021
 31
0.0
  0
LINE
  5
1A47B
  8
OS
  6
CONTINUOUS
 62
     2
 10
-67.649035872846198
 20
-25.646509419221051
 30
0.0
 11
-16.649033424317111
 21
-25.646509419221051
 31
0.0
  0
LINE
  5
1A47C
  8
OS
  6
CONTINUOUS
 62
     2
 10
-67.649035872846198
 20
-23.64650941922104
 30
0.0
 11
-16.649033424317111
 21
-23.64650941922104
 31
0.0
  0
LINE
  5
1A47D
  8
OS
  6
CONTINUOUS
 62
     2
 10
-67.649035872846198
 20
-36.14650941922104
 30
0.0
 11
-16.649033424317111
 21
-36.14650941922104
 31
0.0
  0
LINE
  5
1A47E
  8
OS
  6
CONTINUOUS
 62
     2
 10
-67.649035872846198
 20
-34.14650941922104
 30
0.0
 11
-16.649033424317111
 21
-34.14650941922104
 31
0.0
  0
LINE
  5
1A47F
  8
OS
  6
CONTINUOUS
 62
     2
 10
-67.649035872846198
 20
-11.646509419221021
 30
0.0
 11
-16.649033424317111
 21
-11.646509419221021
 31
0.0
  0
LINE
  5
1A480
  8
OS
  6
CONTINUOUS
 62
     2
 10
-21.648896095207071
 20
93.353551615934947
 30
0.0
 11
-67.649035872846213
 21
47.353420937081857
 31
0.0
  0
LINE
  5
1A481
  8
OS
  6
CONTINUOUS
 62
     2
 10
-67.649035872846213
 20
34.353664040779449
 30
0.0
 11
-21.6489113539971
 21
-11.64645982815613
 31
0.0
  0
LINE
  5
1A482
  8
OS
  6
CONTINUOUS
 62
     2
 10
-67.649035872846198
 20
93.353490580778967
 30
0.0
 11
-16.649033424317111
 21
93.353490580778967
 31
0.0
  0
LINE
  5
1A483
  8
OS
  6
CONTINUOUS
 62
     2
 10
-67.649035872846198
 20
107.3534905807789
 30
0.0
 11
-16.649033424317111
 21
107.3534905807789
 31
0.0
  0
LINE
  5
1A484
  8
OS
  6
CONTINUOUS
 62
     2
 10
-67.649035872846198
 20
117.8534905807789
 30
0.0
 11
-16.649033424317111
 21
117.8534905807789
 31
0.0
  0
LINE
  5
1A485
  8
OS
  6
CONTINUOUS
 62
     2
 10
-67.649035872846198
 20
105.3534905807789
 30
0.0
 11
-16.649033424317111
 21
105.3534905807789
 31
0.0
  0
LINE
  5
1A486
  8
OS
  6
CONTINUOUS
 62
     2
 10
-67.649035872846198
 20
115.8534905807789
 30
0.0
 11
-16.649033424317111
 21
115.8534905807789
 31
0.0
  0
LINE
  5
1A487
  8
OS
  6
CONTINUOUS
 62
     2
 10
-16.6490639418871
 20
93.353494395475991
 30
0.0
 11
-21.6490639418871
 21
-11.64651323391808
 31
0.0
  0
LINE
  5
1A488
  8
OS
  6
CONTINUOUS
 62
     2
 10
-21.649033424317111
 20
93.353490580778967
 30
0.0
 11
-21.649033424317111
 21
-11.646509419221021
 31
0.0
  0
LINE
  5
1A489
  8
OS
  6
CONTINUOUS
 62
     2
 10
-249.34046714770679
 20
212.66086217970511
 30
0.0
 11
-324.9405093246433
 21
176.66072456450141
 31
0.0
  0
LINE
  5
1A48A
  8
OS
  6
CONTINUOUS
 62
     2
 10
-219.9405627304053
 20
176.66086237043979
 30
0.0
 11
-324.9405627304053
 21
176.66086237043979
 31
0.0
  0
LINE
  5
1A48B
  8
OS
  6
CONTINUOUS
 62
     2
 10
-219.9405551010112
 20
171.6609067588638
 30
0.0
 11
-324.9405627304053
 21
176.660907193133
 31
0.0
  0
LINE
  5
1A48C
  8
OS
  6
CONTINUOUS
 62
     2
 10
-324.9405627304053
 20
212.66086217970511
 30
0.0
 11
-324.9405627304053
 21
171.66086237043999
 31
0.0
  0
LINE
  5
1A48D
  8
OS
  6
CONTINUOUS
 62
     2
 10
-338.9405627304053
 20
212.66086217970511
 30
0.0
 11
-338.9405627304053
 21
171.66086237043999
 31
0.0
  0
LINE
  5
1A48E
  8
OS
  6
CONTINUOUS
 62
     2
 10
-336.9405627304053
 20
212.66086217970511
 30
0.0
 11
-336.9405627304053
 21
171.66086237043999
 31
0.0
  0
LINE
  5
1A48F
  8
OS
  6
CONTINUOUS
 62
     2
 10
-349.4405627304053
 20
212.66086217970511
 30
0.0
 11
-349.4405627304053
 21
171.66086237043999
 31
0.0
  0
LINE
  5
1A490
  8
OS
  6
CONTINUOUS
 62
     2
 10
-347.4405627304053
 20
212.66086217970511
 30
0.0
 11
-347.4405627304053
 21
171.66086237043999
 31
0.0
  0
LINE
  5
1A491
  8
OS
  6
CONTINUOUS
 62
     2
 10
-195.4405627304053
 20
212.66086217970511
 30
0.0
 11
-195.4405627304053
 21
171.66086237043999
 31
0.0
  0
LINE
  5
1A492
  8
OS
  6
CONTINUOUS
 62
     2
 10
-205.9405627304053
 20
212.66086217970511
 30
0.0
 11
-205.9405627304053
 21
171.66086237043999
 31
0.0
  0
LINE
  5
1A493
  8
OS
  6
CONTINUOUS
 62
     2
 10
-197.4405627304053
 20
212.66086217970511
 30
0.0
 11
-197.4405627304053
 21
171.66086237043999
 31
0.0
  0
LINE
  5
1A494
  8
OS
  6
CONTINUOUS
 62
     2
 10
-207.9405627304053
 20
212.66086217970511
 30
0.0
 11
-207.9405627304053
 21
171.66086237043999
 31
0.0
  0
LINE
  5
1A495
  8
OS
  6
CONTINUOUS
 62
     2
 10
-219.9405627304053
 20
212.66086217970511
 30
0.0
 11
-219.9405627304053
 21
171.66086237043999
 31
0.0
  0
LINE
  5
1A496
  8
KI
  6
CONTINUOUS
 62
     7
 10
-229.18203783569101
 20
-26.561079756310669
 30
0.0
 11
-230.1405625396705
 21
-27.53913737139332
 31
0.0
  0
LINE
  5
1A497
  8
KI
  6
CONTINUOUS
 62
     7
 10
-248.6990876251198
 20
-26.561079756310669
 30
0.0
 11
-247.74056292114031
 21
-27.53913737139332
 31
0.0
  0
LINE
  5
1A498
  8
KI
  6
CONTINUOUS
 62
     7
 10
-233.94056273040511
 20
-27.539137438824849
 30
0.0
 11
-230.1405625396705
 21
-27.539137438824849
 31
0.0
  0
LINE
  5
1A499
  8
KI
  6
CONTINUOUS
 62
     7
 10
-229.34056234893541
 20
-26.239137486508561
 30
0.0
 11
-248.5405631118752
 21
-26.239137486508561
 31
0.0
  0
LINE
  5
1A49A
  8
KI
  6
CONTINUOUS
 62
     7
 10
-233.94056273040511
 20
-29.939137534192302
 30
0.0
 11
-233.94056273040511
 21
-27.539137438824849
 31
0.0
  0
LINE
  5
1A49B
  8
KI
  6
CONTINUOUS
 62
     7
 10
-234.74056292114039
 20
-27.539137438824849
 30
0.0
 11
-243.14056253967041
 21
-27.539137438824849
 31
0.0
  0
LINE
  5
1A49C
  8
KI
  6
CONTINUOUS
 62
     7
 10
-233.94056273040511
 20
-29.939137534192302
 30
0.0
 11
-233.7905631118752
 21
-30.025739983609402
 31
0.0
  0
LINE
  5
1A49D
  8
KI
  6
CONTINUOUS
 62
     7
 10
-247.74056292114031
 20
-27.539137438824849
 30
0.0
 11
-243.94056273040519
 21
-27.539137438824849
 31
0.0
  0
LINE
  5
1A49E
  8
KI
  6
CONTINUOUS
 62
     7
 10
-234.74056292114039
 20
-27.539137438824849
 30
0.0
 11
-234.74056292114039
 21
-31.33933670907328
 31
0.0
  0
LINE
  5
1A49F
  8
KI
  6
CONTINUOUS
 62
     7
 10
-233.650784974668
 20
-30.36319334893534
 30
0.0
 11
-234.2615675979589
 21
-32.642664984753821
 31
0.0
  0
LINE
  5
1A4A0
  8
KI
  6
CONTINUOUS
 62
     7
 10
-235.03430820045239
 20
-32.435609892895911
 30
0.0
 11
-234.74056244430301
 21
-31.33933670907328
 31
0.0
  0
LINE
  5
1A4A1
  8
KI
  6
CONTINUOUS
 62
     7
 10
-243.94056273040519
 20
-27.539137438824849
 30
0.0
 11
-243.94056273040519
 21
-29.939137534192302
 31
0.0
  0
LINE
  5
1A4A2
  8
KI
  6
CONTINUOUS
 62
     7
 10
-244.09056234893561
 20
-30.025739983609402
 30
0.0
 11
-243.94056273040519
 21
-29.939137534192302
 31
0.0
  0
LINE
  5
1A4A3
  8
KI
  6
CONTINUOUS
 62
     7
 10
-243.14056253967041
 20
-31.33933670907328
 30
0.0
 11
-243.14056253967041
 21
-27.539137438824849
 31
0.0
  0
LINE
  5
1A4A4
  8
KI
  6
CONTINUOUS
 62
     7
 10
-243.61955786285151
 20
-32.642664984753821
 30
0.0
 11
-244.23034048614261
 21
-30.36319334893534
 31
0.0
  0
LINE
  5
1A4A5
  8
KI
  6
CONTINUOUS
 62
     7
 10
-243.14056301650751
 20
-31.33933670907328
 30
0.0
 11
-242.84681726035831
 21
-32.435609892895911
 31
0.0
  0
ARC
  5
1A4A6
  8
KI
  6
CONTINUOUS
 62
     7
 10
-233.94056273040511
 20
-30.28554757027932
 30
0.0
 40
0.3000000119209
 50
344.99999958258559
 51
60.000001669651191
  0
ARC
  5
1A4A7
  8
KI
  6
CONTINUOUS
 62
     7
 10
-234.6479377799964
 20
-32.539137438824852
 30
0.0
 40
0.4000000059605
 50
164.9999943462611
 51
345.00001301559593
  0
ARC
  5
1A4A8
  8
KI
  6
CONTINUOUS
 62
     7
 10
-243.94056273040519
 20
-30.28554757027932
 30
0.0
 40
0.3000000119209
 50
120.00000333930259
 51
195.00000201127409
  0
ARC
  5
1A4A9
  8
KI
  6
CONTINUOUS
 62
     7
 10
-243.2331876808143
 20
-32.539137438824852
 30
0.0
 40
0.4000000059605
 50
195.00000565373881
 51
15.000000417414221
  0
ARC
  5
1A4AA
  8
KI
  6
CONTINUOUS
 62
     7
 10
-248.5405631118752
 20
-26.439137414983001
 30
0.0
 40
0.2000000029802
 50
90.000002504478417
 51
217.56858627440059
  0
ARC
  5
1A4AB
  8
KI
  6
CONTINUOUS
 62
     7
 10
-229.34056234893541
 20
-26.439137414983001
 30
0.0
 40
0.2000000029802
 50
322.4314084892772
 51
90.000002504478417
  0
LINE
  5
1A4AC
  8
KI
  6
CONTINUOUS
 62
     7
 10
-249.29913950500239
 20
-28.4190355101146
 30
0.0
 11
-248.4790387207008
 21
-29.239136294415569
 31
0.0
  0
LINE
  5
1A4AD
  8
KI
  6
CONTINUOUS
 62
     7
 10
-249.64056349334439
 20
-30.339136675885069
 30
0.0
 11
-249.64056349334439
 21
-28.560457781842558
 31
0.0
  0
LINE
  5
1A4AE
  8
KI
  6
CONTINUOUS
 62
     7
 10
-228.2405657821632
 20
-28.560457781842558
 30
0.0
 11
-228.2405657821632
 21
-30.339136675885069
 31
0.0
  0
LINE
  5
1A4AF
  8
KI
  6
CONTINUOUS
 62
     7
 10
-229.40208674011001
 20
-29.239138201764661
 30
0.0
 11
-228.58198595580839
 21
-28.419037417462668
 31
0.0
  0
LINE
  5
1A4B0
  8
KI
  6
CONTINUOUS
 62
     7
 10
-243.94056273040519
 20
-29.939138964703648
 30
0.0
 11
-243.94056273040519
 21
-28.439138964703648
 31
0.0
  0
LINE
  5
1A4B1
  8
KI
  6
CONTINUOUS
 62
     7
 10
-244.4405627304053
 20
-29.939138964703648
 30
0.0
 11
-243.94056273040519
 21
-29.939138964703648
 31
0.0
  0
LINE
  5
1A4B2
  8
KI
  6
CONTINUOUS
 62
     7
 10
-245.4405627304053
 20
-38.539137438824632
 30
0.0
 11
-245.4405627304053
 21
-29.539137438824639
 31
0.0
  0
LINE
  5
1A4B3
  8
KI
  6
CONTINUOUS
 62
     7
 10
-243.94056273040519
 20
-38.539137438824632
 30
0.0
 11
-239.24056196746591
 21
-38.539137438824632
 31
0.0
  0
LINE
  5
1A4B4
  8
KI
  6
CONTINUOUS
 62
     7
 10
-244.4405627304053
 20
-27.939138964703648
 30
0.0
 11
-247.9405627304053
 21
-27.939138964703648
 31
0.0
  0
LINE
  5
1A4B5
  8
KI
  6
CONTINUOUS
 62
     7
 10
-247.94056463775391
 20
-27.939138964703648
 30
0.0
 11
-249.6941189819305
 21
-26.185585574200609
 31
0.0
  0
LINE
  5
1A4B6
  8
KI
  6
CONTINUOUS
 62
     7
 10
-239.2405614608266
 20
-38.53913600831315
 30
0.0
 11
-238.9405615924405
 21
-38.839135841420152
 31
0.0
  0
LINE
  5
1A4B7
  8
KI
  6
CONTINUOUS
 62
     7
 10
-259.09053600031189
 20
-27.186780244356839
 30
0.0
 11
-255.44054365691829
 21
-26.03913553147656
 31
0.0
  0
LINE
  5
1A4B8
  8
KI
  6
CONTINUOUS
 62
     7
 10
-257.44054365691829
 20
-28.039137438824639
 30
0.0
 11
-259.44056273040542
 21
-28.039137438824639
 31
0.0
  0
LINE
  5
1A4B9
  8
KI
  6
CONTINUOUS
 62
     7
 10
-244.4405627304053
 20
-29.939138964703648
 30
0.0
 11
-244.4405627304053
 21
-38.039137438824639
 31
0.0
  0
LINE
  5
1A4BA
  8
KI
  6
CONTINUOUS
 62
     7
 10
-255.44054365691829
 20
-26.039137438824628
 30
0.0
 11
-250.0476718002293
 21
-26.039137438824628
 31
0.0
  0
LINE
  5
1A4BB
  8
KI
  6
CONTINUOUS
 62
     7
 10
-233.94056273040511
 20
-28.439138964703648
 30
0.0
 11
-233.94056273040511
 21
-29.939138964703648
 31
0.0
  0
LINE
  5
1A4BC
  8
KI
  6
CONTINUOUS
 62
     7
 10
-233.94056273040511
 20
-29.939138964703648
 30
0.0
 11
-233.44056273040519
 21
-29.939138964703648
 31
0.0
  0
LINE
  5
1A4BD
  8
KI
  6
CONTINUOUS
 62
     7
 10
-232.44056273040539
 20
-29.539137438824639
 30
0.0
 11
-232.44056273040539
 21
-38.539137438824632
 31
0.0
  0
LINE
  5
1A4BE
  8
KI
  6
CONTINUOUS
 62
     7
 10
-238.6405634933449
 20
-38.539137438824632
 30
0.0
 11
-233.94056273040511
 21
-38.539137438824632
 31
0.0
  0
LINE
  5
1A4BF
  8
KI
  6
CONTINUOUS
 62
     7
 10
-229.9405627304053
 20
-27.939138964703648
 30
0.0
 11
-233.44056273040519
 21
-27.939138964703648
 31
0.0
  0
LINE
  5
1A4C0
  8
KI
  6
CONTINUOUS
 62
     7
 10
-228.1870093399034
 20
-26.185583666852661
 30
0.0
 11
-229.9405665451028
 21
-27.93913991837865
 31
0.0
  0
LINE
  5
1A4C1
  8
KI
  6
CONTINUOUS
 62
     7
 10
-238.9405615924405
 20
-38.839135841420152
 30
0.0
 11
-238.64056236085631
 21
-38.539136604359598
 31
0.0
  0
LINE
  5
1A4C2
  8
KI
  6
CONTINUOUS
 62
     7
 10
-222.44058561858941
 20
-26.039140299847691
 30
0.0
 11
-218.7905894902446
 21
-27.18678595267766
 31
0.0
  0
LINE
  5
1A4C3
  8
KI
  6
CONTINUOUS
 62
     7
 10
-218.4405627304053
 20
-28.039137438824639
 30
0.0
 11
-220.44058561858941
 21
-28.039137438824639
 31
0.0
  0
LINE
  5
1A4C4
  8
KI
  6
CONTINUOUS
 62
     7
 10
-233.44056273040519
 20
-38.039137438824639
 30
0.0
 11
-233.44056273040519
 21
-29.939138964703648
 31
0.0
  0
LINE
  5
1A4C5
  8
KI
  6
CONTINUOUS
 62
     7
 10
-233.44056273040519
 20
-39.539137438824639
 30
0.0
 11
-244.4405627304053
 21
-39.539137438824639
 31
0.0
  0
LINE
  5
1A4C6
  8
KI
  6
CONTINUOUS
 62
     7
 10
-227.8334536605814
 20
-26.039137438824628
 30
0.0
 11
-222.44058561858941
 21
-26.039137438824628
 31
0.0
  0
LINE
  5
1A4C7
  8
KI
  6
CONTINUOUS
 62
     7
 10
-227.44056273040519
 20
-30.339136675885069
 30
0.0
 11
-227.44056273040519
 21
-27.639135912946632
 31
0.0
  0
LINE
  5
1A4C8
  8
KI
  6
CONTINUOUS
 62
     7
 10
-227.14055967864829
 20
-27.339136675885641
 30
0.0
 11
-222.44058561858941
 21
-27.339136675885641
 31
0.0
  0
LINE
  5
1A4C9
  8
KI
  6
CONTINUOUS
 62
     7
 10
-222.44058561858941
 20
-27.339138583234611
 30
0.0
 11
-220.44058561858941
 21
-28.03913839249963
 31
0.0
  0
LINE
  5
1A4CA
  8
KI
  6
CONTINUOUS
 62
     7
 10
-229.40208769378421
 20
-29.239138201764661
 30
0.0
 11
-232.14055967864741
 21
-29.239138201764661
 31
0.0
  0
LINE
  5
1A4CB
  8
KI
  6
CONTINUOUS
 62
     7
 10
-245.74056196746591
 20
-29.239138201764661
 30
0.0
 11
-248.47904158172381
 21
-29.239138201764661
 31
0.0
  0
LINE
  5
1A4CC
  8
KI
  6
CONTINUOUS
 62
     7
 10
-250.44056273040519
 20
-27.639135912946632
 30
0.0
 11
-250.44056273040519
 21
-30.339136675885069
 31
0.0
  0
LINE
  5
1A4CD
  8
KI
  6
CONTINUOUS
 62
     7
 10
-255.44054365691829
 20
-27.339136675885641
 30
0.0
 11
-250.7405619674654
 21
-27.339136675885641
 31
0.0
  0
LINE
  5
1A4CE
  8
KI
  6
CONTINUOUS
 62
     7
 10
-257.44054365691829
 20
-28.039137438824639
 30
0.0
 11
-255.4405417495704
 21
-27.339136675885641
 31
0.0
  0
ARC
  5
1A4CF
  8
KI
  6
CONTINUOUS
 62
     7
 10
-228.44056273040539
 20
-28.560457781842558
 30
0.0
 40
0.2000000029802
 50
0.0
 51
135.00000034162241
  0
ARC
  5
1A4D0
  8
KI
  6
CONTINUOUS
 62
     7
 10
-249.44056273040539
 20
-28.560457781842558
 30
0.0
 40
0.2000000029802
 50
45.000001252236032
 51
180.0000050089568
  0
ARC
  5
1A4D1
  8
KI
  6
CONTINUOUS
 62
     7
 10
-250.7405619674654
 20
-27.639135912946632
 30
0.0
 40
0.3000000119209
 50
0.0
 51
90.000002504478417
  0
ARC
  5
1A4D2
  8
KI
  6
CONTINUOUS
 62
     7
 10
-227.14055967864829
 20
-27.639135912946632
 30
0.0
 40
0.3000000119209
 50
90.000002504478417
 51
180.0000050089568
  0
ARC
  5
1A4D3
  8
KI
  6
CONTINUOUS
 62
     7
 10
-245.74056196746591
 20
-29.539137438824639
 30
0.0
 40
0.3000000119209
 50
0.0
 51
90.000002504478417
  0
ARC
  5
1A4D4
  8
KI
  6
CONTINUOUS
 62
     7
 10
-232.14055967864741
 20
-29.539137438824639
 30
0.0
 40
0.3000000119209
 50
90.000002504478417
 51
180.0000050089568
  0
ARC
  5
1A4D5
  8
KI
  6
CONTINUOUS
 62
     7
 10
-250.0476718002293
 20
-26.539137438824639
 30
0.0
 40
0.5
 50
45.000001252236032
 51
90.000002504478417
  0
ARC
  5
1A4D6
  8
KI
  6
CONTINUOUS
 62
     7
 10
-227.8334536605814
 20
-26.539137438824639
 30
0.0
 40
0.5
 50
90.000002504478417
 51
135.00000034162241
  0
ARC
  5
1A4D7
  8
KI
  6
CONTINUOUS
 62
     7
 10
-244.4405627304053
 20
-28.439138964703648
 30
0.0
 40
0.5
 50
0.0
 51
90.000002504478417
  0
ARC
  5
1A4D8
  8
KI
  6
CONTINUOUS
 62
     7
 10
-243.94056273040519
 20
-38.039137438824639
 30
0.0
 40
0.5
 50
179.99999134857859
 51
270.00000068324613
  0
ARC
  5
1A4D9
  8
KI
  6
CONTINUOUS
 62
     7
 10
-244.4405627304053
 20
-38.539137438824632
 30
0.0
 40
1.0
 50
179.99999134857859
 51
270.00000068324613
  0
ARC
  5
1A4DA
  8
KI
  6
CONTINUOUS
 62
     7
 10
-233.44056273040519
 20
-28.439138964703648
 30
0.0
 40
0.5
 50
90.000002504478417
 51
180.0000050089568
  0
ARC
  5
1A4DB
  8
KI
  6
CONTINUOUS
 62
     7
 10
-233.94056273040511
 20
-38.039137438824639
 30
0.0
 40
0.5
 50
269.99999749552143
 51
0.0
  0
ARC
  5
1A4DC
  8
KI
  6
CONTINUOUS
 62
     7
 10
-233.44056273040519
 20
-38.539137438824632
 30
0.0
 40
1.0
 50
269.99999749552143
 51
0.0
  0
ARC
  5
1A4DD
  8
KI
  6
CONTINUOUS
 62
     7
 10
-227.84056425628441
 20
-30.339136675885069
 30
0.0
 40
0.4000000059605
 50
179.99999134857859
 51
0.0000100179073766
  0
ARC
  5
1A4DE
  8
KI
  6
CONTINUOUS
 62
     7
 10
-250.04056501922341
 20
-30.339136675885069
 30
0.0
 40
0.4000000059605
 50
179.99999134857859
 51
0.0000100179073766
  0
LINE
  5
1A4DF
  8
KI
  6
CONTINUOUS
 62
     7
 10
-259.44056273040542
 20
-27.663758250467652
 30
0.0
 11
-259.44056273040542
 21
-28.039137438824639
 31
0.0
  0
LINE
  5
1A4E0
  8
KI
  6
CONTINUOUS
 62
     7
 10
-218.4405627304053
 20
-27.663763968141389
 30
0.0
 11
-218.4405627304053
 21
-28.039137438824639
 31
0.0
  0
ARC
  5
1A4E1
  8
KI
  6
CONTINUOUS
 62
     7
 10
-218.94056273040519
 20
-27.663763968141389
 30
0.0
 40
0.5
 50
0.0
 51
72.545611362732089
1001
GENIUS_GENODEF_13
1002
{
1000
HIER
1070
     0
1002
}
1002
{
1000
MANEDIT
1070
     0
1002
}
1002
{
1000
NOSEL
1070
     0
1002
}
1002
{
1000
BEHIND
1070
     0
1002
}
1002
{
1000
OTHER
1070
     0
1002
}
1002
{
1000
REACTOR
1002
}
1001
GENIUS_GENOBJ-N-FIL_13
1002
{
1000
OWNER
1000
GEN
1002
}
  0
ARC
  5
1A4E2
  8
KI
  6
CONTINUOUS
 62
     7
 10
-258.94056273040542
 20
-27.663758250467652
 30
0.0
 40
0.5
 50
107.4543922104195
 51
180.0
1001
GENIUS_GENODEF_13
1002
{
1000
HIER
1070
     0
1002
}
1002
{
1000
MANEDIT
1070
     0
1002
}
1002
{
1000
NOSEL
1070
     0
1002
}
1002
{
1000
BEHIND
1070
     0
1002
}
1002
{
1000
OTHER
1070
     0
1002
}
1002
{
1000
REACTOR
1002
}
1001
GENIUS_GENOBJ-N-FIL_13
1002
{
1000
OWNER
1000
GEN
1002
}
  0
LINE
  5
1A4E3
  8
KI
  6
CONTINUOUS
 62
     7
 10
-330.44056273040542
 20
-174.89107837422071
 30
0.0
 11
-277.44056273040559
 21
-174.89107837422071
 31
0.0
  0
LINE
  5
1A4E4
  8
KI
  6
CONTINUOUS
 62
     7
 10
-327.94056273040542
 20
-159.89107837422071
 30
0.0
 11
-186.94056273040559
 21
-159.89107837422071
 31
0.0
  0
LINE
  5
1A4E5
  8
KI
  6
CONTINUOUS
 62
     7
 10
-184.4405627304053
 20
-162.39108028156971
 30
0.0
 11
-184.4405627304053
 21
-174.89107837422071
 31
0.0
  0
LINE
  5
1A4E6
  8
KI
  6
CONTINUOUS
 62
     7
 10
-330.44056273040542
 20
-162.39107837422071
 30
0.0
 11
-330.44056273040542
 21
-174.89107837422071
 31
0.0
  0
LINE
  5
1A4E7
  8
KI
  6
CONTINUOUS
 62
     7
 10
-330.4405551010106
 20
-162.39106502278071
 30
0.0
 11
-327.94056273040542
 21
-159.8910736058497
 31
0.0
  0
LINE
  5
1A4E8
  8
KI
  6
CONTINUOUS
 62
     7
 10
-186.9405703598004
 20
-159.89107265217569
 30
0.0
 11
-184.4405779891955
 21
-162.39106502278071
 31
0.0
  0
LINE
  5
1A4E9
  8
KI
  6
CONTINUOUS
 62
     7
 10
-237.44056273040559
 20
-171.39107837422071
 30
0.0
 11
-237.44056273040559
 21
-174.89107837422071
 31
0.0
  0
LINE
  5
1A4EA
  8
KI
  6
CONTINUOUS
 62
     7
 10
-277.44056273040559
 20
-171.39107837422071
 30
0.0
 11
-277.44056273040559
 21
-174.89107837422071
 31
0.0
  0
LINE
  5
1A4EB
  8
KI
  6
CONTINUOUS
 62
     7
 10
-277.44056273040559
 20
-171.39107837422071
 30
0.0
 11
-237.44056273040559
 21
-171.39107837422071
 31
0.0
  0
LINE
  5
1A4EC
  8
KI
  6
CONTINUOUS
 62
     7
 10
-237.44056273040559
 20
-174.89107837422071
 30
0.0
 11
-184.4405627304053
 21
-174.89107837422071
 31
0.0
  0
LINE
  5
1A4ED
  8
SU
  6
CONTINUOUS
 62
     3
 10
-205.44056273040539
 20
-29.339137629559708
 30
0.0
 11
-205.44056273040539
 21
-63.339137629558699
 31
0.0
  0
LINE
  5
1A4EE
  8
SU
  6
CONTINUOUS
 62
     3
 10
-205.44056273040539
 20
-60.339137629558707
 30
0.0
 11
-181.44056273040511
 21
-60.339137629558707
 31
0.0
  0
LINE
  5
1A4EF
  8
SU
  6
CONTINUOUS
 62
     3
 10
-187.94056273040539
 20
119.1608623704401
 30
0.0
 11
-143.44056273040391
 21
119.1608623704401
 31
0.0
  0
LINE
  5
1A4F0
  8
SU
  6
CONTINUOUS
 62
     3
 10
-146.440562730404
 20
126.1608623704401
 30
0.0
 11
-146.440562730404
 21
119.1608623704401
 31
0.0
  0
LINE
  5
1A4F1
  8
SU
  6
CONTINUOUS
 62
     3
 10
423.35096657568391
 20
-121.1465210450433
 30
0.0
 11
433.35096657568403
 21
-115.1465210450433
 31
0.0
  0
LINE
  5
1A4F2
  8
SU
  6
CONTINUOUS
 62
     3
 10
423.35096657568391
 20
-109.1465210450432
 30
0.0
 11
433.35096657568403
 21
-115.1465210450433
 31
0.0
  0
LINE
  5
1A4F3
  8
SU
  6
CONTINUOUS
 62
     3
 10
423.35096657568391
 20
-121.1465210450433
 30
0.0
 11
423.35096657568391
 21
-109.1465210450432
 31
0.0
  0
LINE
  5
1A4F4
  8
SU
  6
CONTINUOUS
 62
     3
 10
409.35078984856108
 20
-100.1465210450433
 30
0.0
 11
433.35078986414982
 21
-100.1465210450433
 31
0.0
  0
LINE
  5
1A4F5
  8
SU
  6
CONTINUOUS
 62
     3
 10
21.350966575684151
 20
-5.6465094192209371
 30
0.0
 11
43.35096657568414
 21
-5.6465094192209442
 31
0.0
  0
LINE
  5
1A4F6
  8
SU
  6
CONTINUOUS
 62
     3
 10
21.350966575684151
 20
18.353490580781401
 30
0.0
 11
43.35096657568414
 21
18.353490580781401
 31
0.0
  0
LINE
  5
1A4F7
  8
SU
  6
CONTINUOUS
 62
     3
 10
40.350966575684147
 20
-5.6465094192209424
 30
0.0
 11
40.350966575684147
 21
18.353490580781401
 31
0.0
  0
LINE
  5
1A4F8
  8
SU
  6
CONTINUOUS
 62
     3
 10
40.350966575684147
 20
-9.6465094192049143
 30
0.0
 11
40.350966575684147
 21
-5.6465094192209424
 31
0.0
  0
LINE
  5
1A4F9
  8
SU
  6
CONTINUOUS
 62
     3
 10
40.350966575684147
 20
-7.6465094192129284
 30
0.0
 11
55.350966575684147
 21
-2.6371365317535962
 31
0.0
  0
LINE
  5
1A4FA
  8
SU
  6
CONTINUOUS
 62
     3
 10
55.350966575684147
 20
-2.6371365317535962
 30
0.0
 11
55.350966575684147
 21
2.33429203967497
 31
0.0
  0
LINE
  5
1A4FB
  8
SU
  6
CONTINUOUS
 62
     3
 10
40.350966575684147
 20
-9.6465094192049143
 30
0.0
 11
40.350966575684147
 21
-42.646509419204911
 31
0.0
  0
LINE
  5
1A4FC
  8
SU
  6
CONTINUOUS
 62
     3
 10
40.350966575684147
 20
-42.646509419204911
 30
0.0
 11
40.350966575684147
 21
-50.146509419221061
 31
0.0
  0
LINE
  5
1A4FD
  8
SU
  6
CONTINUOUS
 62
     3
 10
40.350966575684147
 20
-50.146509419221061
 30
0.0
 11
40.350966575684147
 21
-62.102699895411533
 31
0.0
  0
LINE
  5
1A4FE
  8
SU
  6
CONTINUOUS
 62
     3
 10
-6.6490334243160873
 20
-121.1465210450433
 30
0.0
 11
-16.64903342431608
 21
-115.1465210450433
 31
0.0
  0
LINE
  5
1A4FF
  8
SU
  6
CONTINUOUS
 62
     3
 10
-6.6490334243160873
 20
-109.1465210450432
 30
0.0
 11
-16.64903342431608
 21
-115.1465210450433
 31
0.0
  0
LINE
  5
1A500
  8
SU
  6
CONTINUOUS
 62
     3
 10
-6.6490334243160873
 20
-121.1465210450433
 30
0.0
 11
-6.6490334243160873
 21
-109.1465210450432
 31
0.0
  0
LINE
  5
1A501
  8
SU
  6
CONTINUOUS
 62
     3
 10
7.3509665756839251
 20
-51.146509419220479
 30
0.0
 11
7.3509665756839233
 21
-103.1465210450432
 31
0.0
  0
LINE
  5
1A502
  8
SU
  6
CONTINUOUS
 62
     3
 10
11.350966591270611
 20
-100.1465210450433
 30
0.0
 11
7.3509665756839233
 21
-100.1465210450433
 31
0.0
  0
LINE
  5
1A503
  8
SU
  6
CONTINUOUS
 62
     3
 10
9.3509665834772662
 20
-100.1465210450433
 30
0.0
 11
14.050966591270591
 21
-85.146521045043301
 31
0.0
  0
LINE
  5
1A504
  8
SU
  6
CONTINUOUS
 62
     3
 10
14.050966591270591
 20
-85.146521045043301
 30
0.0
 11
19.022395162699169
 21
-85.146521045043301
 31
0.0
  0
LINE
  5
1A505
  8
SU
  6
CONTINUOUS
 62
     3
 10
7.350966591270617
 20
-100.1465210450433
 30
0.0
 11
-16.649033424316301
 21
-100.1465210450433
 31
0.0
  0
LINE
  5
1A506
  8
SU
  6
CONTINUOUS
 62
     3
 10
-16.64903342431607
 20
-51.14650941922104
 30
0.0
 11
-16.64903342431607
 21
-118.1465210450433
 31
0.0
  0
LINE
  5
1A507
  8
SU
  6
CONTINUOUS
 62
     3
 10
433.35096657568403
 20
-51.14650941922104
 30
0.0
 11
433.35096657568403
 21
-118.1465210450433
 31
0.0
  0
LINE
  5
1A508
  8
SU
  6
CONTINUOUS
 62
     3
 10
-16.64903342431607
 20
-115.1465210450433
 30
0.0
 11
433.35096657568403
 21
-115.1465210450433
 31
0.0
  0
LINE
  5
1A509
  8
SU
  6
CONTINUOUS
 62
     3
 10
7.3509665756841533
 20
132.8534905807787
 30
0.0
 11
7.350966575684156
 21
154.85349058077901
 31
0.0
  0
LINE
  5
1A50A
  8
SU
  6
CONTINUOUS
 62
     3
 10
20.350966575684151
 20
19.35349058077859
 30
0.0
 11
20.350966575684161
 21
154.85349058077901
 31
0.0
  0
LINE
  5
1A50B
  8
SU
  6
CONTINUOUS
 62
     3
 10
7.3509665756841551
 20
151.85349058077901
 30
0.0
 11
20.350966575684161
 21
151.85349058077901
 31
0.0
  0
LINE
  5
1A50C
  8
SU
  6
CONTINUOUS
 62
     3
 10
8.3509665756841542
 20
131.85349058077901
 30
0.0
 11
72.3509690242131
 21
131.85349058077901
 31
0.0
  0
LINE
  5
1A50D
  8
SU
  6
CONTINUOUS
 62
     3
 10
8.3509665756839286
 20
-50.146509419221047
 30
0.0
 11
72.350969024213072
 21
-50.146509419221061
 31
0.0
  0
LINE
  5
1A50E
  8
SU
  6
CONTINUOUS
 62
     3
 10
69.3509690242131
 20
131.85349058077901
 30
0.0
 11
69.350969024213072
 21
-50.146509419221061
 31
0.0
  0
LINE
  5
1A50F
  8
SU
  6
CONTINUOUS
 62
     3
 10
409.3507898641497
 20
132.8534905807787
 30
0.0
 11
409.3507898641497
 21
154.8534905807789
 31
0.0
  0
LINE
  5
1A510
  8
SU
  6
CONTINUOUS
 62
     3
 10
396.35078986414942
 20
19.353490580778601
 30
0.0
 11
396.35078986414942
 21
154.8534905807789
 31
0.0
  0
LINE
  5
1A511
  8
SU
  6
CONTINUOUS
 62
     3
 10
409.3507898641497
 20
151.8534905807789
 30
0.0
 11
396.35078986414942
 21
151.8534905807789
 31
0.0
  0
LINE
  5
1A512
  8
SU
  6
CONTINUOUS
 62
     3
 10
40.350966575684133
 20
18.353490580781401
 30
0.0
 11
40.350966575684147
 21
131.85349058077901
 31
0.0
  0
LINE
  5
1A513
  8
SU
  6
CONTINUOUS
 62
     3
 10
-137.4405627304053
 20
161.6608623704401
 30
0.0
 11
-131.44056273040511
 21
171.66086237043999
 31
0.0
  0
LINE
  5
1A514
  8
SU
  6
CONTINUOUS
 62
     3
 10
-125.4405627304052
 20
161.6608623704401
 30
0.0
 11
-131.44056273040511
 21
171.66086237043999
 31
0.0
  0
LINE
  5
1A515
  8
SU
  6
CONTINUOUS
 62
     3
 10
-137.4405627304053
 20
161.6608623704401
 30
0.0
 11
-125.4405627304052
 21
161.6608623704401
 31
0.0
  0
LINE
  5
1A516
  8
SU
  6
CONTINUOUS
 62
     3
 10
-87.649035872844976
 20
105.3534905807789
 30
0.0
 11
-87.649035872844976
 21
117.8534905807789
 31
0.0
  0
LINE
  5
1A517
  8
SU
  6
CONTINUOUS
 62
     3
 10
-87.649035872844976
 20
117.8534905807789
 30
0.0
 11
-87.649035872844948
 21
143.584975270439
 31
0.0
  0
LINE
  5
1A518
  8
SU
  6
CONTINUOUS
 62
     3
 10
-188.94056273040539
 20
87.160862204457359
 30
0.0
 11
-184.4405627304053
 21
87.160862204457359
 31
0.0
  0
LINE
  5
1A519
  8
SU
  6
CONTINUOUS
 62
     3
 10
-184.4405627304053
 20
87.160862204457359
 30
0.0
 11
-172.4843722542148
 21
87.160862204457359
 31
0.0
  0
LINE
  5
1A51A
  8
SU
  6
CONTINUOUS
 62
     3
 10
-225.94056273040539
 20
87.160862204457359
 30
0.0
 11
-221.94056273040539
 21
87.160862204457359
 31
0.0
  0
LINE
  5
1A51B
  8
SU
  6
CONTINUOUS
 62
     3
 10
-249.9405627304053
 20
87.160862204457359
 30
0.0
 11
-225.94056273040539
 21
87.160862204457359
 31
0.0
  0
LINE
  5
1A51C
  8
SU
  6
CONTINUOUS
 62
     3
 10
-184.4405627304053
 20
72.160862204457359
 30
0.0
 11
-181.44056273040511
 21
72.160862204457359
 31
0.0
  0
LINE
  5
1A51D
  8
SU
  6
CONTINUOUS
 62
     3
 10
-181.44056273040511
 20
72.160862204457359
 30
0.0
 11
-174.22722939707191
 21
72.160862204457359
 31
0.0
  0
LINE
  5
1A51E
  8
SU
  6
CONTINUOUS
 62
     3
 10
-183.44056273040511
 20
147.66086237043999
 30
0.0
 11
-143.44056273040391
 21
147.66086237043999
 31
0.0
  0
LINE
  5
1A51F
  8
SU
  6
CONTINUOUS
 62
     3
 10
-146.440562730404
 20
147.66086237043999
 30
0.0
 11
-146.440562730404
 21
171.66086237043999
 31
0.0
  0
LINE
  5
1A520
  8
SU
  6
CONTINUOUS
 62
     3
 10
-190.4405627304057
 20
126.1608623704405
 30
0.0
 11
-143.44056273040391
 21
126.1608623704404
 31
0.0
  0
LINE
  5
1A521
  8
SU
  6
CONTINUOUS
 62
     3
 10
-146.440562730404
 20
126.1608623704404
 30
0.0
 11
-146.440562730404
 21
147.66086237043999
 31
0.0
  0
LINE
  5
1A522
  8
SU
  6
CONTINUOUS
 62
     3
 10
-360.44056273040519
 20
72.160862204457359
 30
0.0
 11
-363.44056273040491
 21
72.160862204457359
 31
0.0
  0
LINE
  5
1A523
  8
SU
  6
CONTINUOUS
 62
     3
 10
-363.44056273040491
 20
72.160862204457359
 30
0.0
 11
-370.65389606373827
 21
72.160862204457359
 31
0.0
  0
LINE
  5
1A524
  8
SU
  6
CONTINUOUS
 62
     3
 10
-184.4405627304053
 20
146.66086237043999
 30
0.0
 11
-184.4405627304053
 21
69.160862204457359
 31
0.0
  0
LINE
  5
1A525
  8
SU
  6
CONTINUOUS
 62
     3
 10
-360.44056273040519
 20
146.66086237043999
 30
0.0
 11
-360.44056273040519
 21
69.160862204457359
 31
0.0
  0
LINE
  5
1A526
  8
SU
  6
CONTINUOUS
 62
     3
 10
-184.4405627304053
 20
72.160862204457359
 30
0.0
 11
-360.44056273040519
 21
72.160862204457359
 31
0.0
  0
LINE
  5
1A527
  8
SU
  6
CONTINUOUS
 62
     3
 10
-360.44056273040519
 20
87.160862204457359
 30
0.0
 11
-249.9405627304053
 21
87.160862204457359
 31
0.0
  0
LINE
  5
1A528
  8
SU
  6
CONTINUOUS
 62
     3
 10
-137.44056273040539
 20
-18.339137629559598
 30
0.0
 11
-131.44056273040539
 21
-28.339137629559598
 31
0.0
  0
LINE
  5
1A529
  8
SU
  6
CONTINUOUS
 62
     3
 10
-125.4405627304054
 20
-18.339137629559598
 30
0.0
 11
-131.44056273040539
 21
-28.339137629559598
 31
0.0
  0
LINE
  5
1A52A
  8
SU
  6
CONTINUOUS
 62
     3
 10
-137.44056273040539
 20
-18.339137629559598
 30
0.0
 11
-125.4405627304054
 21
-18.339137629559598
 31
0.0
  0
LINE
  5
1A52B
  8
SU
  6
CONTINUOUS
 62
     3
 10
-161.44056273040539
 20
-40.339137629559502
 30
0.0
 11
-128.44056273040539
 21
-40.339137629559502
 31
0.0
  0
LINE
  5
1A52C
  8
SU
  6
CONTINUOUS
 62
     3
 10
-131.44056273040539
 20
-28.33913762955973
 30
0.0
 11
-131.44056273040539
 21
-40.339137629559502
 31
0.0
  0
LINE
  5
1A52D
  8
SU
  6
CONTINUOUS
 62
     3
 10
-137.44056273040511
 20
-152.89107837422071
 30
0.0
 11
-131.44056273040511
 21
-162.89107837422071
 31
0.0
  0
LINE
  5
1A52E
  8
SU
  6
CONTINUOUS
 62
     3
 10
-125.4405627304052
 20
-152.89107837422071
 30
0.0
 11
-131.44056273040511
 21
-162.89107837422071
 31
0.0
  0
LINE
  5
1A52F
  8
SU
  6
CONTINUOUS
 62
     3
 10
-137.44056273040511
 20
-152.89107837422071
 30
0.0
 11
-125.4405627304052
 21
-152.89107837422071
 31
0.0
  0
LINE
  5
1A530
  8
SU
  6
CONTINUOUS
 62
     3
 10
-252.74410798123679
 20
-26.039137042231062
 30
0.0
 11
-254.52801267479921
 21
-24.404489560044318
 31
0.0
  0
LINE
  5
1A531
  8
SU
  6
CONTINUOUS
 62
     3
 10
-252.74410798123679
 20
-26.039137042231062
 30
0.0
 11
-254.04450647399369
 21
-23.997920283645961
 31
0.0
  0
LINE
  5
1A532
  8
SU
  6
CONTINUOUS
 62
     3
 10
-259.44056273040542
 20
-27.03913743883259
 30
0.0
 11
-259.44056273040542
 21
-3.2391374865163121
 31
0.0
  0
LINE
  5
1A533
  8
SU
  6
CONTINUOUS
 62
     3
 10
-218.4405627304055
 20
-26.663763968149318
 30
0.0
 11
-218.4405627304055
 21
-3.2391374865163121
 31
0.0
  0
LINE
  5
1A534
  8
SU
  6
CONTINUOUS
 62
     3
 10
-259.44056273040542
 20
-6.2391374865163121
 30
0.0
 11
-218.4405627304055
 21
-6.2391374865163121
 31
0.0
  0
LINE
  5
1A535
  8
SU
  6
CONTINUOUS
 62
     3
 10
-223.7655401947811
 20
-170.9737533901193
 30
0.0
 11
-225.549444888343
 21
-169.33910590793241
 31
0.0
  0
LINE
  5
1A536
  8
SU
  6
CONTINUOUS
 62
     3
 10
-223.7655401947811
 20
-170.9737533901193
 30
0.0
 11
-225.06593868753751
 21
-168.93253663153411
 31
0.0
  0
LINE
  5
1A537
  8
SU
  6
CONTINUOUS
 62
     3
 10
-251.44056273040539
 20
-41.339137629559687
 30
0.0
 11
-251.44056273040539
 21
-78.339137629558707
 31
0.0
  0
LINE
  5
1A538
  8
SU
  6
CONTINUOUS
 62
     3
 10
-226.44056273040539
 20
-41.339137629559268
 30
0.0
 11
-226.44056273040539
 21
-78.339137629558707
 31
0.0
  0
LINE
  5
1A539
  8
SU
  6
CONTINUOUS
 62
     3
 10
-251.44056273040539
 20
-75.339137629558707
 30
0.0
 11
-226.44056273040539
 21
-75.339137629558707
 31
0.0
  0
LINE
  5
1A53A
  8
SU
  6
CONTINUOUS
 62
     3
 10
-181.44056273040511
 20
-41.339137629551331
 30
0.0
 11
-181.44056273040511
 21
-78.339137629558707
 31
0.0
  0
LINE
  5
1A53B
  8
SU
  6
CONTINUOUS
 62
     3
 10
-181.44056273040511
 20
-75.339137629558707
 30
0.0
 11
-226.44056273953311
 21
-75.339137629558707
 31
0.0
  0
LINE
  5
1A53C
  8
SU
  6
CONTINUOUS
 62
     3
 10
-146.4410301619836
 20
-151.8910788927374
 30
0.0
 11
-146.4410301619836
 21
-159.89107265217569
 31
0.0
  0
LINE
  5
1A53D
  8
SU
  6
CONTINUOUS
 62
     3
 10
-187.9405627304053
 20
-151.8910788927374
 30
0.0
 11
-143.44056261690091
 21
-151.8910788927374
 31
0.0
  0
LINE
  5
1A53E
  8
SU
  6
CONTINUOUS
 62
     3
 10
-146.4405626169011
 20
-87.891078374220854
 30
0.0
 11
-146.4405626169011
 21
-151.8910788927374
 31
0.0
  0
LINE
  5
1A53F
  8
SU
  6
CONTINUOUS
 62
     3
 10
-161.4405627304055
 20
-162.89107837422071
 30
0.0
 11
-128.44056273040511
 21
-162.89107837422071
 31
0.0
  0
LINE
  5
1A540
  8
SU
  6
CONTINUOUS
 62
     3
 10
-131.44056273040511
 20
-87.891078374220854
 30
0.0
 11
-131.44056273040511
 21
-162.89107837422071
 31
0.0
  0
LINE
  5
1A541
  8
SU
  6
CONTINUOUS
 62
     3
 10
-181.44056273953231
 20
-175.8910783742343
 30
0.0
 11
-181.44056273953231
 21
-212.8910783742277
 31
0.0
  0
LINE
  5
1A542
  8
SU
  6
CONTINUOUS
 62
     3
 10
-184.4405628439078
 20
-209.89107837422799
 30
0.0
 11
-181.44056273953231
 21
-209.89107837422799
 31
0.0
  0
LINE
  5
1A543
  8
SU
  6
CONTINUOUS
 62
     3
 10
-181.44056273953231
 20
-209.89107837422799
 30
0.0
 11
-174.22722940619931
 21
-209.89107837422799
 31
0.0
  0
LINE
  5
1A544
  8
SU
  6
CONTINUOUS
 62
     3
 10
-183.4405627304055
 20
-159.89107265217569
 30
0.0
 11
-143.44103027548641
 21
-159.89107265217569
 31
0.0
  0
LINE
  5
1A545
  8
SU
  6
CONTINUOUS
 62
     3
 10
-146.44103027548641
 20
-159.89107265217569
 30
0.0
 11
-146.44103027548641
 21
-162.89107837422071
 31
0.0
  0
LINE
  5
1A546
  8
SU
  6
CONTINUOUS
 62
     3
 10
-146.44103027548641
 20
-162.89107837422071
 30
0.0
 11
-146.44103027548641
 21
-170.10441170755391
 31
0.0
  0
LINE
  5
1A547
  8
SU
  6
CONTINUOUS
 62
     3
 10
-161.4405627304055
 20
-174.89107837422071
 30
0.0
 11
-128.44056273040511
 21
-174.89107837422071
 31
0.0
  0
LINE
  5
1A548
  8
SU
  6
CONTINUOUS
 62
     3
 10
-131.44056273040511
 20
-162.89107837422071
 30
0.0
 11
-131.44056273040511
 21
-174.89107837422071
 31
0.0
  0
LINE
  5
1A549
  8
SU
  6
CONTINUOUS
 62
     3
 10
-363.44056273040547
 20
-175.89107837421261
 30
0.0
 11
-363.44056273040547
 21
-212.8910783742277
 31
0.0
  0
LINE
  5
1A54A
  8
SU
  6
CONTINUOUS
 62
     3
 10
-363.44056273040547
 20
-209.89107837422799
 30
0.0
 11
-330.44056284390791
 21
-209.89107837422799
 31
0.0
  0
LINE
  5
1A54B
  8
SU
  6
CONTINUOUS
 62
     3
 10
-330.44056284390791
 20
-175.8910783742208
 30
0.0
 11
-330.44056284390791
 21
-212.8910783742277
 31
0.0
  0
LINE
  5
1A54C
  8
SU
  6
CONTINUOUS
 62
     3
 10
-184.44056283478039
 20
-175.8910783742208
 30
0.0
 11
-184.44056283478039
 21
-212.8910783742277
 31
0.0
  0
LINE
  5
1A54D
  8
SU
  6
CONTINUOUS
 62
     3
 10
-330.44056284390791
 20
-209.89107837422799
 30
0.0
 11
-184.44056283478039
 21
-209.89107837422799
 31
0.0
  0
LINE
  5
1A54E
  8
SU
  6
CONTINUOUS
 62
     3
 10
-180.4405627304053
 20
171.66086237043999
 30
0.0
 11
-128.4405627304053
 21
171.66086237043999
 31
0.0
  0
LINE
  5
1A54F
  8
SU
  6
CONTINUOUS
 62
     3
 10
-161.44056273040539
 20
-28.339137629559708
 30
0.0
 11
-128.44056273040539
 21
-28.33913762955973
 31
0.0
  0
LINE
  5
1A550
  8
SU
  6
CONTINUOUS
 62
     3
 10
-131.44056273040511
 20
171.66086237043999
 30
0.0
 11
-131.44056273040539
 21
-28.33913762955973
 31
0.0
  0
LINE
  5
1A551
  8
SU
  6
CONTINUOUS
 62
     3
 10
-187.940562843908
 20
-20.339137629559861
 30
0.0
 11
-143.44056273040391
 21
-20.339137629559861
 31
0.0
  0
LINE
  5
1A552
  8
SU
  6
CONTINUOUS
 62
     3
 10
-146.440562730404
 20
119.1608623704401
 30
0.0
 11
-146.440562730404
 21
-20.339137629559861
 31
0.0
  0
LINE
  5
1A553
  8
SU
  6
CONTINUOUS
 62
     3
 10
-68.649035872844976
 20
-11.646509419221021
 30
0.0
 11
-90.649035872845005
 21
-11.646509419221021
 31
0.0
  0
LINE
  5
1A554
  8
SU
  6
CONTINUOUS
 62
     3
 10
-68.649035872844976
 20
93.353490580778967
 30
0.0
 11
-90.649035872844948
 21
93.353490580778967
 31
0.0
  0
LINE
  5
1A555
  8
SU
  6
CONTINUOUS
 62
     3
 10
-87.649035872844976
 20
-11.646509419221021
 30
0.0
 11
-87.649035872844976
 21
93.353490580778967
 31
0.0
  0
LINE
  5
1A556
  8
SU
  6
CONTINUOUS
 62
     3
 10
-102.64903587284491
 20
117.8534905807789
 30
0.0
 11
-102.64903587284491
 21
-36.14650941922104
 31
0.0
  0
LINE
  5
1A557
  8
SU
  6
CONTINUOUS
 62
     3
 10
-68.649035872846198
 20
-36.14650941922104
 30
0.0
 11
-105.64903587284491
 21
-36.14650941922104
 31
0.0
  0
LINE
  5
1A558
  8
SU
  6
CONTINUOUS
 62
     3
 10
-17.649033424316059
 20
-50.146509419221047
 30
0.0
 11
-105.64903587284491
 21
-50.146509419221019
 31
0.0
  0
LINE
  5
1A559
  8
SU
  6
CONTINUOUS
 62
     3
 10
-102.64903587284491
 20
-36.14650941922104
 30
0.0
 11
-102.64903587284491
 21
-50.146509419221019
 31
0.0
  0
LINE
  5
1A55A
  8
SU
  6
CONTINUOUS
 62
     3
 10
-68.649035872846198
 20
117.8534905807789
 30
0.0
 11
-105.64903587284491
 21
117.8534905807789
 31
0.0
  0
LINE
  5
1A55B
  8
SU
  6
CONTINUOUS
 62
     3
 10
-17.649033424316059
 20
131.85349058078
 30
0.0
 11
-105.64903587284491
 21
131.85349058078
 31
0.0
  0
LINE
  5
1A55C
  8
SU
  6
CONTINUOUS
 62
     3
 10
-102.64903587284491
 20
117.8534905807789
 30
0.0
 11
-102.64903587284491
 21
131.85349058078
 31
0.0
  0
TEXT
  5
1A55D
  8
SU
  6
CONTINUOUS
 62
     3
 10
-103.949035872845
 20
121.3753953426844
 30
0.0
 40
4.0
  1
14
 50
90.0
 41
0.8299999999999999
  0
TEXT
  5
1A55E
  8
SU
  6
CONTINUOUS
 62
     3
 10
-103.9490358728446
 20
-46.624604657316247
 30
0.0
 40
4.0
  1
14
 50
90.0
 41
0.8299999999999999
  0
TEXT
  5
1A55F
  8
SU
  6
CONTINUOUS
 62
     3
 10
-103.9490358728446
 20
35.79444296173132
 30
0.0
 40
4.0
  1
154
 50
90.0
 41
0.8299999999999999
  0
TEXT
  5
1A560
  8
SU
  6
CONTINUOUS
 62
     3
 10
-88.949035872844988
 20
35.873490580778949
 30
0.0
 40
4.0
  1
105
 50
90.0
 41
0.8299999999999999
  0
TEXT
  5
1A561
  8
SU
  6
CONTINUOUS
 62
     3
 10
-147.74056273040401
 20
29.728005227582951
 30
0.0
 40
4.0
  1
ドアH（DH）=60.5
 50
90.0
 41
0.8299999999999999
  0
TEXT
  5
1A562
  8
SU
  6
CONTINUOUS
 62
     3
 10
-132.74056273040509
 20
69.921814751392631
 30
0.0
 40
4.0
  1
H
 50
90.0
 41
0.8299999999999999
  0
TEXT
  5
1A563
  8
SU
  6
CONTINUOUS
 62
     3
 10
-262.4205628393442
 20
-208.59107837422781
 30
0.0
 40
4.0
  1
146
 41
0.8299999999999999
  0
TEXT
  5
1A564
  8
SU
  6
CONTINUOUS
 62
     3
 10
-350.10246754906149
 20
-208.59107837422781
 30
0.0
 40
4.0
  1
33
 41
0.8299999999999999
  0
TEXT
  5
1A565
  8
SU
  6
CONTINUOUS
 62
     3
 10
-132.7405627304048
 20
-172.2901259932683
 30
0.0
 40
4.0
  1
12
 50
90.0
 41
0.8299999999999999
  0
TEXT
  5
1A566
  8
SU
  6
CONTINUOUS
 62
     3
 10
-147.74103027548639
 20
-169.27869742183981
 30
0.0
 40
4.0
  1
3
 50
90.0
 41
0.8299999999999999
  0
TEXT
  5
1A567
  8
SU
  6
CONTINUOUS
 62
     3
 10
-178.21484845381829
 20
-208.59107837422781
 30
0.0
 40
4.0
  1
3
 41
0.8299999999999999
  0
TEXT
  5
1A568
  8
SU
  6
CONTINUOUS
 62
     3
 10
-132.7405627304048
 20
-127.13012599326839
 30
0.0
 40
4.0
  1
H
 50
90.0
 41
0.8299999999999999
  0
TEXT
  5
1A569
  8
SU
  6
CONTINUOUS
 62
     3
 10
-147.740562616901
 20
-131.98536434776449
 30
0.0
 40
4.0
  1
ドアH（DH）
 50
90.0
 41
0.8299999999999999
  0
TEXT
  5
1A56A
  8
SU
  6
CONTINUOUS
 62
     3
 10
-147.7410301619839
 20
-157.4720281534089
 30
0.0
 40
4.0
  1
8
 50
90.0
 41
0.8299999999999999
  0
TEXT
  5
1A56B
  8
SU
  6
CONTINUOUS
 62
     3
 10
-207.10246749687391
 20
-74.039137629558709
 30
0.0
 40
4.0
  1
45
 41
0.8299999999999999
  0
TEXT
  5
1A56C
  8
SU
  6
CONTINUOUS
 62
     3
 10
-242.10246749231041
 20
-74.039137629558709
 30
0.0
 40
4.0
  1
25
 41
0.8299999999999999
  0
TEXT
  5
1A56D
  8
SU
  6
CONTINUOUS
 62
     3
 10
-241.62818177802441
 20
-4.9391374865163131
 30
0.0
 40
4.0
  1
41
 41
0.8299999999999999
  0
LINE
  5
1A56E
  8
SU
  6
CONTINUOUS
 62
     3
 10
-137.36119949714561
 20
-153.02335042965339
 30
0.0
 11
-125.5199259636647
 21
-153.02335042965339
 31
0.0
  0
LINE
  5
1A56F
  8
SU
  6
CONTINUOUS
 62
     3
 10
-137.24119949714529
 20
-153.22335042965301
 30
0.0
 11
-125.6399259636646
 21
-153.22335042965301
 31
0.0
  0
LINE
  5
1A570
  8
SU
  6
CONTINUOUS
 62
     3
 10
-137.1211994971456
 20
-153.42335042965331
 30
0.0
 11
-125.7599259636644
 21
-153.42335042965331
 31
0.0
  0
LINE
  5
1A571
  8
SU
  6
CONTINUOUS
 62
     3
 10
-137.00119949714551
 20
-153.6233504296533
 30
0.0
 11
-125.8799259636647
 21
-153.6233504296533
 31
0.0
  0
LINE
  5
1A572
  8
SU
  6
CONTINUOUS
 62
     3
 10
-136.8811994971455
 20
-153.823350429653
 30
0.0
 11
-125.99992596366459
 21
-153.823350429653
 31
0.0
  0
LINE
  5
1A573
  8
SU
  6
CONTINUOUS
 62
     3
 10
-136.76119949714541
 20
-154.02335042965339
 30
0.0
 11
-126.1199259636647
 21
-154.02335042965339
 31
0.0
  0
LINE
  5
1A574
  8
SU
  6
CONTINUOUS
 62
     3
 10
-136.64119949714561
 20
-154.22335042965301
 30
0.0
 11
-126.2399259636647
 21
-154.22335042965301
 31
0.0
  0
LINE
  5
1A575
  8
SU
  6
CONTINUOUS
 62
     3
 10
-136.5211994971456
 20
-154.42335042965331
 30
0.0
 11
-126.35992596366439
 21
-154.42335042965331
 31
0.0
  0
LINE
  5
1A576
  8
SU
  6
CONTINUOUS
 62
     3
 10
-136.40119949714551
 20
-154.6233504296533
 30
0.0
 11
-126.4799259636647
 21
-154.6233504296533
 31
0.0
  0
LINE
  5
1A577
  8
SU
  6
CONTINUOUS
 62
     3
 10
-136.28119949714531
 20
-154.823350429653
 30
0.0
 11
-126.5999259636644
 21
-154.823350429653
 31
0.0
  0
LINE
  5
1A578
  8
SU
  6
CONTINUOUS
 62
     3
 10
-136.16119949714559
 20
-155.02335042965331
 30
0.0
 11
-126.71992596366471
 21
-155.02335042965331
 31
0.0
  0
LINE
  5
1A579
  8
SU
  6
CONTINUOUS
 62
     3
 10
-136.0411994971455
 20
-155.22335042965301
 30
0.0
 11
-126.8399259636644
 21
-155.22335042965301
 31
0.0
  0
LINE
  5
1A57A
  8
SU
  6
CONTINUOUS
 62
     3
 10
-135.92119949714561
 20
-155.42335042965331
 30
0.0
 11
-126.9599259636644
 21
-155.42335042965331
 31
0.0
  0
LINE
  5
1A57B
  8
SU
  6
CONTINUOUS
 62
     3
 10
-135.80119949714521
 20
-155.6233504296533
 30
0.0
 11
-127.07992596366471
 21
-155.6233504296533
 31
0.0
  0
LINE
  5
1A57C
  8
SU
  6
CONTINUOUS
 62
     3
 10
-135.6811994971456
 20
-155.82335042965309
 30
0.0
 11
-127.1999259636644
 21
-155.82335042965309
 31
0.0
  0
LINE
  5
1A57D
  8
SU
  6
CONTINUOUS
 62
     3
 10
-135.56119949714559
 20
-156.02335042965331
 30
0.0
 11
-127.3199259636647
 21
-156.02335042965331
 31
0.0
  0
LINE
  5
1A57E
  8
SU
  6
CONTINUOUS
 62
     3
 10
-135.4411994971455
 20
-156.22335042965301
 30
0.0
 11
-127.43992596366481
 21
-156.22335042965301
 31
0.0
  0
LINE
  5
1A57F
  8
SU
  6
CONTINUOUS
 62
     3
 10
-135.32119949714539
 20
-156.42335042965331
 30
0.0
 11
-127.5599259636644
 21
-156.42335042965331
 31
0.0
  0
LINE
  5
1A580
  8
SU
  6
CONTINUOUS
 62
     3
 10
-135.2011994971455
 20
-156.6233504296533
 30
0.0
 11
-127.6799259636647
 21
-156.6233504296533
 31
0.0
  0
LINE
  5
1A581
  8
SU
  6
CONTINUOUS
 62
     3
 10
-135.08119949714541
 20
-156.823350429653
 30
0.0
 11
-127.79992596366471
 21
-156.823350429653
 31
0.0
  0
LINE
  5
1A582
  8
SU
  6
CONTINUOUS
 62
     3
 10
-134.9611994971456
 20
-157.02335042965331
 30
0.0
 11
-127.9199259636647
 21
-157.02335042965331
 31
0.0
  0
LINE
  5
1A583
  8
SU
  6
CONTINUOUS
 62
     3
 10
-134.84119949714551
 20
-157.22335042965329
 30
0.0
 11
-128.0399259636647
 21
-157.22335042965329
 31
0.0
  0
LINE
  5
1A584
  8
SU
  6
CONTINUOUS
 62
     3
 10
-134.72119949714551
 20
-157.42335042965331
 30
0.0
 11
-128.1599259636647
 21
-157.42335042965331
 31
0.0
  0
LINE
  5
1A585
  8
SU
  6
CONTINUOUS
 62
     3
 10
-134.6011994971455
 20
-157.6233504296533
 30
0.0
 11
-128.27992596366471
 21
-157.6233504296533
 31
0.0
  0
LINE
  5
1A586
  8
SU
  6
CONTINUOUS
 62
     3
 10
-134.48119949714541
 20
-157.823350429653
 30
0.0
 11
-128.39992596366471
 21
-157.823350429653
 31
0.0
  0
LINE
  5
1A587
  8
SU
  6
CONTINUOUS
 62
     3
 10
-134.36119949714561
 20
-158.02335042965331
 30
0.0
 11
-128.51992596366441
 21
-158.02335042965331
 31
0.0
  0
LINE
  5
1A588
  8
SU
  6
CONTINUOUS
 62
     3
 10
-134.2411994971456
 20
-158.2233504296531
 30
0.0
 11
-128.63992596366441
 21
-158.2233504296531
 31
0.0
  0
LINE
  5
1A589
  8
SU
  6
CONTINUOUS
 62
     3
 10
-134.1211994971456
 20
-158.42335042965331
 30
0.0
 11
-128.7599259636647
 21
-158.42335042965331
 31
0.0
  0
LINE
  5
1A58A
  8
SU
  6
CONTINUOUS
 62
     3
 10
-134.00119949714551
 20
-158.6233504296533
 30
0.0
 11
-128.8799259636647
 21
-158.6233504296533
 31
0.0
  0
LINE
  5
1A58B
  8
SU
  6
CONTINUOUS
 62
     3
 10
-133.88119949714539
 20
-158.82335042965329
 30
0.0
 11
-128.99992596366471
 21
-158.82335042965329
 31
0.0
  0
LINE
  5
1A58C
  8
SU
  6
CONTINUOUS
 62
     3
 10
-133.7611994971455
 20
-159.02335042965331
 30
0.0
 11
-129.11992596366471
 21
-159.02335042965331
 31
0.0
  0
LINE
  5
1A58D
  8
SU
  6
CONTINUOUS
 62
     3
 10
-133.64119949714561
 20
-159.22335042965301
 30
0.0
 11
-129.2399259636644
 21
-159.22335042965301
 31
0.0
  0
LINE
  5
1A58E
  8
SU
  6
CONTINUOUS
 62
     3
 10
-133.5211994971456
 20
-159.42335042965331
 30
0.0
 11
-129.35992596366469
 21
-159.42335042965331
 31
0.0
  0
LINE
  5
1A58F
  8
SU
  6
CONTINUOUS
 62
     3
 10
-133.40119949714551
 20
-159.6233504296533
 30
0.0
 11
-129.4799259636647
 21
-159.6233504296533
 31
0.0
  0
LINE
  5
1A590
  8
SU
  6
CONTINUOUS
 62
     3
 10
-133.28119949714551
 20
-159.82335042965309
 30
0.0
 11
-129.59992596366439
 21
-159.82335042965309
 31
0.0
  0
LINE
  5
1A591
  8
SU
  6
CONTINUOUS
 62
     3
 10
-133.1611994971455
 20
-160.02335042965331
 30
0.0
 11
-129.71992596366471
 21
-160.02335042965331
 31
0.0
  0
LINE
  5
1A592
  8
SU
  6
CONTINUOUS
 62
     3
 10
-133.0411994971455
 20
-160.22335042965301
 30
0.0
 11
-129.83992596366471
 21
-160.22335042965301
 31
0.0
  0
LINE
  5
1A593
  8
SU
  6
CONTINUOUS
 62
     3
 10
-132.92119949714561
 20
-160.42335042965331
 30
0.0
 11
-129.9599259636646
 21
-160.42335042965331
 31
0.0
  0
LINE
  5
1A594
  8
SU
  6
CONTINUOUS
 62
     3
 10
-132.8011994971456
 20
-160.6233504296533
 30
0.0
 11
-130.07992596366441
 21
-160.6233504296533
 31
0.0
  0
LINE
  5
1A595
  8
SU
  6
CONTINUOUS
 62
     3
 10
-132.6811994971456
 20
-160.82335042965309
 30
0.0
 11
-130.19992596366441
 21
-160.82335042965309
 31
0.0
  0
LINE
  5
1A596
  8
SU
  6
CONTINUOUS
 62
     3
 10
-132.56119949714551
 20
-161.02335042965331
 30
0.0
 11
-130.3199259636647
 21
-161.02335042965331
 31
0.0
  0
LINE
  5
1A597
  8
SU
  6
CONTINUOUS
 62
     3
 10
-132.4411994971455
 20
-161.22335042965329
 30
0.0
 11
-130.43992596366479
 21
-161.22335042965329
 31
0.0
  0
LINE
  5
1A598
  8
SU
  6
CONTINUOUS
 62
     3
 10
-132.32119949714539
 20
-161.42335042965331
 30
0.0
 11
-130.55992596366471
 21
-161.42335042965331
 31
0.0
  0
LINE
  5
1A599
  8
SU
  6
CONTINUOUS
 62
     3
 10
-132.2011994971455
 20
-161.6233504296533
 30
0.0
 11
-130.6799259636648
 21
-161.6233504296533
 31
0.0
  0
LINE
  5
1A59A
  8
SU
  6
CONTINUOUS
 62
     3
 10
-132.08119949714541
 20
-161.82335042965329
 30
0.0
 11
-130.7999259636648
 21
-161.82335042965329
 31
0.0
  0
LINE
  5
1A59B
  8
SU
  6
CONTINUOUS
 62
     3
 10
-131.96119949714529
 20
-162.02335042965331
 30
0.0
 11
-130.9199259636647
 21
-162.02335042965331
 31
0.0
  0
LINE
  5
1A59C
  8
SU
  6
CONTINUOUS
 62
     3
 10
-131.84119949714551
 20
-162.22335042965329
 30
0.0
 11
-131.03992596366439
 21
-162.22335042965329
 31
0.0
  0
LINE
  5
1A59D
  8
SU
  6
CONTINUOUS
 62
     3
 10
-131.72119949714559
 20
-162.42335042965331
 30
0.0
 11
-131.1599259636647
 21
-162.42335042965331
 31
0.0
  0
LINE
  5
1A59E
  8
SU
  6
CONTINUOUS
 62
     3
 10
-131.6011994971455
 20
-162.6233504296533
 30
0.0
 11
-131.27992596366471
 21
-162.6233504296533
 31
0.0
  0
LINE
  5
1A59F
  8
SU
  6
CONTINUOUS
 62
     3
 10
-131.48119949714541
 20
-162.82335042965329
 30
0.0
 11
-131.39992596366471
 21
-162.82335042965329
 31
0.0
  0
TEXT
  5
1A5A0
  8
SU
  6
CONTINUOUS
 62
     3
 10
-132.74056273040509
 20
-37.738185248607252
 30
0.0
 40
4.0
  1
12
 50
90.0
 41
0.8299999999999999
  0
LINE
  5
1A5A1
  8
SU
  6
CONTINUOUS
 62
     3
 10
-137.3611994971458
 20
-18.47140968499226
 30
0.0
 11
-125.519925963665
 21
-18.47140968499227
 31
0.0
  0
LINE
  5
1A5A2
  8
SU
  6
CONTINUOUS
 62
     3
 10
-137.24119949714549
 20
-18.671409684992231
 30
0.0
 11
-125.63992596366499
 21
-18.671409684992231
 31
0.0
  0
LINE
  5
1A5A3
  8
SU
  6
CONTINUOUS
 62
     3
 10
-137.1211994971458
 20
-18.871409684992209
 30
0.0
 11
-125.759925963665
 21
-18.871409684992209
 31
0.0
  0
LINE
  5
1A5A4
  8
SU
  6
CONTINUOUS
 62
     3
 10
-137.00119949714579
 20
-19.071409684992261
 30
0.0
 11
-125.8799259636649
 21
-19.071409684992261
 31
0.0
  0
LINE
  5
1A5A5
  8
SU
  6
CONTINUOUS
 62
     3
 10
-136.88119949714579
 20
-19.27140968499225
 30
0.0
 11
-125.99992596366501
 21
-19.27140968499225
 31
0.0
  0
LINE
  5
1A5A6
  8
SU
  6
CONTINUOUS
 62
     3
 10
-136.76119949714581
 20
-19.471409684992238
 30
0.0
 11
-126.1199259636649
 21
-19.47140968499227
 31
0.0
  0
LINE
  5
1A5A7
  8
SU
  6
CONTINUOUS
 62
     3
 10
-136.64119949714581
 20
-19.671409684992231
 30
0.0
 11
-126.2399259636649
 21
-19.671409684992231
 31
0.0
  0
LINE
  5
1A5A8
  8
SU
  6
CONTINUOUS
 62
     3
 10
-136.5211994971458
 20
-19.87140968499223
 30
0.0
 11
-126.35992596366459
 21
-19.87140968499223
 31
0.0
  0
LINE
  5
1A5A9
  8
SU
  6
CONTINUOUS
 62
     3
 10
-136.40119949714571
 20
-20.071409684992261
 30
0.0
 11
-126.4799259636649
 21
-20.071409684992261
 31
0.0
  0
LINE
  5
1A5AA
  8
SU
  6
CONTINUOUS
 62
     3
 10
-136.28119949714551
 20
-20.271409684992211
 30
0.0
 11
-126.5999259636649
 21
-20.271409684992221
 31
0.0
  0
LINE
  5
1A5AB
  8
SU
  6
CONTINUOUS
 62
     3
 10
-136.16119949714579
 20
-20.471409684992238
 30
0.0
 11
-126.71992596366491
 21
-20.47140968499227
 31
0.0
  0
LINE
  5
1A5AC
  8
SU
  6
CONTINUOUS
 62
     3
 10
-136.04119949714581
 20
-20.671409684992248
 30
0.0
 11
-126.839925963665
 21
-20.671409684992248
 31
0.0
  0
LINE
  5
1A5AD
  8
SU
  6
CONTINUOUS
 62
     3
 10
-135.92119949714581
 20
-20.87140968499223
 30
0.0
 11
-126.959925963665
 21
-20.871409684992251
 31
0.0
  0
LINE
  5
1A5AE
  8
SU
  6
CONTINUOUS
 62
     3
 10
-135.80119949714549
 20
-21.071409684992261
 30
0.0
 11
-127.07992596366491
 21
-21.071409684992261
 31
0.0
  0
LINE
  5
1A5AF
  8
SU
  6
CONTINUOUS
 62
     3
 10
-135.6811994971458
 20
-21.27140968499225
 30
0.0
 11
-127.199925963665
 21
-21.27140968499225
 31
0.0
  0
LINE
  5
1A5B0
  8
SU
  6
CONTINUOUS
 62
     3
 10
-135.56119949714579
 20
-21.471409684992231
 30
0.0
 11
-127.319925963665
 21
-21.47140968499227
 31
0.0
  0
LINE
  5
1A5B1
  8
SU
  6
CONTINUOUS
 62
     3
 10
-135.44119949714579
 20
-21.671409684992248
 30
0.0
 11
-127.439925963665
 21
-21.671409684992248
 31
0.0
  0
LINE
  5
1A5B2
  8
SU
  6
CONTINUOUS
 62
     3
 10
-135.32119949714581
 20
-21.87140968499223
 30
0.0
 11
-127.55992596366499
 21
-21.87140968499223
 31
0.0
  0
LINE
  5
1A5B3
  8
SU
  6
CONTINUOUS
 62
     3
 10
-135.20119949714581
 20
-22.071409684992261
 30
0.0
 11
-127.679925963665
 21
-22.071409684992261
 31
0.0
  0
LINE
  5
1A5B4
  8
SU
  6
CONTINUOUS
 62
     3
 10
-135.0811994971458
 20
-22.27140968499225
 30
0.0
 11
-127.799925963665
 21
-22.27140968499225
 31
0.0
  0
LINE
  5
1A5B5
  8
SU
  6
CONTINUOUS
 62
     3
 10
-134.9611994971458
 20
-22.47140968499226
 30
0.0
 11
-127.9199259636647
 21
-22.47140968499226
 31
0.0
  0
LINE
  5
1A5B6
  8
SU
  6
CONTINUOUS
 62
     3
 10
-134.84119949714571
 20
-22.671409684992248
 30
0.0
 11
-128.03992596366501
 21
-22.671409684992248
 31
0.0
  0
LINE
  5
1A5B7
  8
SU
  6
CONTINUOUS
 62
     3
 10
-134.72119949714579
 20
-22.87140968499223
 30
0.0
 11
-128.1599259636649
 21
-22.87140968499223
 31
0.0
  0
LINE
  5
1A5B8
  8
SU
  6
CONTINUOUS
 62
     3
 10
-134.60119949714581
 20
-23.071409684992261
 30
0.0
 11
-128.27992596366491
 21
-23.071409684992261
 31
0.0
  0
LINE
  5
1A5B9
  8
SU
  6
CONTINUOUS
 62
     3
 10
-134.48119949714581
 20
-23.27140968499225
 30
0.0
 11
-128.399925963665
 21
-23.27140968499225
 31
0.0
  0
LINE
  5
1A5BA
  8
SU
  6
CONTINUOUS
 62
     3
 10
-134.3611994971458
 20
-23.47140968499226
 30
0.0
 11
-128.519925963665
 21
-23.47140968499227
 31
0.0
  0
LINE
  5
1A5BB
  8
SU
  6
CONTINUOUS
 62
     3
 10
-134.2411994971458
 20
-23.671409684992248
 30
0.0
 11
-128.63992596366501
 21
-23.671409684992248
 31
0.0
  0
LINE
  5
1A5BC
  8
SU
  6
CONTINUOUS
 62
     3
 10
-134.1211994971458
 20
-23.87140968499223
 30
0.0
 11
-128.75992596366501
 21
-23.87140968499223
 31
0.0
  0
LINE
  5
1A5BD
  8
SU
  6
CONTINUOUS
 62
     3
 10
-134.00119949714579
 20
-24.071409684992261
 30
0.0
 11
-128.8799259636649
 21
-24.071409684992261
 31
0.0
  0
LINE
  5
1A5BE
  8
SU
  6
CONTINUOUS
 62
     3
 10
-133.88119949714579
 20
-24.27140968499225
 30
0.0
 11
-128.99992596366491
 21
-24.27140968499225
 31
0.0
  0
LINE
  5
1A5BF
  8
SU
  6
CONTINUOUS
 62
     3
 10
-133.76119949714581
 20
-24.47140968499226
 30
0.0
 11
-129.11992596366491
 21
-24.47140968499227
 31
0.0
  0
LINE
  5
1A5C0
  8
SU
  6
CONTINUOUS
 62
     3
 10
-133.64119949714581
 20
-24.671409684992248
 30
0.0
 11
-129.2399259636648
 21
-24.671409684992248
 31
0.0
  0
LINE
  5
1A5C1
  8
SU
  6
CONTINUOUS
 62
     3
 10
-133.5211994971458
 20
-24.871409684992241
 30
0.0
 11
-129.35992596366481
 21
-24.871409684992241
 31
0.0
  0
LINE
  5
1A5C2
  8
SU
  6
CONTINUOUS
 62
     3
 10
-133.40119949714571
 20
-25.071409684992261
 30
0.0
 11
-129.4799259636649
 21
-25.071409684992261
 31
0.0
  0
LINE
  5
1A5C3
  8
SU
  6
CONTINUOUS
 62
     3
 10
-133.28119949714571
 20
-25.271409684992229
 30
0.0
 11
-129.59992596366459
 21
-25.271409684992229
 31
0.0
  0
LINE
  5
1A5C4
  8
SU
  6
CONTINUOUS
 62
     3
 10
-133.16119949714579
 20
-25.47140968499226
 30
0.0
 11
-129.71992596366491
 21
-25.47140968499227
 31
0.0
  0
LINE
  5
1A5C5
  8
SU
  6
CONTINUOUS
 62
     3
 10
-133.04119949714581
 20
-25.671409684992248
 30
0.0
 11
-129.839925963665
 21
-25.671409684992248
 31
0.0
  0
LINE
  5
1A5C6
  8
SU
  6
CONTINUOUS
 62
     3
 10
-132.92119949714581
 20
-25.87140968499223
 30
0.0
 11
-129.959925963665
 21
-25.871409684992251
 31
0.0
  0
LINE
  5
1A5C7
  8
SU
  6
CONTINUOUS
 62
     3
 10
-132.8011994971456
 20
-26.071409684992261
 30
0.0
 11
-130.07992596366461
 21
-26.071409684992261
 31
0.0
  0
LINE
  5
1A5C8
  8
SU
  6
CONTINUOUS
 62
     3
 10
-132.6811994971458
 20
-26.27140968499225
 30
0.0
 11
-130.19992596366501
 21
-26.27140968499225
 31
0.0
  0
LINE
  5
1A5C9
  8
SU
  6
CONTINUOUS
 62
     3
 10
-132.56119949714571
 20
-26.471409684992249
 30
0.0
 11
-130.31992596366501
 21
-26.47140968499227
 31
0.0
  0
LINE
  5
1A5CA
  8
SU
  6
CONTINUOUS
 62
     3
 10
-132.44119949714579
 20
-26.671409684992248
 30
0.0
 11
-130.43992596366499
 21
-26.671409684992248
 31
0.0
  0
LINE
  5
1A5CB
  8
SU
  6
CONTINUOUS
 62
     3
 10
-132.32119949714581
 20
-26.87140968499223
 30
0.0
 11
-130.55992596366491
 21
-26.87140968499223
 31
0.0
  0
LINE
  5
1A5CC
  8
SU
  6
CONTINUOUS
 62
     3
 10
-132.20119949714581
 20
-27.071409684992261
 30
0.0
 11
-130.679925963665
 21
-27.071409684992261
 31
0.0
  0
LINE
  5
1A5CD
  8
SU
  6
CONTINUOUS
 62
     3
 10
-132.0811994971458
 20
-27.27140968499225
 30
0.0
 11
-130.7999259636648
 21
-27.27140968499225
 31
0.0
  0
LINE
  5
1A5CE
  8
SU
  6
CONTINUOUS
 62
     3
 10
-131.96119949714571
 20
-27.47140968499226
 30
0.0
 11
-130.91992596366481
 21
-27.47140968499226
 31
0.0
  0
LINE
  5
1A5CF
  8
SU
  6
CONTINUOUS
 62
     3
 10
-131.84119949714571
 20
-27.671409684992248
 30
0.0
 11
-131.03992596366459
 21
-27.671409684992248
 31
0.0
  0
LINE
  5
1A5D0
  8
SU
  6
CONTINUOUS
 62
     3
 10
-131.72119949714579
 20
-27.87140968499223
 30
0.0
 11
-131.1599259636649
 21
-27.87140968499223
 31
0.0
  0
LINE
  5
1A5D1
  8
SU
  6
CONTINUOUS
 62
     3
 10
-131.60119949714581
 20
-28.071409684992261
 30
0.0
 11
-131.27992596366499
 21
-28.071409684992261
 31
0.0
  0
LINE
  5
1A5D2
  8
SU
  6
CONTINUOUS
 62
     3
 10
-131.48119949714581
 20
-28.27140968499225
 30
0.0
 11
-131.399925963665
 21
-28.27140968499225
 31
0.0
  0
TEXT
  5
1A5D3
  8
SU
  6
CONTINUOUS
 62
     3
 10
-312.54199130183389
 20
88.460862204457342
 30
0.0
 40
4.0
  1
110.5
 41
0.8299999999999999
  0
TEXT
  5
1A5D4
  8
SU
  6
CONTINUOUS
 62
     3
 10
-277.42056273040521
 20
73.460862204457342
 30
0.0
 40
4.0
  1
176
 41
0.8299999999999999
  0
TEXT
  5
1A5D5
  8
SU
  6
CONTINUOUS
 62
     3
 10
-369.82818177802432
 20
73.460862204457342
 30
0.0
 40
4.0
  1
3
 41
0.8299999999999999
  0
TEXT
  5
1A5D6
  8
SU
  6
CONTINUOUS
 62
     3
 10
-147.74056273040401
 20
131.37752903710691
 30
0.0
 40
4.0
  1
21.5
 50
90.0
 41
0.8299999999999999
  0
TEXT
  5
1A5D7
  8
SU
  6
CONTINUOUS
 62
     3
 10
-147.74056273040401
 20
156.41990998948779
 30
0.0
 40
4.0
  1
24
 50
90.0
 41
0.8299999999999999
  0
TEXT
  5
1A5D8
  8
SU
  6
CONTINUOUS
 62
     3
 10
-178.2148484446908
 20
73.460862204457342
 30
0.0
 40
4.0
  1
3
 41
0.8299999999999999
  0
TEXT
  5
1A5D9
  8
SU
  6
CONTINUOUS
 62
     3
 10
-241.18151511135781
 20
88.460862204457342
 30
0.0
 40
4.0
  1
24
 41
0.8299999999999999
  0
TEXT
  5
1A5DA
  8
SU
  6
CONTINUOUS
 62
     3
 10
-225.6005627304049
 20
88.460862204457342
 30
0.0
 40
4.0
  1
4
 41
0.8299999999999999
  0
TEXT
  5
1A5DB
  8
SU
  6
CONTINUOUS
 62
     3
 10
-181.2148484446908
 20
88.460862204457342
 30
0.0
 40
4.0
  1
4.5
 41
0.8299999999999999
  0
TEXT
  5
1A5DC
  8
SU
  6
CONTINUOUS
 62
     3
 10
-88.949035872844988
 20
131.69259431805821
 30
0.0
 40
4.0
  1
12.5
 50
90.0
 41
0.8299999999999999
  0
LINE
  5
1A5DD
  8
SU
  6
CONTINUOUS
 62
     3
 10
-131.48119949714541
 20
171.5931344258729
 30
0.0
 11
-131.39992596366491
 21
171.5931344258729
 31
0.0
  0
LINE
  5
1A5DE
  8
SU
  6
CONTINUOUS
 62
     3
 10
-131.6011994971455
 20
171.3931344258728
 30
0.0
 11
-131.27992596366491
 21
171.3931344258728
 31
0.0
  0
LINE
  5
1A5DF
  8
SU
  6
CONTINUOUS
 62
     3
 10
-131.72119949714559
 20
171.19313442587281
 30
0.0
 11
-131.1599259636649
 21
171.19313442587281
 31
0.0
  0
LINE
  5
1A5E0
  8
SU
  6
CONTINUOUS
 62
     3
 10
-131.84119949714551
 20
170.99313442587291
 30
0.0
 11
-131.03992596366459
 21
170.99313442587291
 31
0.0
  0
LINE
  5
1A5E1
  8
SU
  6
CONTINUOUS
 62
     3
 10
-131.96119949714529
 20
170.79313442587281
 30
0.0
 11
-130.91992596366481
 21
170.79313442587281
 31
0.0
  0
LINE
  5
1A5E2
  8
SU
  6
CONTINUOUS
 62
     3
 10
-132.0811994971456
 20
170.5931344258729
 30
0.0
 11
-130.7999259636648
 21
170.5931344258729
 31
0.0
  0
LINE
  5
1A5E3
  8
SU
  6
CONTINUOUS
 62
     3
 10
-132.20119949714569
 20
170.3931344258728
 30
0.0
 11
-130.67992596366491
 21
170.3931344258728
 31
0.0
  0
LINE
  5
1A5E4
  8
SU
  6
CONTINUOUS
 62
     3
 10
-132.32119949714539
 20
170.19313442587281
 30
0.0
 11
-130.55992596366491
 21
170.19313442587281
 31
0.0
  0
LINE
  5
1A5E5
  8
SU
  6
CONTINUOUS
 62
     3
 10
-132.4411994971457
 20
169.99313442587291
 30
0.0
 11
-130.4399259636649
 21
169.99313442587291
 31
0.0
  0
LINE
  5
1A5E6
  8
SU
  6
CONTINUOUS
 62
     3
 10
-132.56119949714571
 20
169.79313442587281
 30
0.0
 11
-130.3199259636649
 21
169.79313442587281
 31
0.0
  0
LINE
  5
1A5E7
  8
SU
  6
CONTINUOUS
 62
     3
 10
-132.68119949714571
 20
169.5931344258729
 30
0.0
 11
-130.19992596366481
 21
169.5931344258729
 31
0.0
  0
LINE
  5
1A5E8
  8
SU
  6
CONTINUOUS
 62
     3
 10
-132.8011994971456
 20
169.3931344258728
 30
0.0
 11
-130.07992596366449
 21
169.3931344258728
 31
0.0
  0
LINE
  5
1A5E9
  8
SU
  6
CONTINUOUS
 62
     3
 10
-132.92119949714561
 20
169.19313442587281
 30
0.0
 11
-129.9599259636648
 21
169.19313442587281
 31
0.0
  0
LINE
  5
1A5EA
  8
SU
  6
CONTINUOUS
 62
     3
 10
-133.0411994971457
 20
168.99313442587291
 30
0.0
 11
-129.8399259636648
 21
168.99313442587291
 31
0.0
  0
LINE
  5
1A5EB
  8
SU
  6
CONTINUOUS
 62
     3
 10
-133.1611994971457
 20
168.79313442587281
 30
0.0
 11
-129.71992596366471
 21
168.79313442587281
 31
0.0
  0
LINE
  5
1A5EC
  8
SU
  6
CONTINUOUS
 62
     3
 10
-133.28119949714571
 20
168.5931344258729
 30
0.0
 11
-129.5999259636645
 21
168.5931344258729
 31
0.0
  0
LINE
  5
1A5ED
  8
SU
  6
CONTINUOUS
 62
     3
 10
-133.40119949714571
 20
168.3931344258728
 30
0.0
 11
-129.47992596366481
 21
168.3931344258728
 31
0.0
  0
LINE
  5
1A5EE
  8
SU
  6
CONTINUOUS
 62
     3
 10
-133.5211994971456
 20
168.19313442587281
 30
0.0
 11
-129.35992596366481
 21
168.19313442587281
 31
0.0
  0
LINE
  5
1A5EF
  8
SU
  6
CONTINUOUS
 62
     3
 10
-133.64119949714569
 20
167.99313442587291
 30
0.0
 11
-129.2399259636648
 21
167.99313442587291
 31
0.0
  0
LINE
  5
1A5F0
  8
SU
  6
CONTINUOUS
 62
     3
 10
-133.7611994971455
 20
167.79313442587281
 30
0.0
 11
-129.11992596366491
 21
167.79313442587281
 31
0.0
  0
LINE
  5
1A5F1
  8
SU
  6
CONTINUOUS
 62
     3
 10
-133.88119949714539
 20
167.5931344258729
 30
0.0
 11
-128.99992596366491
 21
167.5931344258729
 31
0.0
  0
LINE
  5
1A5F2
  8
SU
  6
CONTINUOUS
 62
     3
 10
-134.00119949714571
 20
167.3931344258728
 30
0.0
 11
-128.8799259636649
 21
167.3931344258728
 31
0.0
  0
LINE
  5
1A5F3
  8
SU
  6
CONTINUOUS
 62
     3
 10
-134.12119949714571
 20
167.19313442587281
 30
0.0
 11
-128.7599259636649
 21
167.19313442587281
 31
0.0
  0
LINE
  5
1A5F4
  8
SU
  6
CONTINUOUS
 62
     3
 10
-134.2411994971456
 20
166.99313442587291
 30
0.0
 11
-128.63992596366481
 21
166.99313442587291
 31
0.0
  0
LINE
  5
1A5F5
  8
SU
  6
CONTINUOUS
 62
     3
 10
-134.36119949714561
 20
166.79313442587281
 30
0.0
 11
-128.5199259636648
 21
166.79313442587281
 31
0.0
  0
LINE
  5
1A5F6
  8
SU
  6
CONTINUOUS
 62
     3
 10
-134.48119949714541
 20
166.5931344258729
 30
0.0
 11
-128.39992596366491
 21
166.5931344258729
 31
0.0
  0
LINE
  5
1A5F7
  8
SU
  6
CONTINUOUS
 62
     3
 10
-134.6011994971455
 20
166.3931344258728
 30
0.0
 11
-128.27992596366491
 21
166.3931344258728
 31
0.0
  0
LINE
  5
1A5F8
  8
SU
  6
CONTINUOUS
 62
     3
 10
-134.72119949714551
 20
166.1931344258729
 30
0.0
 11
-128.1599259636649
 21
166.1931344258729
 31
0.0
  0
LINE
  5
1A5F9
  8
SU
  6
CONTINUOUS
 62
     3
 10
-134.84119949714551
 20
165.99313442587291
 30
0.0
 11
-128.0399259636647
 21
165.99313442587291
 31
0.0
  0
LINE
  5
1A5FA
  8
SU
  6
CONTINUOUS
 62
     3
 10
-134.9611994971456
 20
165.79313442587281
 30
0.0
 11
-127.9199259636647
 21
165.79313442587281
 31
0.0
  0
LINE
  5
1A5FB
  8
SU
  6
CONTINUOUS
 62
     3
 10
-135.0811994971456
 20
165.5931344258729
 30
0.0
 11
-127.7999259636649
 21
165.5931344258729
 31
0.0
  0
LINE
  5
1A5FC
  8
SU
  6
CONTINUOUS
 62
     3
 10
-135.20119949714569
 20
165.3931344258728
 30
0.0
 11
-127.6799259636649
 21
165.3931344258728
 31
0.0
  0
LINE
  5
1A5FD
  8
SU
  6
CONTINUOUS
 62
     3
 10
-135.32119949714539
 20
165.1931344258729
 30
0.0
 11
-127.5599259636649
 21
165.1931344258729
 31
0.0
  0
LINE
  5
1A5FE
  8
SU
  6
CONTINUOUS
 62
     3
 10
-135.4411994971457
 20
164.99313442587291
 30
0.0
 11
-127.4399259636649
 21
164.99313442587291
 31
0.0
  0
LINE
  5
1A5FF
  8
SU
  6
CONTINUOUS
 62
     3
 10
-135.56119949714571
 20
164.79313442587281
 30
0.0
 11
-127.3199259636649
 21
164.79313442587281
 31
0.0
  0
LINE
  5
1A600
  8
SU
  6
CONTINUOUS
 62
     3
 10
-135.68119949714571
 20
164.5931344258729
 30
0.0
 11
-127.1999259636648
 21
164.5931344258729
 31
0.0
  0
LINE
  5
1A601
  8
SU
  6
CONTINUOUS
 62
     3
 10
-135.8011994971454
 20
164.3931344258728
 30
0.0
 11
-127.07992596366471
 21
164.3931344258728
 31
0.0
  0
LINE
  5
1A602
  8
SU
  6
CONTINUOUS
 62
     3
 10
-135.92119949714561
 20
164.1931344258729
 30
0.0
 11
-126.9599259636648
 21
164.1931344258729
 31
0.0
  0
LINE
  5
1A603
  8
SU
  6
CONTINUOUS
 62
     3
 10
-136.0411994971457
 20
163.99313442587291
 30
0.0
 11
-126.8399259636648
 21
163.99313442587291
 31
0.0
  0
LINE
  5
1A604
  8
SU
  6
CONTINUOUS
 62
     3
 10
-136.1611994971457
 20
163.79313442587281
 30
0.0
 11
-126.71992596366471
 21
163.79313442587281
 31
0.0
  0
LINE
  5
1A605
  8
SU
  6
CONTINUOUS
 62
     3
 10
-136.28119949714539
 20
163.5931344258729
 30
0.0
 11
-126.5999259636648
 21
163.5931344258729
 31
0.0
  0
LINE
  5
1A606
  8
SU
  6
CONTINUOUS
 62
     3
 10
-136.40119949714571
 20
163.3931344258728
 30
0.0
 11
-126.4799259636649
 21
163.3931344258728
 31
0.0
  0
LINE
  5
1A607
  8
SU
  6
CONTINUOUS
 62
     3
 10
-136.5211994971456
 20
163.1931344258729
 30
0.0
 11
-126.35992596366459
 21
163.1931344258729
 31
0.0
  0
LINE
  5
1A608
  8
SU
  6
CONTINUOUS
 62
     3
 10
-136.64119949714569
 20
162.99313442587291
 30
0.0
 11
-126.2399259636649
 21
162.99313442587291
 31
0.0
  0
LINE
  5
1A609
  8
SU
  6
CONTINUOUS
 62
     3
 10
-136.76119949714541
 20
162.79313442587281
 30
0.0
 11
-126.1199259636649
 21
162.79313442587281
 31
0.0
  0
LINE
  5
1A60A
  8
SU
  6
CONTINUOUS
 62
     3
 10
-136.8811994971457
 20
162.5931344258729
 30
0.0
 11
-125.99992596366479
 21
162.5931344258729
 31
0.0
  0
LINE
  5
1A60B
  8
SU
  6
CONTINUOUS
 62
     3
 10
-137.00119949714571
 20
162.3931344258728
 30
0.0
 11
-125.8799259636649
 21
162.3931344258728
 31
0.0
  0
LINE
  5
1A60C
  8
SU
  6
CONTINUOUS
 62
     3
 10
-137.12119949714571
 20
162.1931344258729
 30
0.0
 11
-125.7599259636648
 21
162.1931344258729
 31
0.0
  0
LINE
  5
1A60D
  8
SU
  6
CONTINUOUS
 62
     3
 10
-137.2411994971454
 20
161.99313442587291
 30
0.0
 11
-125.63992596366479
 21
161.99313442587291
 31
0.0
  0
LINE
  5
1A60E
  8
SU
  6
CONTINUOUS
 62
     3
 10
-137.36119949714561
 20
161.79313442587281
 30
0.0
 11
-125.5199259636649
 21
161.79313442587281
 31
0.0
  0
TEXT
  5
1A60F
  8
SU
  6
CONTINUOUS
 62
     3
 10
39.050966575684129
 20
67.75206200935169
 30
0.0
 40
4.0
  1
113.5
 50
90.0
 41
0.8299999999999999
  0
TEXT
  5
1A610
  8
SU
  6
CONTINUOUS
 62
     3
 10
396.93802795938768
 20
153.15349058077891
 30
0.0
 40
4.0
  1
（13）
 41
0.8299999999999999
  0
TEXT
  5
1A611
  8
SU
  6
CONTINUOUS
 62
     3
 10
68.05096902421306
 20
35.873490580778991
 30
0.0
 40
4.0
  1
182
 50
90.0
 41
0.8299999999999999
  0
TEXT
  5
1A612
  8
SU
  6
CONTINUOUS
 62
     3
 10
7.9382046709222518
 20
153.15349058077899
 30
0.0
 40
4.0
  1
（13）
 41
0.8299999999999999
  0
TEXT
  5
1A613
  8
SU
  6
CONTINUOUS
 62
     3
 10
206.45382371854109
 20
-113.8465210450433
 30
0.0
 40
4.0
  1
W
 41
0.8299999999999999
  0
TEXT
  5
1A614
  8
SU
  6
CONTINUOUS
 62
     3
 10
-7.8899857974752221
 20
-98.846521045043303
 30
0.0
 40
4.0
  1
24
 41
0.8299999999999999
  0
TEXT
  5
1A615
  8
SU
  6
CONTINUOUS
 62
     3
 10
14.87668087698489
 20
-83.846521045043303
 30
0.0
 40
4.0
  1
4
 41
0.8299999999999999
  0
LINE
  5
1A616
  8
SU
  6
CONTINUOUS
 62
     3
 10
-16.581305479748771
 20
-115.18715781178371
 30
0.0
 11
-16.581305479748771
 21
-115.1058842783028
 31
0.0
  0
LINE
  5
1A617
  8
SU
  6
CONTINUOUS
 62
     3
 10
-16.381305479748779
 20
-115.3071578117836
 30
0.0
 11
-16.381305479748779
 21
-114.98588427830281
 31
0.0
  0
LINE
  5
1A618
  8
SU
  6
CONTINUOUS
 62
     3
 10
-16.181305479748762
 20
-115.4271578117836
 30
0.0
 11
-16.181305479748762
 21
-114.8658842783029
 31
0.0
  0
LINE
  5
1A619
  8
SU
  6
CONTINUOUS
 62
     3
 10
-15.98130547974875
 20
-115.54715781178361
 30
0.0
 11
-15.98130547974875
 21
-114.7458842783029
 31
0.0
  0
LINE
  5
1A61A
  8
SU
  6
CONTINUOUS
 62
     3
 10
-15.781305479748751
 20
-115.6671578117836
 30
0.0
 11
-15.781305479748751
 21
-114.62588427830291
 31
0.0
  0
LINE
  5
1A61B
  8
SU
  6
CONTINUOUS
 62
     3
 10
-15.58130547974875
 20
-115.7871578117836
 30
0.0
 11
-15.58130547974875
 21
-114.5058842783029
 31
0.0
  0
LINE
  5
1A61C
  8
SU
  6
CONTINUOUS
 62
     3
 10
-15.38130547974875
 20
-115.90715781178361
 30
0.0
 11
-15.38130547974875
 21
-114.3858842783028
 31
0.0
  0
LINE
  5
1A61D
  8
SU
  6
CONTINUOUS
 62
     3
 10
-15.18130547974876
 20
-116.0271578117835
 30
0.0
 11
-15.18130547974876
 21
-114.26588427830291
 31
0.0
  0
LINE
  5
1A61E
  8
SU
  6
CONTINUOUS
 62
     3
 10
-14.981305479748739
 20
-116.1471578117837
 30
0.0
 11
-14.981305479748739
 21
-114.1458842783029
 31
0.0
  0
LINE
  5
1A61F
  8
SU
  6
CONTINUOUS
 62
     3
 10
-14.781305479748781
 20
-116.2671578117836
 30
0.0
 11
-14.781305479748781
 21
-114.0258842783028
 31
0.0
  0
LINE
  5
1A620
  8
SU
  6
CONTINUOUS
 62
     3
 10
-14.581305479748741
 20
-116.38715781178369
 30
0.0
 11
-14.581305479748741
 21
-113.90588427830291
 31
0.0
  0
LINE
  5
1A621
  8
SU
  6
CONTINUOUS
 62
     3
 10
-14.38130547974878
 20
-116.5071578117837
 30
0.0
 11
-14.38130547974878
 21
-113.7858842783028
 31
0.0
  0
LINE
  5
1A622
  8
SU
  6
CONTINUOUS
 62
     3
 10
-14.18130547974874
 20
-116.6271578117836
 30
0.0
 11
-14.18130547974874
 21
-113.6658842783027
 31
0.0
  0
LINE
  5
1A623
  8
SU
  6
CONTINUOUS
 62
     3
 10
-13.981305479748761
 20
-116.7471578117835
 30
0.0
 11
-13.981305479748761
 21
-113.54588427830279
 31
0.0
  0
LINE
  5
1A624
  8
SU
  6
CONTINUOUS
 62
     3
 10
-13.781305479748751
 20
-116.8671578117836
 30
0.0
 11
-13.781305479748751
 21
-113.4258842783028
 31
0.0
  0
LINE
  5
1A625
  8
SU
  6
CONTINUOUS
 62
     3
 10
-13.58130547974875
 20
-116.9871578117836
 30
0.0
 11
-13.58130547974875
 21
-113.3058842783027
 31
0.0
  0
LINE
  5
1A626
  8
SU
  6
CONTINUOUS
 62
     3
 10
-13.38130547974875
 20
-117.10715781178359
 30
0.0
 11
-13.38130547974875
 21
-113.18588427830279
 31
0.0
  0
LINE
  5
1A627
  8
SU
  6
CONTINUOUS
 62
     3
 10
-13.18130547974876
 20
-117.2271578117836
 30
0.0
 11
-13.18130547974876
 21
-113.0658842783029
 31
0.0
  0
LINE
  5
1A628
  8
SU
  6
CONTINUOUS
 62
     3
 10
-12.98130547974875
 20
-117.3471578117835
 30
0.0
 11
-12.98130547974875
 21
-112.9458842783028
 31
0.0
  0
LINE
  5
1A629
  8
SU
  6
CONTINUOUS
 62
     3
 10
-12.78130547974877
 20
-117.46715781178359
 30
0.0
 11
-12.78130547974877
 21
-112.82588427830279
 31
0.0
  0
LINE
  5
1A62A
  8
SU
  6
CONTINUOUS
 62
     3
 10
-12.58130547974875
 20
-117.5871578117837
 30
0.0
 11
-12.58130547974875
 21
-112.7058842783029
 31
0.0
  0
LINE
  5
1A62B
  8
SU
  6
CONTINUOUS
 62
     3
 10
-12.381305479748759
 20
-117.7071578117837
 30
0.0
 11
-12.381305479748759
 21
-112.5858842783028
 31
0.0
  0
LINE
  5
1A62C
  8
SU
  6
CONTINUOUS
 62
     3
 10
-12.18130547974876
 20
-117.82715781178371
 30
0.0
 11
-12.18130547974876
 21
-112.46588427830279
 31
0.0
  0
LINE
  5
1A62D
  8
SU
  6
CONTINUOUS
 62
     3
 10
-11.981305479748739
 20
-117.9471578117837
 30
0.0
 11
-11.981305479748739
 21
-112.3458842783028
 31
0.0
  0
LINE
  5
1A62E
  8
SU
  6
CONTINUOUS
 62
     3
 10
-11.781305479748781
 20
-118.0671578117836
 30
0.0
 11
-11.781305479748781
 21
-112.2258842783029
 31
0.0
  0
LINE
  5
1A62F
  8
SU
  6
CONTINUOUS
 62
     3
 10
-11.581305479748741
 20
-118.18715781178361
 30
0.0
 11
-11.581305479748741
 21
-112.1058842783029
 31
0.0
  0
LINE
  5
1A630
  8
SU
  6
CONTINUOUS
 62
     3
 10
-11.38130547974878
 20
-118.3071578117836
 30
0.0
 11
-11.38130547974878
 21
-111.9858842783029
 31
0.0
  0
LINE
  5
1A631
  8
SU
  6
CONTINUOUS
 62
     3
 10
-11.18130547974873
 20
-118.4271578117836
 30
0.0
 11
-11.18130547974873
 21
-111.8658842783029
 31
0.0
  0
LINE
  5
1A632
  8
SU
  6
CONTINUOUS
 62
     3
 10
-10.98130547974875
 20
-118.54715781178351
 30
0.0
 11
-10.98130547974875
 21
-111.7458842783028
 31
0.0
  0
LINE
  5
1A633
  8
SU
  6
CONTINUOUS
 62
     3
 10
-10.781305479748751
 20
-118.6671578117836
 30
0.0
 11
-10.781305479748751
 21
-111.62588427830291
 31
0.0
  0
LINE
  5
1A634
  8
SU
  6
CONTINUOUS
 62
     3
 10
-10.58130547974875
 20
-118.7871578117835
 30
0.0
 11
-10.58130547974875
 21
-111.5058842783029
 31
0.0
  0
LINE
  5
1A635
  8
SU
  6
CONTINUOUS
 62
     3
 10
-10.38130547974877
 20
-118.90715781178361
 30
0.0
 11
-10.38130547974877
 21
-111.3858842783028
 31
0.0
  0
LINE
  5
1A636
  8
SU
  6
CONTINUOUS
 62
     3
 10
-10.18130547974876
 20
-119.0271578117837
 30
0.0
 11
-10.18130547974876
 21
-111.26588427830291
 31
0.0
  0
LINE
  5
1A637
  8
SU
  6
CONTINUOUS
 62
     3
 10
-9.9813054797487766
 20
-119.1471578117837
 30
0.0
 11
-9.9813054797487766
 21
-111.1458842783028
 31
0.0
  0
LINE
  5
1A638
  8
SU
  6
CONTINUOUS
 62
     3
 10
-9.7813054797487862
 20
-119.2671578117836
 30
0.0
 11
-9.7813054797487862
 21
-111.0258842783027
 31
0.0
  0
LINE
  5
1A639
  8
SU
  6
CONTINUOUS
 62
     3
 10
-9.5813054797487673
 20
-119.38715781178369
 30
0.0
 11
-9.5813054797487673
 21
-110.90588427830291
 31
0.0
  0
LINE
  5
1A63A
  8
SU
  6
CONTINUOUS
 62
     3
 10
-9.3813054797487823
 20
-119.5071578117836
 30
0.0
 11
-9.3813054797487823
 21
-110.7858842783028
 31
0.0
  0
LINE
  5
1A63B
  8
SU
  6
CONTINUOUS
 62
     3
 10
-9.1813054797487652
 20
-119.6271578117837
 30
0.0
 11
-9.1813054797487652
 21
-110.6658842783027
 31
0.0
  0
LINE
  5
1A63C
  8
SU
  6
CONTINUOUS
 62
     3
 10
-8.9813054797487766
 20
-119.7471578117835
 30
0.0
 11
-8.9813054797487766
 21
-110.54588427830279
 31
0.0
  0
LINE
  5
1A63D
  8
SU
  6
CONTINUOUS
 62
     3
 10
-8.7813054797487862
 20
-119.8671578117836
 30
0.0
 11
-8.7813054797487862
 21
-110.4258842783029
 31
0.0
  0
LINE
  5
1A63E
  8
SU
  6
CONTINUOUS
 62
     3
 10
-8.5813054797487691
 20
-119.9871578117835
 30
0.0
 11
-8.5813054797487691
 21
-110.3058842783029
 31
0.0
  0
LINE
  5
1A63F
  8
SU
  6
CONTINUOUS
 62
     3
 10
-8.3813054797487823
 20
-120.10715781178359
 30
0.0
 11
-8.3813054797487823
 21
-110.18588427830279
 31
0.0
  0
LINE
  5
1A640
  8
SU
  6
CONTINUOUS
 62
     3
 10
-8.1813054797487652
 20
-120.2271578117835
 30
0.0
 11
-8.1813054797487652
 21
-110.0658842783029
 31
0.0
  0
LINE
  5
1A641
  8
SU
  6
CONTINUOUS
 62
     3
 10
-7.9813054797487739
 20
-120.3471578117836
 30
0.0
 11
-7.9813054797487739
 21
-109.9458842783028
 31
0.0
  0
LINE
  5
1A642
  8
SU
  6
CONTINUOUS
 62
     3
 10
-7.7813054797487871
 20
-120.46715781178339
 30
0.0
 11
-7.7813054797487871
 21
-109.82588427830279
 31
0.0
  0
LINE
  5
1A643
  8
SU
  6
CONTINUOUS
 62
     3
 10
-7.58130547974877
 20
-120.5871578117837
 30
0.0
 11
-7.58130547974877
 21
-109.7058842783029
 31
0.0
  0
LINE
  5
1A644
  8
SU
  6
CONTINUOUS
 62
     3
 10
-7.3813054797487823
 20
-120.7071578117836
 30
0.0
 11
-7.3813054797487769
 21
-109.5858842783028
 31
0.0
  0
LINE
  5
1A645
  8
SU
  6
CONTINUOUS
 62
     3
 10
-7.1813054797487652
 20
-120.82715781178339
 30
0.0
 11
-7.1813054797487643
 21
-109.46588427830279
 31
0.0
  0
LINE
  5
1A646
  8
SU
  6
CONTINUOUS
 62
     3
 10
-6.981305479748773
 20
-120.9471578117836
 30
0.0
 11
-6.9813054797487721
 21
-109.3458842783028
 31
0.0
  0
LINE
  5
1A647
  8
SU
  6
CONTINUOUS
 62
     3
 10
-6.7813054797487871
 20
-121.0671578117836
 30
0.0
 11
-6.7813054797487871
 21
-109.2258842783029
 31
0.0
  0
TEXT
  5
1A648
  8
SU
  6
CONTINUOUS
 62
     3
 10
39.050966575684171
 20
-61.276985609697221
 30
0.0
 40
4.0
  1
7.5
 50
90.0
 41
0.8299999999999999
  0
TEXT
  5
1A649
  8
SU
  6
CONTINUOUS
 62
     3
 10
39.050966575684157
 20
-29.308414181109669
 30
0.0
 40
4.0
  1
33
 50
90.0
 41
0.8299999999999999
  0
TEXT
  5
1A64A
  8
SU
  6
CONTINUOUS
 62
     3
 10
54.050966575684157
 20
-1.811422246039303
 30
0.0
 40
4.0
  1
4
 50
90.0
 41
0.8299999999999999
  0
TEXT
  5
1A64B
  8
SU
  6
CONTINUOUS
 62
     3
 10
39.05096657568415
 20
3.1125381998278661
 30
0.0
 40
4.0
  1
24
 50
90.0
 41
0.8299999999999999
  0
TEXT
  5
1A64C
  8
SU
  6
CONTINUOUS
 62
     3
 10
418.10983747540308
 20
-98.846521045043303
 30
0.0
 40
4.0
  1
24
 41
0.8299999999999999
  0
LINE
  5
1A64D
  8
SU
  6
CONTINUOUS
 62
     3
 10
423.48323863111648
 20
-121.0671578117836
 30
0.0
 11
423.48323863111648
 21
-109.2258842783029
 31
0.0
  0
LINE
  5
1A64E
  8
SU
  6
CONTINUOUS
 62
     3
 10
423.68323863111681
 20
-120.9471578117836
 30
0.0
 11
423.68323863111681
 21
-109.3458842783028
 31
0.0
  0
LINE
  5
1A64F
  8
SU
  6
CONTINUOUS
 62
     3
 10
423.8832386311168
 20
-120.82715781178339
 30
0.0
 11
423.8832386311168
 21
-109.46588427830279
 31
0.0
  0
LINE
  5
1A650
  8
SU
  6
CONTINUOUS
 62
     3
 10
424.08323863111679
 20
-120.7071578117836
 30
0.0
 11
424.08323863111679
 21
-109.5858842783028
 31
0.0
  0
LINE
  5
1A651
  8
SU
  6
CONTINUOUS
 62
     3
 10
424.2832386311166
 20
-120.5871578117835
 30
0.0
 11
424.2832386311166
 21
-109.7058842783029
 31
0.0
  0
LINE
  5
1A652
  8
SU
  6
CONTINUOUS
 62
     3
 10
424.48323863111642
 20
-120.46715781178339
 30
0.0
 11
424.48323863111642
 21
-109.82588427830279
 31
0.0
  0
LINE
  5
1A653
  8
SU
  6
CONTINUOUS
 62
     3
 10
424.68323863111681
 20
-120.3471578117836
 30
0.0
 11
424.68323863111681
 21
-109.9458842783028
 31
0.0
  0
LINE
  5
1A654
  8
SU
  6
CONTINUOUS
 62
     3
 10
424.8832386311168
 20
-120.2271578117835
 30
0.0
 11
424.8832386311168
 21
-110.0658842783029
 31
0.0
  0
LINE
  5
1A655
  8
SU
  6
CONTINUOUS
 62
     3
 10
425.08323863111661
 20
-120.10715781178359
 30
0.0
 11
425.08323863111661
 21
-110.18588427830279
 31
0.0
  0
LINE
  5
1A656
  8
SU
  6
CONTINUOUS
 62
     3
 10
425.28323863111672
 20
-119.9871578117835
 30
0.0
 11
425.28323863111672
 21
-110.3058842783029
 31
0.0
  0
LINE
  5
1A657
  8
SU
  6
CONTINUOUS
 62
     3
 10
425.48323863111688
 20
-119.8671578117836
 30
0.0
 11
425.48323863111688
 21
-110.4258842783029
 31
0.0
  0
LINE
  5
1A658
  8
SU
  6
CONTINUOUS
 62
     3
 10
425.68323863111692
 20
-119.7471578117835
 30
0.0
 11
425.68323863111692
 21
-110.54588427830291
 31
0.0
  0
LINE
  5
1A659
  8
SU
  6
CONTINUOUS
 62
     3
 10
425.88323863111668
 20
-119.6271578117836
 30
0.0
 11
425.88323863111668
 21
-110.6658842783029
 31
0.0
  0
LINE
  5
1A65A
  8
SU
  6
CONTINUOUS
 62
     3
 10
426.08323863111673
 20
-119.5071578117836
 30
0.0
 11
426.08323863111673
 21
-110.7858842783029
 31
0.0
  0
LINE
  5
1A65B
  8
SU
  6
CONTINUOUS
 62
     3
 10
426.28323863111689
 20
-119.3871578117835
 30
0.0
 11
426.28323863111689
 21
-110.90588427830291
 31
0.0
  0
LINE
  5
1A65C
  8
SU
  6
CONTINUOUS
 62
     3
 10
426.48323863111688
 20
-119.2671578117836
 30
0.0
 11
426.48323863111688
 21
-111.0258842783027
 31
0.0
  0
LINE
  5
1A65D
  8
SU
  6
CONTINUOUS
 62
     3
 10
426.68323863111669
 20
-119.1471578117836
 30
0.0
 11
426.68323863111669
 21
-111.1458842783028
 31
0.0
  0
LINE
  5
1A65E
  8
SU
  6
CONTINUOUS
 62
     3
 10
426.88323863111668
 20
-119.0271578117835
 30
0.0
 11
426.88323863111668
 21
-111.26588427830291
 31
0.0
  0
LINE
  5
1A65F
  8
SU
  6
CONTINUOUS
 62
     3
 10
427.08323863111679
 20
-118.90715781178361
 30
0.0
 11
427.08323863111679
 21
-111.3858842783028
 31
0.0
  0
LINE
  5
1A660
  8
SU
  6
CONTINUOUS
 62
     3
 10
427.28323863111689
 20
-118.7871578117835
 30
0.0
 11
427.28323863111689
 21
-111.5058842783029
 31
0.0
  0
LINE
  5
1A661
  8
SU
  6
CONTINUOUS
 62
     3
 10
427.48323863111671
 20
-118.6671578117836
 30
0.0
 11
427.48323863111671
 21
-111.62588427830291
 31
0.0
  0
LINE
  5
1A662
  8
SU
  6
CONTINUOUS
 62
     3
 10
427.68323863111681
 20
-118.54715781178351
 30
0.0
 11
427.68323863111681
 21
-111.7458842783028
 31
0.0
  0
LINE
  5
1A663
  8
SU
  6
CONTINUOUS
 62
     3
 10
427.8832386311168
 20
-118.4271578117836
 30
0.0
 11
427.8832386311168
 21
-111.8658842783029
 31
0.0
  0
LINE
  5
1A664
  8
SU
  6
CONTINUOUS
 62
     3
 10
428.08323863111679
 20
-118.3071578117836
 30
0.0
 11
428.08323863111679
 21
-111.9858842783029
 31
0.0
  0
LINE
  5
1A665
  8
SU
  6
CONTINUOUS
 62
     3
 10
428.28323863111672
 20
-118.18715781178361
 30
0.0
 11
428.28323863111672
 21
-112.1058842783029
 31
0.0
  0
LINE
  5
1A666
  8
SU
  6
CONTINUOUS
 62
     3
 10
428.48323863111648
 20
-118.0671578117836
 30
0.0
 11
428.48323863111648
 21
-112.2258842783029
 31
0.0
  0
LINE
  5
1A667
  8
SU
  6
CONTINUOUS
 62
     3
 10
428.68323863111681
 20
-117.9471578117835
 30
0.0
 11
428.68323863111681
 21
-112.3458842783028
 31
0.0
  0
LINE
  5
1A668
  8
SU
  6
CONTINUOUS
 62
     3
 10
428.88323863111691
 20
-117.82715781178339
 30
0.0
 11
428.88323863111691
 21
-112.46588427830279
 31
0.0
  0
LINE
  5
1A669
  8
SU
  6
CONTINUOUS
 62
     3
 10
429.08323863111673
 20
-117.7071578117836
 30
0.0
 11
429.08323863111673
 21
-112.5858842783028
 31
0.0
  0
LINE
  5
1A66A
  8
SU
  6
CONTINUOUS
 62
     3
 10
429.28323863111672
 20
-117.5871578117835
 30
0.0
 11
429.28323863111672
 21
-112.7058842783029
 31
0.0
  0
LINE
  5
1A66B
  8
SU
  6
CONTINUOUS
 62
     3
 10
429.48323863111688
 20
-117.46715781178359
 30
0.0
 11
429.48323863111688
 21
-112.82588427830279
 31
0.0
  0
LINE
  5
1A66C
  8
SU
  6
CONTINUOUS
 62
     3
 10
429.68323863111692
 20
-117.3471578117835
 30
0.0
 11
429.68323863111692
 21
-112.9458842783028
 31
0.0
  0
LINE
  5
1A66D
  8
SU
  6
CONTINUOUS
 62
     3
 10
429.88323863111668
 20
-117.2271578117836
 30
0.0
 11
429.88323863111668
 21
-113.0658842783029
 31
0.0
  0
LINE
  5
1A66E
  8
SU
  6
CONTINUOUS
 62
     3
 10
430.08323863111673
 20
-117.10715781178359
 30
0.0
 11
430.08323863111673
 21
-113.18588427830279
 31
0.0
  0
LINE
  5
1A66F
  8
SU
  6
CONTINUOUS
 62
     3
 10
430.28323863111689
 20
-116.9871578117836
 30
0.0
 11
430.28323863111689
 21
-113.3058842783029
 31
0.0
  0
LINE
  5
1A670
  8
SU
  6
CONTINUOUS
 62
     3
 10
430.48323863111688
 20
-116.8671578117836
 30
0.0
 11
430.48323863111688
 21
-113.4258842783029
 31
0.0
  0
LINE
  5
1A671
  8
SU
  6
CONTINUOUS
 62
     3
 10
430.68323863111669
 20
-116.7471578117835
 30
0.0
 11
430.68323863111669
 21
-113.54588427830291
 31
0.0
  0
LINE
  5
1A672
  8
SU
  6
CONTINUOUS
 62
     3
 10
430.88323863111668
 20
-116.6271578117836
 30
0.0
 11
430.88323863111668
 21
-113.6658842783029
 31
0.0
  0
LINE
  5
1A673
  8
SU
  6
CONTINUOUS
 62
     3
 10
431.08323863111679
 20
-116.5071578117836
 30
0.0
 11
431.08323863111679
 21
-113.7858842783028
 31
0.0
  0
LINE
  5
1A674
  8
SU
  6
CONTINUOUS
 62
     3
 10
431.28323863111689
 20
-116.3871578117835
 30
0.0
 11
431.28323863111689
 21
-113.90588427830291
 31
0.0
  0
LINE
  5
1A675
  8
SU
  6
CONTINUOUS
 62
     3
 10
431.48323863111671
 20
-116.2671578117836
 30
0.0
 11
431.48323863111671
 21
-114.0258842783028
 31
0.0
  0
LINE
  5
1A676
  8
SU
  6
CONTINUOUS
 62
     3
 10
431.68323863111681
 20
-116.1471578117835
 30
0.0
 11
431.68323863111681
 21
-114.1458842783029
 31
0.0
  0
LINE
  5
1A677
  8
SU
  6
CONTINUOUS
 62
     3
 10
431.8832386311168
 20
-116.0271578117835
 30
0.0
 11
431.8832386311168
 21
-114.26588427830291
 31
0.0
  0
LINE
  5
1A678
  8
SU
  6
CONTINUOUS
 62
     3
 10
432.08323863111679
 20
-115.90715781178361
 30
0.0
 11
432.08323863111679
 21
-114.3858842783028
 31
0.0
  0
LINE
  5
1A679
  8
SU
  6
CONTINUOUS
 62
     3
 10
432.28323863111672
 20
-115.7871578117836
 30
0.0
 11
432.28323863111672
 21
-114.5058842783029
 31
0.0
  0
LINE
  5
1A67A
  8
SU
  6
CONTINUOUS
 62
     3
 10
432.48323863111648
 20
-115.6671578117836
 30
0.0
 11
432.48323863111648
 21
-114.62588427830291
 31
0.0
  0
LINE
  5
1A67B
  8
SU
  6
CONTINUOUS
 62
     3
 10
432.68323863111681
 20
-115.54715781178361
 30
0.0
 11
432.68323863111681
 21
-114.7458842783029
 31
0.0
  0
LINE
  5
1A67C
  8
SU
  6
CONTINUOUS
 62
     3
 10
432.88323863111691
 20
-115.4271578117836
 30
0.0
 11
432.88323863111691
 21
-114.8658842783029
 31
0.0
  0
LINE
  5
1A67D
  8
SU
  6
CONTINUOUS
 62
     3
 10
433.08323863111673
 20
-115.3071578117836
 30
0.0
 11
433.08323863111673
 21
-114.98588427830281
 31
0.0
  0
LINE
  5
1A67E
  8
SU
  6
CONTINUOUS
 62
     3
 10
433.2832386311166
 20
-115.18715781178361
 30
0.0
 11
433.2832386311166
 21
-115.1058842783029
 31
0.0
  0
TEXT
  5
1A67F
  8
SU
  6
CONTINUOUS
 62
     3
 10
-147.74056273040401
 20
121.0799099894874
 30
0.0
 40
4.0
  1
7
 50
90.0
 41
0.8299999999999999
  0
TEXT
  5
1A680
  8
SU
  6
CONTINUOUS
 62
     3
 10
-196.68151511135781
 20
-59.039137629558709
 30
0.0
 40
4.0
  1
24
 41
0.8299999999999999
  0
LINE
  5
1A681
  8
OS
  6
CONTINUOUS
 62
     2
 10
-330.44056273040542
 20
-164.8574856211269
 30
0.0
 11
-325.47415548349881
 21
-159.8910783742208
 31
0.0
  0
LINE
  5
1A682
  8
OS
  6
CONTINUOUS
 62
     2
 10
-330.44056273040542
 20
-174.75698055773881
 30
0.0
 11
-315.57466054688712
 21
-159.89107837422071
 31
0.0
  0
LINE
  5
1A683
  8
OS
  6
CONTINUOUS
 62
     2
 10
-320.67516561027583
 20
-174.89107837422071
 30
0.0
 11
-305.67516561027583
 21
-159.8910783742208
 31
0.0
  0
LINE
  5
1A684
  8
OS
  6
CONTINUOUS
 62
     2
 10
-310.77567067366402
 20
-174.89107837422071
 30
0.0
 11
-295.77567067366402
 21
-159.8910783742208
 31
0.0
  0
LINE
  5
1A685
  8
OS
  6
CONTINUOUS
 62
     2
 10
-300.87617573705251
 20
-174.89107837422071
 30
0.0
 11
-285.87617573705251
 21
-159.8910783742208
 31
0.0
  0
LINE
  5
1A686
  8
OS
  6
CONTINUOUS
 62
     2
 10
-290.97668080044082
 20
-174.89107837422071
 30
0.0
 11
-275.97668080044042
 21
-159.8910783742208
 31
0.0
  0
LINE
  5
1A687
  8
OS
  6
CONTINUOUS
 62
     2
 10
-281.07718586382902
 20
-174.89107837422071
 30
0.0
 11
-266.07718586382902
 21
-159.8910783742208
 31
0.0
  0
LINE
  5
1A688
  8
OS
  6
CONTINUOUS
 62
     2
 10
-267.67769092721733
 20
-171.39107837422071
 30
0.0
 11
-256.17769092721738
 21
-159.8910783742208
 31
0.0
  0
LINE
  5
1A689
  8
OS
  6
CONTINUOUS
 62
     2
 10
-257.7781959906057
 20
-171.3910783742208
 30
0.0
 11
-246.27819599060561
 21
-159.8910783742208
 31
0.0
  0
LINE
  5
1A68A
  8
OS
  6
CONTINUOUS
 62
     2
 10
-247.87870105399381
 20
-171.3910783742208
 30
0.0
 11
-236.37870105399381
 21
-159.89107837422091
 31
0.0
  0
LINE
  5
1A68B
  8
OS
  6
CONTINUOUS
 62
     2
 10
-237.97920611738229
 20
-171.39107837422071
 30
0.0
 11
-226.4792061173824
 21
-159.8910783742208
 31
0.0
  0
LINE
  5
1A68C
  8
OS
  6
CONTINUOUS
 62
     2
 10
-231.5797111807706
 20
-174.89107837422091
 30
0.0
 11
-216.57971118077069
 21
-159.8910783742208
 31
0.0
  0
LINE
  5
1A68D
  8
OS
  6
CONTINUOUS
 62
     2
 10
-221.6802162441592
 20
-174.89107837422091
 30
0.0
 11
-206.6802162441592
 21
-159.89107837422091
 31
0.0
  0
LINE
  5
1A68E
  8
OS
  6
CONTINUOUS
 62
     2
 10
-211.78072130754751
 20
-174.89107837422071
 30
0.0
 11
-196.78072130754751
 21
-159.8910783742208
 31
0.0
  0
LINE
  5
1A68F
  8
OS
  6
CONTINUOUS
 62
     2
 10
-201.88122637093559
 20
-174.89107837422071
 30
0.0
 11
-186.9108955043454
 21
-159.92074750763061
 31
0.0
  0
LINE
  5
1A690
  8
OS
  6
CONTINUOUS
 62
     2
 10
-191.9817314343241
 20
-174.89107837422071
 30
0.0
 11
-184.4405627304053
 21
-167.34990967030211
 31
0.0
  0
TEXT
  5
1A691
  8
SU
  6
CONTINUOUS
 62
     3
 10
-88.949035872844988
 20
95.954442961731317
 30
0.0
 40
4.0
  1
12
 50
90.0
 41
0.8299999999999999
  0
TEXT
  5
1A692
  8
SU
  6
CONTINUOUS
 62
     3
 10
-88.949035872844988
 20
-61.526565537452697
 30
0.0
 40
4.0
  1
12.5
 50
90.0
 41
0.8299999999999999
  0
TEXT
  5
1A693
  8
SU
  6
CONTINUOUS
 62
     3
 10
-88.949035872844988
 20
-21.045557038268662
 30
0.0
 40
4.0
  1
12
 50
90.0
 41
0.8299999999999999
  0
TEXT
  5
1A694
  8
SU
  6
CONTINUOUS
 62
     3
 10
-334.33961034945293
 20
233.9608621797048
 30
0.0
 40
4.0
  1
12
 41
0.8299999999999999
  0
TEXT
  5
1A695
  8
SU
  6
CONTINUOUS
 62
     3
 10
-374.82061884863668
 20
233.9608621797048
 30
0.0
 40
4.0
  1
12.5
 41
0.8299999999999999
  0
TEXT
  5
1A696
  8
SU
  6
CONTINUOUS
 62
     3
 10
-277.49961034945278
 20
248.9608621797048
 30
0.0
 40
4.0
  1
154
 41
0.8299999999999999
  0
TEXT
  5
1A697
  8
SU
  6
CONTINUOUS
 62
     3
 10
-359.91865796850033
 20
248.9608621797048
 30
0.0
 40
4.0
  1
14
 41
0.8299999999999999
  0
TEXT
  5
1A698
  8
SU
  6
CONTINUOUS
 62
     3
 10
-181.60145899312559
 20
233.9608621797048
 30
0.0
 40
4.0
  1
12.5
 41
0.8299999999999999
  0
TEXT
  5
1A699
  8
SU
  6
CONTINUOUS
 62
     3
 10
-217.33961034945281
 20
233.9608621797048
 30
0.0
 40
4.0
  1
12
 41
0.8299999999999999
  0
TEXT
  5
1A69A
  8
SU
  6
CONTINUOUS
 62
     3
 10
-191.9186579685005
 20
248.9608621797048
 30
0.0
 40
4.0
  1
14
 41
0.8299999999999999
  0
TEXT
  5
1A69B
  8
SU
  6
CONTINUOUS
 62
     3
 10
-277.42056273040521
 20
233.9608621797048
 30
0.0
 40
4.0
  1
105
 41
0.8299999999999999
  0
TEXT
  5
1A69C
  8
SU
  6
CONTINUOUS
 62
     3
 10
-197.6281817825874
 20
-193.5910783742361
 30
0.0
 40
4.0
  1
21
 41
0.8299999999999999
  0
TEXT
  5
1A69D
  8
SU
  6
CONTINUOUS
 62
     3
 10
-147.74056273040401
 20
-24.84913753419227
 30
0.0
 40
4.0
  1
6
 50
90.0
 41
0.8299999999999999
  0
TEXT
  5
1A69E
  8
SU
  6
CONTINUOUS
 62
     3
 10
-147.74056273040401
 20
-37.126756677178648
 30
0.0
 40
4.0
  1
2
 50
90.0
 41
0.8299999999999999
  0
TEXT
  5
1A69F
  8
SU
  6
CONTINUOUS
 62
     3
 10
-241.10246749231041
 20
-260.80761210988982
 30
0.0
 40
4.0
  1
38
 41
0.8299999999999999
  0
TEXT
  5
1A6A0
  8
SU
  6
CONTINUOUS
 62
     3
 10
-210.74137452503271
 20
-260.80761210988982
 30
0.0
 40
4.0
  1
37.5
 41
0.8299999999999999
  0
TEXT
  5
1A6A1
  8
SU
  6
CONTINUOUS
 62
     3
 10
-162.74009507181981
 20
-264.95546679882642
 30
0.0
 40
4.0
  1
（3）
 50
90.0
 41
0.8299999999999999
  0
TEXT
  5
1A6A2
  8
SU
  6
CONTINUOUS
 62
     3
 10
-147.7405626169014
 20
-262.30189796721902
 30
0.0
 40
4.0
  1
ドアH（DH）
 50
90.0
 41
0.8299999999999999
  0
TEXT
  5
1A6A3
  8
SU
  6
CONTINUOUS
 62
     3
 10
-132.74056261690271
 20
-255.9466598719807
 30
0.0
 40
4.0
  1
H
 50
90.0
 41
0.8299999999999999
  0
TEXT
  5
1A6A4
  8
SU
  6
CONTINUOUS
 62
     3
 10
-147.7405626169014
 20
-296.57123130055243
 30
0.0
 40
4.0
  1
（5）
 50
90.0
 41
0.8299999999999999
  0
LINE
  5
1A6A5
  8
SU
  6
CONTINUOUS
 62
     3
 10
-137.36119938364311
 20
-274.33988430836581
 30
0.0
 11
-125.5199258501622
 21
-274.33988430836581
 31
0.0
  0
LINE
  5
1A6A6
  8
SU
  6
CONTINUOUS
 62
     3
 10
-137.24119938364319
 20
-274.5398843083658
 30
0.0
 11
-125.6399258501623
 21
-274.5398843083658
 31
0.0
  0
LINE
  5
1A6A7
  8
SU
  6
CONTINUOUS
 62
     3
 10
-137.12119938364319
 20
-274.73988430836562
 30
0.0
 11
-125.7599258501622
 21
-274.73988430836562
 31
0.0
  0
LINE
  5
1A6A8
  8
SU
  6
CONTINUOUS
 62
     3
 10
-137.00119938364321
 20
-274.93988430836561
 30
0.0
 11
-125.879925850162
 21
-274.93988430836561
 31
0.0
  0
LINE
  5
1A6A9
  8
SU
  6
CONTINUOUS
 62
     3
 10
-136.88119938364321
 20
-275.13988430836542
 30
0.0
 11
-125.9999258501623
 21
-275.13988430836542
 31
0.0
  0
LINE
  5
1A6AA
  8
SU
  6
CONTINUOUS
 62
     3
 10
-136.76119938364289
 20
-275.33988430836581
 30
0.0
 11
-126.1199258501622
 21
-275.33988430836581
 31
0.0
  0
LINE
  5
1A6AB
  8
SU
  6
CONTINUOUS
 62
     3
 10
-136.6411993836432
 20
-275.5398843083658
 30
0.0
 11
-126.239925850162
 21
-275.5398843083658
 31
0.0
  0
LINE
  5
1A6AC
  8
SU
  6
CONTINUOUS
 62
     3
 10
-136.52119938364319
 20
-275.73988430836562
 30
0.0
 11
-126.3599258501622
 21
-275.73988430836562
 31
0.0
  0
LINE
  5
1A6AD
  8
SU
  6
CONTINUOUS
 62
     3
 10
-136.40119938364319
 20
-275.93988430836561
 30
0.0
 11
-126.4799258501623
 21
-275.93988430836561
 31
0.0
  0
LINE
  5
1A6AE
  8
SU
  6
CONTINUOUS
 62
     3
 10
-136.28119938364321
 20
-276.13988430836559
 30
0.0
 11
-126.59992585016219
 21
-276.13988430836559
 31
0.0
  0
LINE
  5
1A6AF
  8
SU
  6
CONTINUOUS
 62
     3
 10
-136.16119938364321
 20
-276.33988430836581
 30
0.0
 11
-126.7199258501622
 21
-276.33988430836581
 31
0.0
  0
LINE
  5
1A6B0
  8
SU
  6
CONTINUOUS
 62
     3
 10
-136.0411993836432
 20
-276.5398843083658
 30
0.0
 11
-126.8399258501623
 21
-276.5398843083658
 31
0.0
  0
LINE
  5
1A6B1
  8
SU
  6
CONTINUOUS
 62
     3
 10
-135.92119938364311
 20
-276.73988430836562
 30
0.0
 11
-126.95992585016231
 21
-276.73988430836562
 31
0.0
  0
LINE
  5
1A6B2
  8
SU
  6
CONTINUOUS
 62
     3
 10
-135.80119938364311
 20
-276.93988430836561
 30
0.0
 11
-127.0799258501623
 21
-276.93988430836561
 31
0.0
  0
LINE
  5
1A6B3
  8
SU
  6
CONTINUOUS
 62
     3
 10
-135.68119938364319
 20
-277.13988430836542
 30
0.0
 11
-127.1999258501623
 21
-277.13988430836542
 31
0.0
  0
LINE
  5
1A6B4
  8
SU
  6
CONTINUOUS
 62
     3
 10
-135.5611993836431
 20
-277.33988430836581
 30
0.0
 11
-127.31992585016231
 21
-277.33988430836581
 31
0.0
  0
LINE
  5
1A6B5
  8
SU
  6
CONTINUOUS
 62
     3
 10
-135.44119938364301
 20
-277.5398843083658
 30
0.0
 11
-127.4399258501623
 21
-277.5398843083658
 31
0.0
  0
LINE
  5
1A6B6
  8
SU
  6
CONTINUOUS
 62
     3
 10
-135.32119938364281
 20
-277.73988430836562
 30
0.0
 11
-127.5599258501623
 21
-277.73988430836562
 31
0.0
  0
LINE
  5
1A6B7
  8
SU
  6
CONTINUOUS
 62
     3
 10
-135.201199383643
 20
-277.93988430836561
 30
0.0
 11
-127.67992585016231
 21
-277.93988430836561
 31
0.0
  0
LINE
  5
1A6B8
  8
SU
  6
CONTINUOUS
 62
     3
 10
-135.08119938364311
 20
-278.13988430836559
 30
0.0
 11
-127.799925850162
 21
-278.13988430836559
 31
0.0
  0
LINE
  5
1A6B9
  8
SU
  6
CONTINUOUS
 62
     3
 10
-134.96119938364319
 20
-278.33988430836581
 30
0.0
 11
-127.9199258501622
 21
-278.33988430836581
 31
0.0
  0
LINE
  5
1A6BA
  8
SU
  6
CONTINUOUS
 62
     3
 10
-134.84119938364319
 20
-278.5398843083658
 30
0.0
 11
-128.03992585016221
 21
-278.5398843083658
 31
0.0
  0
LINE
  5
1A6BB
  8
SU
  6
CONTINUOUS
 62
     3
 10
-134.72119938364321
 20
-278.73988430836562
 30
0.0
 11
-128.15992585016221
 21
-278.73988430836562
 31
0.0
  0
LINE
  5
1A6BC
  8
SU
  6
CONTINUOUS
 62
     3
 10
-134.60119938364321
 20
-278.93988430836561
 30
0.0
 11
-128.2799258501623
 21
-278.93988430836561
 31
0.0
  0
LINE
  5
1A6BD
  8
SU
  6
CONTINUOUS
 62
     3
 10
-134.4811993836432
 20
-279.13988430836542
 30
0.0
 11
-128.3999258501623
 21
-279.13988430836542
 31
0.0
  0
LINE
  5
1A6BE
  8
SU
  6
CONTINUOUS
 62
     3
 10
-134.36119938364311
 20
-279.33988430836581
 30
0.0
 11
-128.51992585016231
 21
-279.33988430836581
 31
0.0
  0
LINE
  5
1A6BF
  8
SU
  6
CONTINUOUS
 62
     3
 10
-134.24119938364319
 20
-279.5398843083658
 30
0.0
 11
-128.63992585016231
 21
-279.5398843083658
 31
0.0
  0
LINE
  5
1A6C0
  8
SU
  6
CONTINUOUS
 62
     3
 10
-134.12119938364319
 20
-279.73988430836562
 30
0.0
 11
-128.7599258501622
 21
-279.73988430836562
 31
0.0
  0
LINE
  5
1A6C1
  8
SU
  6
CONTINUOUS
 62
     3
 10
-134.00119938364321
 20
-279.93988430836561
 30
0.0
 11
-128.87992585016221
 21
-279.93988430836561
 31
0.0
  0
LINE
  5
1A6C2
  8
SU
  6
CONTINUOUS
 62
     3
 10
-133.88119938364321
 20
-280.13988430836559
 30
0.0
 11
-128.9999258501623
 21
-280.13988430836559
 31
0.0
  0
LINE
  5
1A6C3
  8
SU
  6
CONTINUOUS
 62
     3
 10
-133.7611993836432
 20
-280.3398843083657
 30
0.0
 11
-129.11992585016199
 21
-280.3398843083657
 31
0.0
  0
LINE
  5
1A6C4
  8
SU
  6
CONTINUOUS
 62
     3
 10
-133.6411993836432
 20
-280.53988430836552
 30
0.0
 11
-129.23992585016231
 21
-280.53988430836552
 31
0.0
  0
LINE
  5
1A6C5
  8
SU
  6
CONTINUOUS
 62
     3
 10
-133.52119938364319
 20
-280.73988430836562
 30
0.0
 11
-129.35992585016231
 21
-280.73988430836562
 31
0.0
  0
LINE
  5
1A6C6
  8
SU
  6
CONTINUOUS
 62
     3
 10
-133.40119938364319
 20
-280.93988430836561
 30
0.0
 11
-129.4799258501622
 21
-280.93988430836561
 31
0.0
  0
LINE
  5
1A6C7
  8
SU
  6
CONTINUOUS
 62
     3
 10
-133.28119938364321
 20
-281.13988430836542
 30
0.0
 11
-129.59992585016221
 21
-281.13988430836542
 31
0.0
  0
LINE
  5
1A6C8
  8
SU
  6
CONTINUOUS
 62
     3
 10
-133.16119938364321
 20
-281.33988430836581
 30
0.0
 11
-129.71992585016221
 21
-281.33988430836581
 31
0.0
  0
LINE
  5
1A6C9
  8
SU
  6
CONTINUOUS
 62
     3
 10
-133.0411993836432
 20
-281.5398843083658
 30
0.0
 11
-129.8399258501623
 21
-281.5398843083658
 31
0.0
  0
LINE
  5
1A6CA
  8
SU
  6
CONTINUOUS
 62
     3
 10
-132.92119938364311
 20
-281.73988430836562
 30
0.0
 11
-129.95992585016231
 21
-281.73988430836562
 31
0.0
  0
LINE
  5
1A6CB
  8
SU
  6
CONTINUOUS
 62
     3
 10
-132.80119938364311
 20
-281.93988430836561
 30
0.0
 11
-130.07992585016231
 21
-281.93988430836561
 31
0.0
  0
LINE
  5
1A6CC
  8
SU
  6
CONTINUOUS
 62
     3
 10
-132.68119938364319
 20
-282.13988430836559
 30
0.0
 11
-130.1999258501622
 21
-282.13988430836559
 31
0.0
  0
LINE
  5
1A6CD
  8
SU
  6
CONTINUOUS
 62
     3
 10
-132.5611993836431
 20
-282.33988430836581
 30
0.0
 11
-130.31992585016221
 21
-282.33988430836581
 31
0.0
  0
LINE
  5
1A6CE
  8
SU
  6
CONTINUOUS
 62
     3
 10
-132.44119938364301
 20
-282.53988430836557
 30
0.0
 11
-130.4399258501623
 21
-282.53988430836557
 31
0.0
  0
LINE
  5
1A6CF
  8
SU
  6
CONTINUOUS
 62
     3
 10
-132.32119938364301
 20
-282.73988430836562
 30
0.0
 11
-130.55992585016199
 21
-282.73988430836562
 31
0.0
  0
LINE
  5
1A6D0
  8
SU
  6
CONTINUOUS
 62
     3
 10
-132.201199383643
 20
-282.93988430836549
 30
0.0
 11
-130.67992585016231
 21
-282.93988430836549
 31
0.0
  0
LINE
  5
1A6D1
  8
SU
  6
CONTINUOUS
 62
     3
 10
-132.08119938364311
 20
-283.13988430836559
 30
0.0
 11
-130.7999258501624
 21
-283.13988430836559
 31
0.0
  0
LINE
  5
1A6D2
  8
SU
  6
CONTINUOUS
 62
     3
 10
-131.96119938364319
 20
-283.33988430836581
 30
0.0
 11
-130.9199258501624
 21
-283.33988430836581
 31
0.0
  0
LINE
  5
1A6D3
  8
SU
  6
CONTINUOUS
 62
     3
 10
-131.84119938364319
 20
-283.53988430836557
 30
0.0
 11
-131.03992585016201
 21
-283.53988430836557
 31
0.0
  0
LINE
  5
1A6D4
  8
SU
  6
CONTINUOUS
 62
     3
 10
-131.72119938364321
 20
-283.73988430836562
 30
0.0
 11
-131.15992585016221
 21
-283.73988430836562
 31
0.0
  0
LINE
  5
1A6D5
  8
SU
  6
CONTINUOUS
 62
     3
 10
-131.60119938364321
 20
-283.93988430836561
 30
0.0
 11
-131.2799258501623
 21
-283.93988430836561
 31
0.0
  0
LINE
  5
1A6D6
  8
SU
  6
CONTINUOUS
 62
     3
 10
-131.4811993836428
 20
-284.13988430836559
 30
0.0
 11
-131.3999258501623
 21
-284.13988430836559
 31
0.0
  0
TEXT
  5
1A6D7
  8
SU
  6
CONTINUOUS
 62
     3
 10
-196.68151511135861
 20
-311.90761225293312
 30
0.0
 40
4.0
  1
24
 41
0.8299999999999999
  0
TEXT
  5
1A6D8
  8
SU
  6
CONTINUOUS
 62
     3
 10
-132.74056261690271
 20
-293.60665987198081
 30
0.0
 40
4.0
  1
12
 50
90.0
 41
0.8299999999999999
  0
TEXT
  5
1A6D9
  8
SU
  6
CONTINUOUS
 62
     3
 10
-208.6024674923101
 20
88.460861685956957
 30
0.0
 40
4.0
  1
33
 41
0.8299999999999999
  0
TEXT
  5
1A6DA
  8
SU
  6
CONTINUOUS
 62
     3
 10
153.1827829896153
 20
153.15349058078141
 30
0.0
 40
4.0
  1
有効開口＝W-172
 41
0.8299999999999999
  0
TEXT
  5
1A6DB
  8
SU
  6
CONTINUOUS
 62
     3
 10
39.050966575684363
 20
-29.308414181109669
 30
0.0
 40
4.0
  1
33
 50
90.0
 41
0.8299999999999999
  0
TEXT
  5
1A6DC
  8
SU
  6
CONTINUOUS
 62
     3
 10
404.69078986414911
 20
-98.846521045043303
 30
0.0
 40
4.0
  1
6
 41
0.8299999999999999
  0
TEXT
  5
1A6DD
  8
SU
  6
CONTINUOUS
 62
     3
 10
185.7708782277104
 20
-98.846521045042053
 30
0.0
 40
4.0
  1
ドアW（DW）=W-58
 41
0.8299999999999999
  0
TEXT
  5
1A6DE
  8
SU
  6
CONTINUOUS
 62
     3
 10
121.12239959981591
 20
-67.513187711708596
 30
0.0
 40
4.0
  1
2（DW-1）/3
 41
0.8299999999999999
  0
TEXT
  5
1A6DF
  8
SU
  6
CONTINUOUS
 62
     3
 10
326.2542359107872
 20
-67.513187711708596
 30
0.0
 40
4.0
  1
（DW-1）/3
 41
0.8299999999999999
  0
TEXT
  5
1A6E0
  8
SU
  6
CONTINUOUS
 62
     3
 10
269.2018326083608
 20
-68.846521045041939
 30
0.0
 40
4.0
  1
1
 41
0.8299999999999999
  0
TEXT
  5
1A6E1
  8
SU
  6
CONTINUOUS
 62
     3
 10
-384.7405627304052
 20
156.41990998948779
 30
0.0
 40
4.0
  1
24
 50
90.0
 41
0.8299999999999999
  0
TEXT
  5
1A6E2
  8
SU
  6
CONTINUOUS
 62
     3
 10
-384.7405627304052
 20
119.1353451609161
 30
0.0
 40
4.0
  1
（13）
 50
90.0
 41
0.8299999999999999
  0
ARC
  5
1A6E3
  8
SU
  6
CONTINUOUS
 62
     3
 10
-383.4405627304053
 20
147.66086237043999
 30
0.0
 40
0.3000000000000114
 50
270.0
 51
90.0
  0
ARC
  5
1A6E4
  8
SU
  6
CONTINUOUS
 62
     3
 10
-383.4405627304053
 20
147.66086237043999
 30
0.0
 40
0.3000000000000114
 50
90.0
 51
270.0
  0
ARC
  5
1A6E5
  8
SU
  6
CONTINUOUS
 62
     3
 10
-383.4405627304053
 20
134.66086897044011
 30
0.0
 40
0.3000000000000114
 50
90.0
 51
270.0
  0
ARC
  5
1A6E6
  8
SU
  6
CONTINUOUS
 62
     3
 10
-383.4405627304053
 20
134.66086897044011
 30
0.0
 40
0.3000000000000114
 50
270.0
 51
90.0
  0
ARC
  5
1A6E7
  8
SU
  6
CONTINUOUS
 62
     3
 10
-383.44056273040519
 20
171.66086237043999
 30
0.0
 40
0.3000000000000114
 50
270.0
 51
90.0
  0
ARC
  5
1A6E8
  8
SU
  6
CONTINUOUS
 62
     3
 10
-383.44056273040519
 20
171.66086237043999
 30
0.0
 40
0.3000000000000114
 50
90.0
 51
270.0
  0
ARC
  5
1A6E9
  8
SU
  6
CONTINUOUS
 62
     3
 10
-383.44056273040519
 20
147.66086237043999
 30
0.0
 40
0.3000000000000114
 50
90.0
 51
270.0
  0
ARC
  5
1A6EA
  8
SU
  6
CONTINUOUS
 62
     3
 10
-383.44056273040519
 20
147.66086237043999
 30
0.0
 40
0.3000000000000114
 50
270.0
 51
90.0
  0
ARC
  5
1A6EB
  8
SU
  6
CONTINUOUS
 62
     3
 10
263.05040403693232
 20
-70.146521045041936
 30
0.0
 40
0.3000000000000114
 50
180.0
 51
0.0
  0
ARC
  5
1A6EC
  8
SU
  6
CONTINUOUS
 62
     3
 10
263.05040403693232
 20
-70.146521045041936
 30
0.0
 40
0.3000000000000114
 50
0.0
 51
180.0
  0
ARC
  5
1A6ED
  8
SU
  6
CONTINUOUS
 62
     3
 10
264.05040403693238
 20
-70.146521045041936
 30
0.0
 40
0.3000000000000114
 50
0.0
 51
180.0
  0
ARC
  5
1A6EE
  8
SU
  6
CONTINUOUS
 62
     3
 10
264.05040403693238
 20
-70.146521045041936
 30
0.0
 40
0.3000000000000114
 50
180.0
 51
0.0
  0
ARC
  5
1A6EF
  8
SU
  6
CONTINUOUS
 62
     3
 10
403.35078986414999
 20
-70.146521045041936
 30
0.0
 40
0.3000000000000114
 50
180.0
 51
0.0
  0
ARC
  5
1A6F0
  8
SU
  6
CONTINUOUS
 62
     3
 10
403.35078986414999
 20
-70.146521045041936
 30
0.0
 40
0.3000000000000114
 50
0.0
 51
180.0
  0
ARC
  5
1A6F1
  8
SU
  6
CONTINUOUS
 62
     3
 10
264.05040403693238
 20
-70.146521045041936
 30
0.0
 40
0.3000000000000114
 50
0.0
 51
180.0
  0
ARC
  5
1A6F2
  8
SU
  6
CONTINUOUS
 62
     3
 10
264.05040403693238
 20
-70.146521045041936
 30
0.0
 40
0.3000000000000114
 50
180.0
 51
0.0
  0
ARC
  5
1A6F3
  8
SU
  6
CONTINUOUS
 62
     3
 10
11.35096659127105
 20
-70.146521045041936
 30
0.0
 40
0.3000000000000007
 50
0.0
 51
180.0
  0
ARC
  5
1A6F4
  8
SU
  6
CONTINUOUS
 62
     3
 10
11.35096659127105
 20
-70.146521045041936
 30
0.0
 40
0.3000000000000007
 50
180.0
 51
0.0
  0
ARC
  5
1A6F5
  8
SU
  6
CONTINUOUS
 62
     3
 10
403.35078986414999
 20
-100.14652104504199
 30
0.0
 40
0.3000000000000114
 50
180.0
 51
0.0
  0
ARC
  5
1A6F6
  8
SU
  6
CONTINUOUS
 62
     3
 10
403.35078986414999
 20
-100.14652104504199
 30
0.0
 40
0.3000000000000114
 50
0.0
 51
180.0
  0
ARC
  5
1A6F7
  8
SU
  6
CONTINUOUS
 62
     3
 10
11.35096659127105
 20
-100.14652104504199
 30
0.0
 40
0.3000000000000007
 50
0.0
 51
180.0
  0
ARC
  5
1A6F8
  8
SU
  6
CONTINUOUS
 62
     3
 10
11.35096659127105
 20
-100.14652104504199
 30
0.0
 40
0.3000000000000007
 50
180.0
 51
0.0
  0
ARC
  5
1A6F9
  8
SU
  6
CONTINUOUS
 62
     3
 10
403.3507898641501
 20
-100.1465210450433
 30
0.0
 40
0.3000000000000114
 50
0.0
 51
180.0
  0
ARC
  5
1A6FA
  8
SU
  6
CONTINUOUS
 62
     3
 10
403.3507898641501
 20
-100.1465210450433
 30
0.0
 40
0.3000000000000114
 50
180.0
 51
0.0
  0
ARC
  5
1A6FB
  8
SU
  6
CONTINUOUS
 62
     3
 10
409.350789864148
 20
-100.1465210450433
 30
0.0
 40
0.3000000000000114
 50
180.0
 51
0.0
  0
ARC
  5
1A6FC
  8
SU
  6
CONTINUOUS
 62
     3
 10
409.350789864148
 20
-100.1465210450433
 30
0.0
 40
0.3000000000000114
 50
0.0
 51
180.0
  0
ARC
  5
1A6FD
  8
SU
  6
CONTINUOUS
 62
     3
 10
40.350966575684367
 20
-42.646509419204911
 30
0.0
 40
0.2999999999999971
 50
90.0
 51
270.0
  0
ARC
  5
1A6FE
  8
SU
  6
CONTINUOUS
 62
     3
 10
40.350966575684367
 20
-42.646509419204911
 30
0.0
 40
0.2999999999999971
 50
270.0
 51
90.0
  0
ARC
  5
1A6FF
  8
SU
  6
CONTINUOUS
 62
     3
 10
322.85078987973719
 20
151.85349058078131
 30
0.0
 40
0.3000000000000114
 50
180.0
 51
0.0
  0
ARC
  5
1A700
  8
SU
  6
CONTINUOUS
 62
     3
 10
322.85078987973719
 20
151.85349058078131
 30
0.0
 40
0.3000000000000114
 50
0.0
 51
180.0
  0
ARC
  5
1A701
  8
SU
  6
CONTINUOUS
 62
     3
 10
-221.9405627304053
 20
87.160861685956903
 30
0.0
 40
0.3000000000000114
 50
0.0
 51
180.0
  0
ARC
  5
1A702
  8
SU
  6
CONTINUOUS
 62
     3
 10
-221.9405627304053
 20
87.160861685956903
 30
0.0
 40
0.3000000000000114
 50
180.0
 51
0.0
  0
ARC
  5
1A703
  8
SU
  6
CONTINUOUS
 62
     3
 10
-131.44056261690261
 20
-296.20761225293342
 30
0.0
 40
0.3000000000000114
 50
90.0
 51
270.0
  0
ARC
  5
1A704
  8
SU
  6
CONTINUOUS
 62
     3
 10
-131.44056261690261
 20
-296.20761225293342
 30
0.0
 40
0.3000000000000114
 50
270.0
 51
90.0
  0
ARC
  5
1A705
  8
SU
  6
CONTINUOUS
 62
     3
 10
-181.44056273040519
 20
-313.20761225293319
 30
0.0
 40
0.3000000000000114
 50
180.0
 51
0.0
  0
ARC
  5
1A706
  8
SU
  6
CONTINUOUS
 62
     3
 10
-181.44056273040519
 20
-313.20761225293319
 30
0.0
 40
0.3000000000000114
 50
0.0
 51
180.0
  0
ARC
  5
1A707
  8
SU
  6
CONTINUOUS
 62
     3
 10
-205.44056273040701
 20
-313.20761225293319
 30
0.0
 40
0.3000000000000114
 50
0.0
 51
180.0
  0
ARC
  5
1A708
  8
SU
  6
CONTINUOUS
 62
     3
 10
-205.44056273040701
 20
-313.20761225293319
 30
0.0
 40
0.3000000000000114
 50
180.0
 51
0.0
  0
ARC
  5
1A709
  8
SU
  6
CONTINUOUS
 62
     3
 10
-146.4405626169013
 20
-284.20761225293342
 30
0.0
 40
0.3000000000000114
 50
90.0
 51
270.0
  0
ARC
  5
1A70A
  8
SU
  6
CONTINUOUS
 62
     3
 10
-146.4405626169013
 20
-284.20761225293342
 30
0.0
 40
0.3000000000000114
 50
270.0
 51
90.0
  0
ARC
  5
1A70B
  8
SU
  6
CONTINUOUS
 62
     3
 10
-146.4405626169013
 20
-276.20761225293302
 30
0.0
 40
0.3000000000000114
 50
90.0
 51
270.0
  0
ARC
  5
1A70C
  8
SU
  6
CONTINUOUS
 62
     3
 10
-146.4405626169013
 20
-276.20761225293302
 30
0.0
 40
0.3000000000000114
 50
270.0
 51
90.0
  0
ARC
  5
1A70D
  8
SU
  6
CONTINUOUS
 62
     3
 10
-146.4405626169013
 20
-279.4076122529334
 30
0.0
 40
0.3000000000000114
 50
90.0
 51
270.0
  0
ARC
  5
1A70E
  8
SU
  6
CONTINUOUS
 62
     3
 10
-146.4405626169013
 20
-279.4076122529334
 30
0.0
 40
0.3000000000000114
 50
270.0
 51
90.0
  0
ARC
  5
1A70F
  8
SU
  6
CONTINUOUS
 62
     3
 10
-181.44056273040519
 20
-262.10761210989
 30
0.0
 40
0.3000000000000114
 50
180.0
 51
0.0
  0
ARC
  5
1A710
  8
SU
  6
CONTINUOUS
 62
     3
 10
-181.44056273040519
 20
-262.10761210989
 30
0.0
 40
0.3000000000000114
 50
0.0
 51
180.0
  0
ARC
  5
1A711
  8
SU
  6
CONTINUOUS
 62
     3
 10
-256.94056273040542
 20
-262.10761210989
 30
0.0
 40
0.3000000000000114
 50
0.0
 51
180.0
  0
ARC
  5
1A712
  8
SU
  6
CONTINUOUS
 62
     3
 10
-256.94056273040542
 20
-262.10761210989
 30
0.0
 40
0.3000000000000114
 50
180.0
 51
0.0
  0
ARC
  5
1A713
  8
SU
  6
CONTINUOUS
 62
     3
 10
-218.94056273040559
 20
-262.10761210989
 30
0.0
 40
0.3000000000000114
 50
180.0
 51
0.0
  0
ARC
  5
1A714
  8
SU
  6
CONTINUOUS
 62
     3
 10
-218.94056273040559
 20
-262.10761210989
 30
0.0
 40
0.3000000000000114
 50
0.0
 51
180.0
  0
ARC
  5
1A715
  8
SU
  6
CONTINUOUS
 62
     3
 10
-146.440562730404
 20
-28.33913762955962
 30
0.0
 40
0.3000000000000007
 50
270.0
 51
90.0
  0
ARC
  5
1A716
  8
SU
  6
CONTINUOUS
 62
     3
 10
-146.440562730404
 20
-28.33913762955962
 30
0.0
 40
0.3000000000000007
 50
90.0
 51
270.0
  0
ARC
  5
1A717
  8
SU
  6
CONTINUOUS
 62
     3
 10
-146.440562730404
 20
-26.03913743882465
 30
0.0
 40
0.3000000000000007
 50
90.0
 51
270.0
  0
ARC
  5
1A718
  8
SU
  6
CONTINUOUS
 62
     3
 10
-146.440562730404
 20
-26.03913743882465
 30
0.0
 40
0.3000000000000007
 50
270.0
 51
90.0
  0
ARC
  5
1A719
  8
SU
  6
CONTINUOUS
 62
     3
 10
-205.4405627304042
 20
-194.89107837423609
 30
0.0
 40
0.3000000000000114
 50
0.0
 51
180.0
  0
ARC
  5
1A71A
  8
SU
  6
CONTINUOUS
 62
     3
 10
-205.4405627304042
 20
-194.89107837423609
 30
0.0
 40
0.3000000000000114
 50
180.0
 51
0.0
  0
ARC
  5
1A71B
  8
SU
  6
CONTINUOUS
 62
     3
 10
-184.44056273953279
 20
-194.89107837423609
 30
0.0
 40
0.3000000000000114
 50
180.0
 51
0.0
  0
ARC
  5
1A71C
  8
SU
  6
CONTINUOUS
 62
     3
 10
-184.44056273953279
 20
-194.89107837423609
 30
0.0
 40
0.3000000000000114
 50
0.0
 51
180.0
  0
ARC
  5
1A71D
  8
SU
  6
CONTINUOUS
 62
     3
 10
-324.9405627304053
 20
232.66086217970511
 30
0.0
 40
0.3000000000000114
 50
0.0
 51
180.0
  0
ARC
  5
1A71E
  8
SU
  6
CONTINUOUS
 62
     3
 10
-324.9405627304053
 20
232.66086217970511
 30
0.0
 40
0.3000000000000114
 50
180.0
 51
0.0
  0
ARC
  5
1A71F
  8
SU
  6
CONTINUOUS
 62
     3
 10
-219.9405627304053
 20
232.66086217970511
 30
0.0
 40
0.3000000000000114
 50
180.0
 51
0.0
  0
ARC
  5
1A720
  8
SU
  6
CONTINUOUS
 62
     3
 10
-219.9405627304053
 20
232.66086217970511
 30
0.0
 40
0.3000000000000114
 50
0.0
 51
180.0
  0
ARC
  5
1A721
  8
SU
  6
CONTINUOUS
 62
     3
 10
-195.44056273040511
 20
247.66086217970511
 30
0.0
 40
0.3000000000000114
 50
0.0
 51
180.0
  0
ARC
  5
1A722
  8
SU
  6
CONTINUOUS
 62
     3
 10
-195.44056273040511
 20
247.66086217970511
 30
0.0
 40
0.3000000000000114
 50
180.0
 51
0.0
  0
ARC
  5
1A723
  8
SU
  6
CONTINUOUS
 62
     3
 10
-181.44056273040511
 20
247.66086217970511
 30
0.0
 40
0.3000000000000114
 50
180.0
 51
0.0
  0
ARC
  5
1A724
  8
SU
  6
CONTINUOUS
 62
     3
 10
-181.44056273040511
 20
247.66086217970511
 30
0.0
 40
0.3000000000000114
 50
0.0
 51
180.0
  0
ARC
  5
1A725
  8
SU
  6
CONTINUOUS
 62
     3
 10
-207.94056273040511
 20
232.66086217970511
 30
0.0
 40
0.3000000000000114
 50
180.0
 51
0.0
  0
ARC
  5
1A726
  8
SU
  6
CONTINUOUS
 62
     3
 10
-207.94056273040511
 20
232.66086217970511
 30
0.0
 40
0.3000000000000114
 50
0.0
 51
180.0
  0
ARC
  5
1A727
  8
SU
  6
CONTINUOUS
 62
     3
 10
-195.44056273040511
 20
232.66086217970511
 30
0.0
 40
0.3000000000000114
 50
180.0
 51
0.0
  0
ARC
  5
1A728
  8
SU
  6
CONTINUOUS
 62
     3
 10
-195.44056273040511
 20
232.66086217970511
 30
0.0
 40
0.3000000000000114
 50
0.0
 51
180.0
  0
ARC
  5
1A729
  8
SU
  6
CONTINUOUS
 62
     3
 10
-349.4405627304053
 20
247.66086217970511
 30
0.0
 40
0.3000000000000114
 50
180.0
 51
0.0
  0
ARC
  5
1A72A
  8
SU
  6
CONTINUOUS
 62
     3
 10
-349.4405627304053
 20
247.66086217970511
 30
0.0
 40
0.3000000000000114
 50
0.0
 51
180.0
  0
ARC
  5
1A72B
  8
SU
  6
CONTINUOUS
 62
     3
 10
-363.4405627304053
 20
247.66086217970511
 30
0.0
 40
0.3000000000000114
 50
0.0
 51
180.0
  0
ARC
  5
1A72C
  8
SU
  6
CONTINUOUS
 62
     3
 10
-363.4405627304053
 20
247.66086217970511
 30
0.0
 40
0.3000000000000114
 50
180.0
 51
0.0
  0
ARC
  5
1A72D
  8
SU
  6
CONTINUOUS
 62
     3
 10
-349.4405627304053
 20
232.66086217970511
 30
0.0
 40
0.3000000000000114
 50
0.0
 51
180.0
  0
ARC
  5
1A72E
  8
SU
  6
CONTINUOUS
 62
     3
 10
-349.4405627304053
 20
232.66086217970511
 30
0.0
 40
0.3000000000000114
 50
180.0
 51
0.0
  0
ARC
  5
1A72F
  8
SU
  6
CONTINUOUS
 62
     3
 10
-336.9405627304053
 20
232.66086217970511
 30
0.0
 40
0.3000000000000114
 50
0.0
 51
180.0
  0
ARC
  5
1A730
  8
SU
  6
CONTINUOUS
 62
     3
 10
-336.9405627304053
 20
232.66086217970511
 30
0.0
 40
0.3000000000000114
 50
180.0
 51
0.0
  0
ARC
  5
1A731
  8
SU
  6
CONTINUOUS
 62
     3
 10
-87.649035872844976
 20
-23.646509419221029
 30
0.0
 40
0.3000000000000007
 50
90.0
 51
270.0
  0
ARC
  5
1A732
  8
SU
  6
CONTINUOUS
 62
     3
 10
-87.649035872844976
 20
-23.646509419221029
 30
0.0
 40
0.3000000000000007
 50
270.0
 51
90.0
  0
ARC
  5
1A733
  8
SU
  6
CONTINUOUS
 62
     3
 10
-87.649035872844976
 20
-36.146509419220997
 30
0.0
 40
0.2999999999999971
 50
90.0
 51
270.0
  0
ARC
  5
1A734
  8
SU
  6
CONTINUOUS
 62
     3
 10
-87.649035872844976
 20
-36.146509419220997
 30
0.0
 40
0.2999999999999971
 50
270.0
 51
90.0
  0
ARC
  5
1A735
  8
SU
  6
CONTINUOUS
 62
     3
 10
-87.649035872844976
 20
105.3534905807789
 30
0.0
 40
0.2999999999999971
 50
270.0
 51
90.0
  0
ARC
  5
1A736
  8
SU
  6
CONTINUOUS
 62
     3
 10
-87.649035872844976
 20
105.3534905807789
 30
0.0
 40
0.2999999999999971
 50
90.0
 51
270.0
  0
ARC
  5
1A737
  8
SU
  6
CONTINUOUS
 62
     3
 10
-205.44056273040539
 20
-60.339137629558707
 30
0.0
 40
0.3000000000000114
 50
0.0
 51
180.0
  0
ARC
  5
1A738
  8
SU
  6
CONTINUOUS
 62
     3
 10
-205.44056273040539
 20
-60.339137629558707
 30
0.0
 40
0.3000000000000114
 50
180.0
 51
0.0
  0
ARC
  5
1A739
  8
SU
  6
CONTINUOUS
 62
     3
 10
-181.44056273040511
 20
-60.339137629558707
 30
0.0
 40
0.3000000000000114
 50
180.0
 51
0.0
  0
ARC
  5
1A73A
  8
SU
  6
CONTINUOUS
 62
     3
 10
-181.44056273040511
 20
-60.339137629558707
 30
0.0
 40
0.3000000000000114
 50
0.0
 51
180.0
  0
ARC
  5
1A73B
  8
SU
  6
CONTINUOUS
 62
     3
 10
-146.440562730404
 20
119.1608623704401
 30
0.0
 40
0.2999999999999971
 50
90.0
 51
270.0
  0
ARC
  5
1A73C
  8
SU
  6
CONTINUOUS
 62
     3
 10
-146.440562730404
 20
119.1608623704401
 30
0.0
 40
0.2999999999999971
 50
270.0
 51
90.0
  0
ARC
  5
1A73D
  8
SU
  6
CONTINUOUS
 62
     3
 10
433.35078986414982
 20
-100.1465210450433
 30
0.0
 40
0.3000000000000114
 50
180.0
 51
0.0
  0
ARC
  5
1A73E
  8
SU
  6
CONTINUOUS
 62
     3
 10
433.35078986414982
 20
-100.1465210450433
 30
0.0
 40
0.3000000000000114
 50
0.0
 51
180.0
  0
ARC
  5
1A73F
  8
SU
  6
CONTINUOUS
 62
     3
 10
40.350966575684147
 20
18.353490580781401
 30
0.0
 40
0.3000000000000007
 50
270.0
 51
90.0
  0
ARC
  5
1A740
  8
SU
  6
CONTINUOUS
 62
     3
 10
40.350966575684147
 20
18.353490580781401
 30
0.0
 40
0.3000000000000007
 50
90.0
 51
270.0
  0
ARC
  5
1A741
  8
SU
  6
CONTINUOUS
 62
     3
 10
40.350966575684147
 20
-9.6465094192049143
 30
0.0
 40
0.3000000000000007
 50
90.0
 51
270.0
  0
ARC
  5
1A742
  8
SU
  6
CONTINUOUS
 62
     3
 10
40.350966575684147
 20
-9.6465094192049143
 30
0.0
 40
0.3000000000000007
 50
270.0
 51
90.0
  0
ARC
  5
1A743
  8
SU
  6
CONTINUOUS
 62
     3
 10
40.350966575684147
 20
-5.6465094192209424
 30
0.0
 40
0.2999999999999998
 50
270.0
 51
90.0
  0
ARC
  5
1A744
  8
SU
  6
CONTINUOUS
 62
     3
 10
40.350966575684147
 20
-5.6465094192209424
 30
0.0
 40
0.2999999999999998
 50
90.0
 51
270.0
  0
ARC
  5
1A745
  8
SU
  6
CONTINUOUS
 62
     3
 10
40.350966575684147
 20
-42.646509419204911
 30
0.0
 40
0.2999999999999971
 50
90.0
 51
270.0
  0
ARC
  5
1A746
  8
SU
  6
CONTINUOUS
 62
     3
 10
40.350966575684147
 20
-42.646509419204911
 30
0.0
 40
0.2999999999999971
 50
270.0
 51
90.0
  0
ARC
  5
1A747
  8
SU
  6
CONTINUOUS
 62
     3
 10
40.350966575684147
 20
-42.646509419204911
 30
0.0
 40
0.2999999999999971
 50
270.0
 51
90.0
  0
ARC
  5
1A748
  8
SU
  6
CONTINUOUS
 62
     3
 10
40.350966575684147
 20
-42.646509419204911
 30
0.0
 40
0.2999999999999971
 50
90.0
 51
270.0
  0
ARC
  5
1A749
  8
SU
  6
CONTINUOUS
 62
     3
 10
40.350966575684147
 20
-50.146509419221061
 30
0.0
 40
0.2999999999999971
 50
90.0
 51
270.0
  0
ARC
  5
1A74A
  8
SU
  6
CONTINUOUS
 62
     3
 10
40.350966575684147
 20
-50.146509419221061
 30
0.0
 40
0.2999999999999971
 50
270.0
 51
90.0
  0
ARC
  5
1A74B
  8
SU
  6
CONTINUOUS
 62
     3
 10
11.350966591270611
 20
-100.1465210450433
 30
0.0
 40
0.3000000000000007
 50
180.0
 51
0.0
  0
ARC
  5
1A74C
  8
SU
  6
CONTINUOUS
 62
     3
 10
11.350966591270611
 20
-100.1465210450433
 30
0.0
 40
0.3000000000000007
 50
0.0
 51
180.0
  0
ARC
  5
1A74D
  8
SU
  6
CONTINUOUS
 62
     3
 10
7.3509665756839233
 20
-100.1465210450433
 30
0.0
 40
0.2999999999999998
 50
0.0
 51
180.0
  0
ARC
  5
1A74E
  8
SU
  6
CONTINUOUS
 62
     3
 10
7.3509665756839233
 20
-100.1465210450433
 30
0.0
 40
0.2999999999999998
 50
180.0
 51
0.0
  0
ARC
  5
1A74F
  8
SU
  6
CONTINUOUS
 62
     3
 10
-16.649033424316301
 20
-100.1465210450433
 30
0.0
 40
0.3000000000000007
 50
0.0
 51
180.0
  0
ARC
  5
1A750
  8
SU
  6
CONTINUOUS
 62
     3
 10
-16.649033424316301
 20
-100.1465210450433
 30
0.0
 40
0.3000000000000007
 50
180.0
 51
0.0
  0
ARC
  5
1A751
  8
SU
  6
CONTINUOUS
 62
     3
 10
7.3509665756841551
 20
151.85349058077901
 30
0.0
 40
0.2999999999999998
 50
0.0
 51
180.0
  0
ARC
  5
1A752
  8
SU
  6
CONTINUOUS
 62
     3
 10
7.3509665756841551
 20
151.85349058077901
 30
0.0
 40
0.2999999999999998
 50
180.0
 51
0.0
  0
ARC
  5
1A753
  8
SU
  6
CONTINUOUS
 62
     3
 10
20.350966575684161
 20
151.85349058077901
 30
0.0
 40
0.3000000000000007
 50
180.0
 51
0.0
  0
ARC
  5
1A754
  8
SU
  6
CONTINUOUS
 62
     3
 10
20.350966575684161
 20
151.85349058077901
 30
0.0
 40
0.3000000000000007
 50
0.0
 51
180.0
  0
ARC
  5
1A755
  8
SU
  6
CONTINUOUS
 62
     3
 10
69.3509690242131
 20
131.85349058077901
 30
0.0
 40
0.3000000000000114
 50
270.0
 51
90.0
  0
ARC
  5
1A756
  8
SU
  6
CONTINUOUS
 62
     3
 10
69.3509690242131
 20
131.85349058077901
 30
0.0
 40
0.3000000000000114
 50
90.0
 51
270.0
  0
ARC
  5
1A757
  8
SU
  6
CONTINUOUS
 62
     3
 10
69.350969024213072
 20
-50.146509419221061
 30
0.0
 40
0.2999999999999971
 50
90.0
 51
270.0
  0
ARC
  5
1A758
  8
SU
  6
CONTINUOUS
 62
     3
 10
69.350969024213072
 20
-50.146509419221061
 30
0.0
 40
0.2999999999999971
 50
270.0
 51
90.0
  0
ARC
  5
1A759
  8
SU
  6
CONTINUOUS
 62
     3
 10
409.3507898641497
 20
151.8534905807789
 30
0.0
 40
0.3000000000000114
 50
180.0
 51
0.0
  0
ARC
  5
1A75A
  8
SU
  6
CONTINUOUS
 62
     3
 10
409.3507898641497
 20
151.8534905807789
 30
0.0
 40
0.3000000000000114
 50
0.0
 51
180.0
  0
ARC
  5
1A75B
  8
SU
  6
CONTINUOUS
 62
     3
 10
396.35078986414942
 20
151.8534905807789
 30
0.0
 40
0.3000000000000114
 50
0.0
 51
180.0
  0
ARC
  5
1A75C
  8
SU
  6
CONTINUOUS
 62
     3
 10
396.35078986414942
 20
151.8534905807789
 30
0.0
 40
0.3000000000000114
 50
180.0
 51
0.0
  0
ARC
  5
1A75D
  8
SU
  6
CONTINUOUS
 62
     3
 10
40.350966575684147
 20
131.85349058077901
 30
0.0
 40
0.3000000000000114
 50
270.0
 51
90.0
  0
ARC
  5
1A75E
  8
SU
  6
CONTINUOUS
 62
     3
 10
40.350966575684147
 20
131.85349058077901
 30
0.0
 40
0.3000000000000114
 50
90.0
 51
270.0
  0
ARC
  5
1A75F
  8
SU
  6
CONTINUOUS
 62
     3
 10
-87.649035872844976
 20
117.8534905807789
 30
0.0
 40
0.2999999999999971
 50
270.0
 51
90.0
  0
ARC
  5
1A760
  8
SU
  6
CONTINUOUS
 62
     3
 10
-87.649035872844976
 20
117.8534905807789
 30
0.0
 40
0.2999999999999971
 50
90.0
 51
270.0
  0
ARC
  5
1A761
  8
SU
  6
CONTINUOUS
 62
     3
 10
-188.94056273040539
 20
87.160862204457359
 30
0.0
 40
0.3000000000000114
 50
0.0
 51
180.0
  0
ARC
  5
1A762
  8
SU
  6
CONTINUOUS
 62
     3
 10
-188.94056273040539
 20
87.160862204457359
 30
0.0
 40
0.3000000000000114
 50
180.0
 51
0.0
  0
ARC
  5
1A763
  8
SU
  6
CONTINUOUS
 62
     3
 10
-184.4405627304053
 20
87.160862204457359
 30
0.0
 40
0.3000000000000114
 50
180.0
 51
0.0
  0
ARC
  5
1A764
  8
SU
  6
CONTINUOUS
 62
     3
 10
-184.4405627304053
 20
87.160862204457359
 30
0.0
 40
0.3000000000000114
 50
0.0
 51
180.0
  0
ARC
  5
1A765
  8
SU
  6
CONTINUOUS
 62
     3
 10
-225.94056273040539
 20
87.160862204457359
 30
0.0
 40
0.3000000000000114
 50
0.0
 51
180.0
  0
ARC
  5
1A766
  8
SU
  6
CONTINUOUS
 62
     3
 10
-225.94056273040539
 20
87.160862204457359
 30
0.0
 40
0.3000000000000114
 50
180.0
 51
0.0
  0
ARC
  5
1A767
  8
SU
  6
CONTINUOUS
 62
     3
 10
-249.9405627304053
 20
87.160862204457359
 30
0.0
 40
0.3000000000000114
 50
0.0
 51
180.0
  0
ARC
  5
1A768
  8
SU
  6
CONTINUOUS
 62
     3
 10
-249.9405627304053
 20
87.160862204457359
 30
0.0
 40
0.3000000000000114
 50
180.0
 51
0.0
  0
ARC
  5
1A769
  8
SU
  6
CONTINUOUS
 62
     3
 10
-181.44056273040511
 20
72.160862204457359
 30
0.0
 40
0.3000000000000114
 50
180.0
 51
0.0
  0
ARC
  5
1A76A
  8
SU
  6
CONTINUOUS
 62
     3
 10
-181.44056273040511
 20
72.160862204457359
 30
0.0
 40
0.3000000000000114
 50
0.0
 51
180.0
  0
ARC
  5
1A76B
  8
SU
  6
CONTINUOUS
 62
     3
 10
-146.440562730404
 20
147.66086237043999
 30
0.0
 40
0.3000000000000114
 50
90.0
 51
270.0
  0
ARC
  5
1A76C
  8
SU
  6
CONTINUOUS
 62
     3
 10
-146.440562730404
 20
147.66086237043999
 30
0.0
 40
0.3000000000000114
 50
270.0
 51
90.0
  0
ARC
  5
1A76D
  8
SU
  6
CONTINUOUS
 62
     3
 10
-146.440562730404
 20
171.66086237043999
 30
0.0
 40
0.3000000000000114
 50
270.0
 51
90.0
  0
ARC
  5
1A76E
  8
SU
  6
CONTINUOUS
 62
     3
 10
-146.440562730404
 20
171.66086237043999
 30
0.0
 40
0.3000000000000114
 50
90.0
 51
270.0
  0
ARC
  5
1A76F
  8
SU
  6
CONTINUOUS
 62
     3
 10
-146.440562730404
 20
126.1608623704404
 30
0.0
 40
0.2999999999999971
 50
90.0
 51
270.0
  0
ARC
  5
1A770
  8
SU
  6
CONTINUOUS
 62
     3
 10
-146.440562730404
 20
126.1608623704404
 30
0.0
 40
0.2999999999999971
 50
270.0
 51
90.0
  0
ARC
  5
1A771
  8
SU
  6
CONTINUOUS
 62
     3
 10
-146.440562730404
 20
147.66086237043999
 30
0.0
 40
0.3000000000000114
 50
270.0
 51
90.0
  0
ARC
  5
1A772
  8
SU
  6
CONTINUOUS
 62
     3
 10
-146.440562730404
 20
147.66086237043999
 30
0.0
 40
0.3000000000000114
 50
90.0
 51
270.0
  0
ARC
  5
1A773
  8
SU
  6
CONTINUOUS
 62
     3
 10
-363.44056273040491
 20
72.160862204457359
 30
0.0
 40
0.3000000000000114
 50
0.0
 51
180.0
  0
ARC
  5
1A774
  8
SU
  6
CONTINUOUS
 62
     3
 10
-363.44056273040491
 20
72.160862204457359
 30
0.0
 40
0.3000000000000114
 50
180.0
 51
0.0
  0
ARC
  5
1A775
  8
SU
  6
CONTINUOUS
 62
     3
 10
-184.4405627304053
 20
72.160862204457359
 30
0.0
 40
0.3000000000000114
 50
180.0
 51
0.0
  0
ARC
  5
1A776
  8
SU
  6
CONTINUOUS
 62
     3
 10
-184.4405627304053
 20
72.160862204457359
 30
0.0
 40
0.3000000000000114
 50
0.0
 51
180.0
  0
ARC
  5
1A777
  8
SU
  6
CONTINUOUS
 62
     3
 10
-360.44056273040519
 20
72.160862204457359
 30
0.0
 40
0.3000000000000114
 50
0.0
 51
180.0
  0
ARC
  5
1A778
  8
SU
  6
CONTINUOUS
 62
     3
 10
-360.44056273040519
 20
72.160862204457359
 30
0.0
 40
0.3000000000000114
 50
180.0
 51
0.0
  0
ARC
  5
1A779
  8
SU
  6
CONTINUOUS
 62
     3
 10
-360.44056273040519
 20
87.160862204457359
 30
0.0
 40
0.3000000000000114
 50
0.0
 51
180.0
  0
ARC
  5
1A77A
  8
SU
  6
CONTINUOUS
 62
     3
 10
-360.44056273040519
 20
87.160862204457359
 30
0.0
 40
0.3000000000000114
 50
180.0
 51
0.0
  0
ARC
  5
1A77B
  8
SU
  6
CONTINUOUS
 62
     3
 10
-131.44056273040539
 20
-40.339137629559502
 30
0.0
 40
0.2999999999999971
 50
90.0
 51
270.0
  0
ARC
  5
1A77C
  8
SU
  6
CONTINUOUS
 62
     3
 10
-131.44056273040539
 20
-40.339137629559502
 30
0.0
 40
0.2999999999999971
 50
270.0
 51
90.0
  0
ARC
  5
1A77D
  8
SU
  6
CONTINUOUS
 62
     3
 10
-259.44056273040542
 20
-6.2391374865163121
 30
0.0
 40
0.3000000000000114
 50
0.0
 51
180.0
  0
ARC
  5
1A77E
  8
SU
  6
CONTINUOUS
 62
     3
 10
-259.44056273040542
 20
-6.2391374865163121
 30
0.0
 40
0.3000000000000114
 50
180.0
 51
0.0
  0
ARC
  5
1A77F
  8
SU
  6
CONTINUOUS
 62
     3
 10
-218.4405627304055
 20
-6.2391374865163121
 30
0.0
 40
0.3000000000000114
 50
180.0
 51
0.0
  0
ARC
  5
1A780
  8
SU
  6
CONTINUOUS
 62
     3
 10
-218.4405627304055
 20
-6.2391374865163121
 30
0.0
 40
0.3000000000000114
 50
0.0
 51
180.0
  0
ARC
  5
1A781
  8
SU
  6
CONTINUOUS
 62
     3
 10
-251.44056273040539
 20
-75.339137629558707
 30
0.0
 40
0.3000000000000114
 50
0.0
 51
180.0
  0
ARC
  5
1A782
  8
SU
  6
CONTINUOUS
 62
     3
 10
-251.44056273040539
 20
-75.339137629558707
 30
0.0
 40
0.3000000000000114
 50
180.0
 51
0.0
  0
ARC
  5
1A783
  8
SU
  6
CONTINUOUS
 62
     3
 10
-226.44056273040539
 20
-75.339137629558707
 30
0.0
 40
0.3000000000000114
 50
180.0
 51
0.0
  0
ARC
  5
1A784
  8
SU
  6
CONTINUOUS
 62
     3
 10
-226.44056273040539
 20
-75.339137629558707
 30
0.0
 40
0.3000000000000114
 50
0.0
 51
180.0
  0
ARC
  5
1A785
  8
SU
  6
CONTINUOUS
 62
     3
 10
-181.44056273040511
 20
-75.339137629558707
 30
0.0
 40
0.3000000000000114
 50
180.0
 51
0.0
  0
ARC
  5
1A786
  8
SU
  6
CONTINUOUS
 62
     3
 10
-181.44056273040511
 20
-75.339137629558707
 30
0.0
 40
0.3000000000000114
 50
0.0
 51
180.0
  0
ARC
  5
1A787
  8
SU
  6
CONTINUOUS
 62
     3
 10
-146.4410301619836
 20
-159.89107265217569
 30
0.0
 40
0.3000000000000114
 50
90.0
 51
270.0
  0
ARC
  5
1A788
  8
SU
  6
CONTINUOUS
 62
     3
 10
-146.4410301619836
 20
-159.89107265217569
 30
0.0
 40
0.3000000000000114
 50
270.0
 51
90.0
  0
ARC
  5
1A789
  8
SU
  6
CONTINUOUS
 62
     3
 10
-146.4405626169011
 20
-151.8910788927374
 30
0.0
 40
0.3000000000000114
 50
90.0
 51
270.0
  0
ARC
  5
1A78A
  8
SU
  6
CONTINUOUS
 62
     3
 10
-146.4405626169011
 20
-151.8910788927374
 30
0.0
 40
0.3000000000000114
 50
270.0
 51
90.0
  0
ARC
  5
1A78B
  8
SU
  6
CONTINUOUS
 62
     3
 10
-181.44056273953231
 20
-209.89107837422799
 30
0.0
 40
0.3000000000000114
 50
180.0
 51
0.0
  0
ARC
  5
1A78C
  8
SU
  6
CONTINUOUS
 62
     3
 10
-181.44056273953231
 20
-209.89107837422799
 30
0.0
 40
0.3000000000000114
 50
0.0
 51
180.0
  0
ARC
  5
1A78D
  8
SU
  6
CONTINUOUS
 62
     3
 10
-146.44103027548641
 20
-162.89107837422071
 30
0.0
 40
0.3000000000000114
 50
90.0
 51
270.0
  0
ARC
  5
1A78E
  8
SU
  6
CONTINUOUS
 62
     3
 10
-146.44103027548641
 20
-162.89107837422071
 30
0.0
 40
0.3000000000000114
 50
270.0
 51
90.0
  0
ARC
  5
1A78F
  8
SU
  6
CONTINUOUS
 62
     3
 10
-131.44056273040511
 20
-174.89107837422071
 30
0.0
 40
0.3000000000000114
 50
90.0
 51
270.0
  0
ARC
  5
1A790
  8
SU
  6
CONTINUOUS
 62
     3
 10
-131.44056273040511
 20
-174.89107837422071
 30
0.0
 40
0.3000000000000114
 50
270.0
 51
90.0
  0
ARC
  5
1A791
  8
SU
  6
CONTINUOUS
 62
     3
 10
-363.44056273040547
 20
-209.89107837422799
 30
0.0
 40
0.3000000000000114
 50
0.0
 51
180.0
  0
ARC
  5
1A792
  8
SU
  6
CONTINUOUS
 62
     3
 10
-363.44056273040547
 20
-209.89107837422799
 30
0.0
 40
0.3000000000000114
 50
180.0
 51
0.0
  0
ARC
  5
1A793
  8
SU
  6
CONTINUOUS
 62
     3
 10
-330.44056284390791
 20
-209.89107837422799
 30
0.0
 40
0.3000000000000114
 50
0.0
 51
180.0
  0
ARC
  5
1A794
  8
SU
  6
CONTINUOUS
 62
     3
 10
-330.44056284390791
 20
-209.89107837422799
 30
0.0
 40
0.3000000000000114
 50
180.0
 51
0.0
  0
ARC
  5
1A795
  8
SU
  6
CONTINUOUS
 62
     3
 10
-184.44056283478039
 20
-209.89107837422799
 30
0.0
 40
0.3000000000000114
 50
180.0
 51
0.0
  0
ARC
  5
1A796
  8
SU
  6
CONTINUOUS
 62
     3
 10
-184.44056283478039
 20
-209.89107837422799
 30
0.0
 40
0.3000000000000114
 50
0.0
 51
180.0
  0
ARC
  5
1A797
  8
SU
  6
CONTINUOUS
 62
     3
 10
-146.440562730404
 20
-20.339137629559861
 30
0.0
 40
0.3000000000000007
 50
90.0
 51
270.0
  0
ARC
  5
1A798
  8
SU
  6
CONTINUOUS
 62
     3
 10
-146.440562730404
 20
-20.339137629559861
 30
0.0
 40
0.3000000000000007
 50
270.0
 51
90.0
  0
ARC
  5
1A799
  8
SU
  6
CONTINUOUS
 62
     3
 10
-87.649035872844976
 20
-11.646509419221021
 30
0.0
 40
0.3000000000000007
 50
90.0
 51
270.0
  0
ARC
  5
1A79A
  8
SU
  6
CONTINUOUS
 62
     3
 10
-87.649035872844976
 20
-11.646509419221021
 30
0.0
 40
0.3000000000000007
 50
270.0
 51
90.0
  0
ARC
  5
1A79B
  8
SU
  6
CONTINUOUS
 62
     3
 10
-87.649035872844976
 20
93.353490580778967
 30
0.0
 40
0.2999999999999971
 50
270.0
 51
90.0
  0
ARC
  5
1A79C
  8
SU
  6
CONTINUOUS
 62
     3
 10
-87.649035872844976
 20
93.353490580778967
 30
0.0
 40
0.2999999999999971
 50
90.0
 51
270.0
  0
ARC
  5
1A79D
  8
SU
  6
CONTINUOUS
 62
     3
 10
-102.64903587284491
 20
-36.14650941922104
 30
0.0
 40
0.2999999999999971
 50
270.0
 51
90.0
  0
ARC
  5
1A79E
  8
SU
  6
CONTINUOUS
 62
     3
 10
-102.64903587284491
 20
-36.14650941922104
 30
0.0
 40
0.2999999999999971
 50
90.0
 51
270.0
  0
ARC
  5
1A79F
  8
SU
  6
CONTINUOUS
 62
     3
 10
-102.64903587284491
 20
-50.146509419221019
 30
0.0
 40
0.2999999999999971
 50
90.0
 51
270.0
  0
ARC
  5
1A7A0
  8
SU
  6
CONTINUOUS
 62
     3
 10
-102.64903587284491
 20
-50.146509419221019
 30
0.0
 40
0.2999999999999971
 50
270.0
 51
90.0
  0
ARC
  5
1A7A1
  8
SU
  6
CONTINUOUS
 62
     3
 10
-102.64903587284491
 20
117.8534905807789
 30
0.0
 40
0.2999999999999971
 50
90.0
 51
270.0
  0
ARC
  5
1A7A2
  8
SU
  6
CONTINUOUS
 62
     3
 10
-102.64903587284491
 20
117.8534905807789
 30
0.0
 40
0.2999999999999971
 50
270.0
 51
90.0
  0
ARC
  5
1A7A3
  8
SU
  6
CONTINUOUS
 62
     3
 10
-102.64903587284491
 20
131.85349058078
 30
0.0
 40
0.3000000000000114
 50
270.0
 51
90.0
  0
ARC
  5
1A7A4
  8
SU
  6
CONTINUOUS
 62
     3
 10
-102.64903587284491
 20
131.85349058078
 30
0.0
 40
0.3000000000000114
 50
90.0
 51
270.0
  0
ENDSEC
  0
EOF
