  0
SECTION
  2
HEADER
  9
$ACADVER
  1
AC1009
  9
$INSBASE
 10
0.0
 20
0.0
 30
0.0
  9
$EXTMIN
 10
-379.9073466908971
 20
-269.33518848444231
 30
-0.0000000000112498
  9
$EXTMAX
 10
338.66717711797349
 20
255.39511237199781
 30
0.0000000000002956
  9
$LIMMIN
 10
-410.0
 20
-286.0
  9
$LIMMAX
 10
408.99999999999989
 20
279.0
  9
$ORTHOMODE
 70
     1
  9
$REGENMODE
 70
     1
  9
$FILLMODE
 70
     1
  9
$QTEXTMODE
 70
     0
  9
$MIRRTEXT
 70
     0
  9
$DRAGMODE
 70
     2
  9
$LTSCALE
 40
1.0
  9
$OSMODE
 70
     0
  9
$ATTMODE
 70
     1
  9
$TEXTSIZE
 40
2.5
  9
$TRACEWID
 40
1.0
  9
$TEXTSTYLE
  7
STANDARD
  9
$CLAYER
  8
0
  9
$CELTYPE
  6
BYLAYER
  9
$CECOLOR
 62
   256
  9
$DIMSCALE
 40
1.0
  9
$DIMASZ
 40
1.5
  9
$DIMEXO
 40
3.0
  9
$DIMDLI
 40
7.0
  9
$DIMRND
 40
0.0
  9
$DIMDLE
 40
0.0
  9
$DIMEXE
 40
1.0
  9
$DIMTP
 40
0.1
  9
$DIMTM
 40
0.1
  9
$DIMTXT
 40
10.0
  9
$DIMCEN
 40
0.0
  9
$DIMTSZ
 40
0.0
  9
$DIMTOL
 70
     0
  9
$DIMLIM
 70
     0
  9
$DIMTIH
 70
     0
  9
$DIMTOH
 70
     0
  9
$DIMSE1
 70
     0
  9
$DIMSE2
 70
     0
  9
$DIMTAD
 70
     1
  9
$DIMZIN
 70
     0
  9
$DIMBLK
  1
DOTSMALL
  9
$DIMASO
 70
     1
  9
$DIMSHO
 70
     1
  9
$DIMPOST
  1

  9
$DIMAPOST
  1
"
  9
$DIMALT
 70
     0
  9
$DIMALTD
 70
     2
  9
$DIMALTF
 40
0.0393701
  9
$DIMLFAC
 40
1.0
  9
$DIMTOFL
 70
     1
  9
$DIMTVP
 40
0.0
  9
$DIMTIX
 70
     0
  9
$DIMSOXD
 70
     0
  9
$DIMSAH
 70
     0
  9
$DIMBLK1
  1

  9
$DIMBLK2
  1

  9
$DIMSTYLE
  2
SANKYO
  9
$DIMCLRD
 70
   256
  9
$DIMCLRE
 70
   256
  9
$DIMCLRT
 70
   256
  9
$DIMTFAC
 40
0.71
  9
$DIMGAP
 40
0.5
  9
$LUNITS
 70
     2
  9
$LUPREC
 70
     4
  9
$SKETCHINC
 40
1.0
  9
$FILLETRAD
 40
0.5
  9
$AUNITS
 70
     0
  9
$AUPREC
 70
     0
  9
$MENU
  1
.
  9
$ELEVATION
 40
0.0
  9
$PELEVATION
 40
0.0
  9
$THICKNESS
 40
0.0
  9
$LIMCHECK
 70
     0
  9
$BLIPMODE
 70
     0
  9
$CHAMFERA
 40
10.0
  9
$CHAMFERB
 40
10.0
  9
$SKPOLY
 70
     0
  9
$TDCREATE
 40
2452388.6082117362
  9
$TDUPDATE
 40
2456027.612677881
  9
$TDINDWG
 40
1.8215999769
  9
$TDUSRTIMER
 40
1.8215997453999999
  9
$USRTIMER
 70
     1
  9
$ANGBASE
 50
0.0
  9
$ANGDIR
 70
     0
  9
$PDMODE
 70
     0
  9
$PDSIZE
 40
0.0
  9
$PLINEWID
 40
0.0
  9
$COORDS
 70
     1
  9
$SPLFRAME
 70
     0
  9
$SPLINETYPE
 70
     6
  9
$SPLINESEGS
 70
     8
  9
$ATTDIA
 70
     0
  9
$ATTREQ
 70
     1
  9
$HANDLING
 70
-16383
  9
$HANDSEED
  5
1AFA3
  9
$SURFTAB1
 70
     6
  9
$SURFTAB2
 70
     6
  9
$SURFTYPE
 70
     6
  9
$SURFU
 70
     6
  9
$SURFV
 70
     6
  9
$UCSNAME
  2

  9
$UCSORG
 10
0.0
 20
0.0
 30
0.0
  9
$UCSXDIR
 10
1.0
 20
0.0
 30
0.0
  9
$UCSYDIR
 10
0.0
 20
1.0
 30
0.0
  9
$PUCSNAME
  2

  9
$PUCSORG
 10
0.0
 20
0.0
 30
0.0
  9
$PUCSXDIR
 10
1.0
 20
0.0
 30
0.0
  9
$PUCSYDIR
 10
0.0
 20
1.0
 30
0.0
  9
$USERI1
 70
     0
  9
$USERI2
 70
     1
  9
$USERI3
 70
     0
  9
$USERI4
 70
     0
  9
$USERI5
 70
     0
  9
$USERR1
 40
0.0
  9
$USERR2
 40
0.0
  9
$USERR3
 40
0.0
  9
$USERR4
 40
0.0
  9
$USERR5
 40
0.0
  9
$WORLDVIEW
 70
     1
  9
$SHADEDGE
 70
     3
  9
$SHADEDIF
 70
    70
  9
$TILEMODE
 70
     1
  9
$MAXACTVP
 70
    48
  9
$PLIMCHECK
 70
     0
  9
$PEXTMIN
 10
1.0000000000000000E+020
 20
1.0000000000000000E+020
 30
1.0000000000000000E+020
  9
$PEXTMAX
 10
-1.0000000000000000E+020
 20
-1.0000000000000000E+020
 30
-1.0000000000000000E+020
  9
$PLIMMIN
 10
0.0
 20
0.0
  9
$PLIMMAX
 10
420.0
 20
297.0
  9
$UNITMODE
 70
     0
  9
$VISRETAIN
 70
     1
  9
$PLINEGEN
 70
     0
  9
$PSLTSCALE
 70
     1
  0
ENDSEC
  0
SECTION
  2
TABLES
  0
TABLE
  2
VPORT
 70
     2
  0
VPORT
  2
*ACTIVE
 70
     0
 10
0.0
 20
0.0
 11
1.0
 21
1.0
 12
-20.620084786461799
 22
-6.970038056222279
 13
0.0
 23
0.0
 14
2.5
 24
2.5
 15
10.0
 25
10.0
 16
0.0
 26
0.0
 36
1.0
 17
0.0
 27
0.0
 37
0.0
 40
529.0196493648034
 41
1.3969986357435189
 42
50.0
 43
0.0
 44
0.0
 50
0.0
 51
0.0
 71
    16
 72
   100
 73
     1
 74
     0
 75
     0
 76
     0
 77
     0
 78
     0
  0
ENDTAB
  0
TABLE
  2
LTYPE
 70
    17
  0
LTYPE
  2
CONTINUOUS
 70
     0
  3
Solid line
 72
    65
 73
     0
 40
0.0
  0
LTYPE
  2
CENTER2
 70
     0
  3
Center (.5x) ___ _ ___ _ ___ _ ___ _ ___ _ ___
 72
    65
 73
     4
 40
28.574999999999989
 49
19.050000000000001
 49
-3.174999999999998
 49
3.174999999999998
 49
-3.174999999999998
  0
LTYPE
  2
DASHED2
 70
     0
  3
Dashed (.5x) _ _ _ _ _ _ _ _ _ _ _ _ _ _ _ _ _
 72
    65
 73
     2
 40
9.5249999999999986
 49
6.349999999999997
 49
-3.174999999999998
  0
ENDTAB
  0
TABLE
  2
LAYER
 70
     4
  0
LAYER
  2
0
 70
     0
 62
     7
  6
CONTINUOUS
  0
LAYER
  2
SU
 70
     0
 62
     7
  6
CONTINUOUS
  0
LAYER
  2
KI
 70
     0
 62
     7
  6
CONTINUOUS
  0
LAYER
  2
OS
 70
     0
 62
     7
  6
CONTINUOUS
  0
ENDTAB
  0
TABLE
  2
STYLE
 70
     4
  0
STYLE
  2
STANDARD
 70
     0
 40
0.0
 41
0.8299999999999999
 50
0.0
 71
     0
 42
2.5
  3
txt.shx
  4
extfont.shx
  0
ENDTAB
  0
TABLE
  2
VIEW
 70
     6
  0
VIEW
  2
AM_VIEW1
 70
     0
 40
148.9999998536185
 10
126.61001776470241
 20
223.4999997804278
 41
253.2200355294051
 11
0.0
 21
0.0
 31
1.0
 12
0.0
 22
0.0
 32
0.0
 42
50.0
 43
0.0
 44
0.0
 50
0.0
 71
    16
  0
VIEW
  2
AM_VIEW2
 70
     0
 40
148.9999998536185
 10
294.38998139545481
 20
223.4999997804278
 41
253.2200355294051
 11
0.0
 21
0.0
 31
1.0
 12
0.0
 22
0.0
 32
0.0
 42
50.0
 43
0.0
 44
0.0
 50
0.0
 71
    16
  0
VIEW
  2
AM_VIEW3
 70
     0
 40
148.9999998536185
 10
126.61001776470241
 20
74.499999926809267
 41
253.2200355294051
 11
0.0
 21
0.0
 31
1.0
 12
0.0
 22
0.0
 32
0.0
 42
50.0
 43
0.0
 44
0.0
 50
0.0
 71
    16
  0
VIEW
  2
AM_VIEW4
 70
     0
 40
148.9999998536185
 10
294.38998139545481
 20
74.499999926809267
 41
253.2200355294051
 11
0.0
 21
0.0
 31
1.0
 12
0.0
 22
0.0
 32
0.0
 42
50.0
 43
0.0
 44
0.0
 50
0.0
 71
    16
  0
VIEW
  2
AM_VIEW5
 70
     0
 40
148.9999998536185
 10
210.49999958007871
 20
148.9999998536185
 41
253.2200355294051
 11
0.0
 21
0.0
 31
1.0
 12
0.0
 22
0.0
 32
0.0
 42
50.0
 43
0.0
 44
0.0
 50
0.0
 71
    16
  0
VIEW
  2
AM_VIEW6
 70
     0
 40
297.99701970723982
 10
210.49999958007871
 20
148.9999998536185
 41
506.43500665810018
 11
0.0
 21
0.0
 31
1.0
 12
0.0
 22
0.0
 32
0.0
 42
50.0
 43
0.0
 44
0.0
 50
0.0
 71
    16
  0
ENDTAB
  0
TABLE
  2
UCS
 70
     0
  0
ENDTAB
  0
TABLE
  2
APPID
 70
    22
  0
APPID
  2
ACAD
 70
     0
  0
APPID
  2
MCAD_NO_VIS
 70
     0
  0
APPID
  2
ACAD_TEMP_GRAPHIC
 70
     0
  0
APPID
  2
ACATTRIBSERVICES
 70
     0
  0
APPID
  2
GENIUS_GENDIMSH_14
 70
     0
  0
APPID
  2
GENIUS_GENOLIS_13
 70
     0
  0
APPID
  2
GENIUS_GENOENT_13
 70
     0
  0
APPID
  2
GENIUS_GENODEF_13
 70
     0
  0
APPID
  2
GENIUS_GENOBJ-N-TIT_13
 70
     0
  0
APPID
  2
GENIUS_GENTITLE_13
 70
     0
  0
APPID
  2
GENIUS_GENOREF_13
 70
     0
  0
APPID
  2
GENIUS_GENSCREG_15
 70
     0
  0
APPID
  2
GENIUS_GENOBJ-N-SDF_13
 70
     0
  0
APPID
  2
GENIUS_GENOBJ-N-FIL_13
 70
     0
  0
APPID
  2
GENIUS_GENREC_14
 70
     0
  0
APPID
  2
GENIUS_GENOBJ-N-REC_13
 70
     0
  0
APPID
  2
GENIUS_GENDTOL_13
 70
     0
  0
APPID
  2
GENIUS_GENOBJ-N-CEN_13
 70
     0
  0
APPID
  2
GENIUS_GENOBJ-N-HTC_13
 70
     0
  0
APPID
  2
GENIUS_GENHATCH_13
 70
     0
  0
APPID
  2
GENIUS_GENFIL_13
 70
     0
  0
APPID
  2
GENIUS_GENOBJ-N-CHA_13
 70
     0
  0
ENDTAB
  0
TABLE
  2
DIMSTYLE
 70
     7
  0
DIMSTYLE
  2
SANKYO
 70
     0
  3

  4
"
  5

  6

  7

 40
1.0
 41
2.399999999999999
 42
3.0
 43
7.0
 44
3.0
 45
0.0
 46
0.0
 47
0.1
 48
0.1
140
4.0
141
0.0
142
0.0
143
0.0393701
144
1.0
145
0.0
146
0.71
147
1.3
 71
     0
 72
     0
 73
     0
 74
     0
 75
     0
 76
     0
 77
     1
 78
     8
170
     0
171
     2
172
     1
173
     0
174
     0
175
     0
176
   256
177
   256
178
   256
  0
ENDTAB
  0
ENDSEC
  0
SECTION
  2
BLOCKS
  0
BLOCK
  8
0
  2
$MODEL_SPACE
 70
     0
 10
0.0
 20
0.0
 30
0.0
  3
$MODEL_SPACE
  1

  0
ENDBLK
  5
1AA15
  8
0
  0
BLOCK
 67
     1
  8
0
  2
$PAPER_SPACE
 70
     0
 10
0.0
 20
0.0
 30
0.0
  3
$PAPER_SPACE
  1

  0
ENDBLK
  5
1AA11
 67
     1
  8
0
  0
BLOCK
  8
0
  2
_DOTSMALL
 70
     0
 10
0.0
 20
0.0
 30
0.0
  3
_DOTSMALL
  1

  0
POLYLINE
  5
1AA5D
  8
0
  6
BYBLOCK
 62
     0
 66
     1
 10
0.0
 20
0.0
 30
0.0
 70
     1
 40
1.0
 41
1.0
  0
VERTEX
  5
1AA5E
  8
0
  6
BYBLOCK
 62
     0
 10
-0.125
 20
0.0
 30
0.0
 42
1.0
  0
VERTEX
  5
1AA5F
  8
0
  6
BYBLOCK
 62
     0
 10
0.125
 20
0.0
 30
0.0
 42
1.0
  0
SEQEND
  5
1AA60
  8
0
  6
BYBLOCK
 62
     0
  0
ENDBLK
  5
1AA61
  8
0
  0
ENDSEC
  0
SECTION
  2
ENTITIES
  0
LINE
  5
1AA66
  8
KI
  6
CONTINUOUS
 62
     7
 10
-339.6066791026463
 20
151.66064257049899
 30
0.0
 11
-336.60667910264772
 21
151.66064257049899
 31
0.0
  0
LINE
  5
1AA67
  8
KI
  6
CONTINUOUS
 62
     7
 10
-339.606679102648
 20
151.66064257049899
 30
0.0
 11
-339.606679102648
 21
70.660642570503086
 31
0.0
  0
LINE
  5
1AA68
  8
KI
  6
CONTINUOUS
 62
     7
 10
-175.60667910264661
 20
151.66064257049899
 30
0.0
 11
-172.606679102648
 21
151.66064257049899
 31
0.0
  0
TEXT
  5
1AA69
  8
KI
  6
CONTINUOUS
 62
     7
 10
217.08671017873311
 20
-260.30805672442739
 30
0.0
 40
7.0
  1
4寸柱対応枠（ノンケーシング枠）
 41
0.84552428
  0
TEXT
  5
1AA6A
  8
KI
  6
CONTINUOUS
 62
     7
 10
-363.48595764053471
 20
248.38269285594961
 30
0.0
 40
7.0
  1
●標準たて枠
 41
0.84552428
  0
LINE
  5
1AA6B
  8
KI
  6
CONTINUOUS
 62
     7
 10
-339.60667910265158
 20
29.412564235292631
 30
0.0
 11
-339.60667910264999
 21
-66.835514099914207
 31
0.0
  0
LINE
  5
1AA6C
  8
KI
  6
CONTINUOUS
 62
     7
 10
-172.60667910264959
 20
29.412564235292631
 30
0.0
 11
-172.606679102648
 21
-66.835514099913297
 31
0.0
  0
LINE
  5
1AA6D
  8
KI
  6
CONTINUOUS
 62
     7
 10
-265.10667834096392
 20
29.41256423528813
 30
0.0
 11
-265.10667834096353
 21
-43.835511272029592
 31
0.0
  0
LINE
  5
1AA6E
  8
KI
  6
CONTINUOUS
 62
     7
 10
-241.1066808153619
 20
-43.835511272029592
 30
0.0
 11
-241.1066808153623
 21
29.41256423528813
 31
0.0
  0
LINE
  5
1AA6F
  8
KI
  6
CONTINUOUS
 62
     7
 10
-180.10667910659751
 20
-58.835511272029592
 30
0.0
 11
-180.10667910659791
 21
29.41256423528813
 31
0.0
  0
LINE
  5
1AA70
  8
KI
  6
CONTINUOUS
 62
     7
 10
-230.10668081511031
 20
-58.835511272029592
 30
0.0
 11
-230.10668081511091
 21
29.41256423528813
 31
0.0
  0
LINE
  5
1AA71
  8
OS
  6
CONTINUOUS
 62
     2
 10
-148.6066785304435
 20
-78.835514099913297
 30
0.0
 11
-360.60667910264999
 21
-78.835514099913297
 31
0.0
  0
LINE
  5
1AA72
  8
SU
  6
CONTINUOUS
 62
     3
 10
-323.50732771032222
 20
-38.288542268083852
 30
0.0
 11
-285.87144300508902
 21
-38.288542268083852
 31
0.0
  0
LINE
  5
1AA73
  8
OS
  6
CONTINUOUS
 62
     2
 10
-282.606679102648
 20
-75.835514099917617
 30
0.0
 11
-360.60667910264999
 21
-75.835514099906263
 31
0.0
  0
LINE
  5
1AA74
  8
OS
  6
CONTINUOUS
 62
     2
 10
-282.606679102648
 20
-66.835514099917603
 30
0.0
 11
-360.60667910264999
 21
-66.835514099913297
 31
0.0
  0
LINE
  5
1AA75
  8
OS
  6
CONTINUOUS
 62
     2
 10
-282.606679102648
 20
-69.835514099917603
 30
0.0
 11
-360.60667910264999
 21
-69.835514099913297
 31
0.0
  0
LINE
  5
1AA76
  8
OS
  6
CONTINUOUS
 62
     2
 10
-282.606679102648
 20
-72.835514099917617
 30
0.0
 11
-360.60667910264999
 21
-72.835514099913297
 31
0.0
  0
LINE
  5
1AA77
  8
KI
  6
DASHED2
 62
     7
 10
-339.60667910264999
 20
-66.835514099914207
 30
0.0
 11
-339.60667910264999
 21
-78.835514099906021
 31
0.0
  0
LINE
  5
1AA78
  8
SU
  6
CONTINUOUS
 62
     3
 10
-285.87144300508902
 20
-38.288542268083852
 30
0.0
 11
-274.50556887235382
 21
-51.833863556196881
 31
0.0
  0
LINE
  5
1AA79
  8
OS
  6
CONTINUOUS
 62
     2
 10
-282.606679102648
 20
-78.835514099913297
 30
0.0
 11
-282.606679102648
 21
-66.83551409992171
 31
0.0
  0
LINE
  5
1AA7A
  8
KI
  6
CONTINUOUS
 62
     7
 10
-230.10668081511031
 20
-58.835511272029592
 30
0.0
 11
-180.10667910659751
 21
-58.835511272029592
 31
0.0
  0
LINE
  5
1AA7B
  8
OS
  6
CONTINUOUS
 62
     2
 10
-148.6066785304435
 20
-69.835514099913297
 30
0.0
 11
-175.606679102648
 21
-69.835514099913297
 31
0.0
  0
LINE
  5
1AA7C
  8
OS
  6
CONTINUOUS
 62
     2
 10
-148.6066785304435
 20
-72.835514099913297
 30
0.0
 11
-175.606679102648
 21
-72.835514099913297
 31
0.0
  0
LINE
  5
1AA7D
  8
OS
  6
CONTINUOUS
 62
     2
 10
-148.6066785304435
 20
-75.835514099913297
 30
0.0
 11
-175.606679102648
 21
-75.835514099913297
 31
0.0
  0
LINE
  5
1AA7E
  8
OS
  6
CONTINUOUS
 62
     2
 10
-148.6066785304435
 20
-66.835514099913297
 30
0.0
 11
-175.606679102648
 21
-66.835514099913297
 31
0.0
  0
LINE
  5
1AA7F
  8
KI
  6
DASHED2
 62
     7
 10
-172.606679102648
 20
-66.835514099913297
 30
0.0
 11
-172.606679102648
 21
-78.835514099905083
 31
0.0
  0
LINE
  5
1AA80
  8
OS
  6
CONTINUOUS
 62
     2
 10
-175.606679102648
 20
-78.835514099913297
 30
0.0
 11
-175.606679102648
 21
-66.83551409992171
 31
0.0
  0
LINE
  5
1AA81
  8
KI
  6
CONTINUOUS
 62
     7
 10
-339.60667910264999
 20
31.412564235284101
 30
0.0
 11
-339.606679102648
 21
151.66064257049899
 31
0.0
  0
LINE
  5
1AA82
  8
KI
  6
CONTINUOUS
 62
     7
 10
-265.10667834096353
 20
107.66061004983661
 30
0.0
 11
-265.10667834096381
 21
31.41256423529132
 31
0.0
  0
LINE
  5
1AA83
  8
KI
  6
CONTINUOUS
 62
     7
 10
-172.606679102648
 20
151.66064257049899
 30
0.0
 11
-172.60667910264959
 21
31.412564235284101
 31
0.0
  0
LINE
  5
1AA84
  8
KI
  6
CONTINUOUS
 62
     7
 10
-180.10667910659751
 20
124.66061004983651
 30
0.0
 11
-180.10667910659791
 21
31.41256423529132
 31
0.0
  0
LINE
  5
1AA85
  8
KI
  6
CONTINUOUS
 62
     7
 10
-230.10668081511031
 20
124.66061004983651
 30
0.0
 11
-230.10668081511091
 21
31.41256423529132
 31
0.0
  0
LINE
  5
1AA86
  8
KI
  6
CONTINUOUS
 62
     7
 10
-241.1066808153623
 20
31.41256423529132
 30
0.0
 11
-241.1066808153619
 21
107.66061004983661
 31
0.0
  0
LINE
  5
1AA87
  8
KI
  6
CONTINUOUS
 62
     7
 10
-180.10667910659751
 20
124.66061004983651
 30
0.0
 11
-230.10668081511031
 21
124.66061004983651
 31
0.0
  0
LINE
  5
1AA88
  8
OS
  6
CONTINUOUS
 62
     2
 10
-148.6066785304433
 20
-227.66293584505999
 30
0.0
 11
-360.60667910265101
 21
-227.66293584505999
 31
0.0
  0
LINE
  5
1AA89
  8
OS
  6
CONTINUOUS
 62
     2
 10
-148.6066785304433
 20
-224.66293584505999
 30
0.0
 11
-360.60667910265101
 21
-224.66293584505999
 31
0.0
  0
LINE
  5
1AA8A
  8
OS
  6
CONTINUOUS
 62
     2
 10
-148.6066785304433
 20
-221.66293584505999
 30
0.0
 11
-360.60667910265101
 21
-221.66293584505999
 31
0.0
  0
LINE
  5
1AA8B
  8
OS
  6
CONTINUOUS
 62
     2
 10
-148.6066785304433
 20
-218.66293584505999
 30
0.0
 11
-360.60667910265101
 21
-218.66293584505999
 31
0.0
  0
LINE
  5
1AA8C
  8
OS
  6
CONTINUOUS
 62
     2
 10
-148.6066785304433
 20
-230.66293584505999
 30
0.0
 11
-360.60667910265101
 21
-230.66293584505999
 31
0.0
  0
LINE
  5
1AA8D
  8
SU
  6
CONTINUOUS
 62
     3
 10
-299.57689878326852
 20
-242.924063667615
 30
0.0
 11
-245.11780769443911
 21
-242.924063667615
 31
0.0
  0
LINE
  5
1AA8E
  8
KI
  6
CONTINUOUS
 62
     7
 10
-339.60667910265079
 20
-120.0148734886546
 30
0.0
 11
-339.60667910265079
 21
-218.66293584505971
 31
0.0
  0
LINE
  5
1AA8F
  8
KI
  6
CONTINUOUS
 62
     7
 10
-265.10667834096381
 20
-120.0148734886546
 30
0.0
 11
-265.10667834096353
 21
-218.66293584505999
 31
0.0
  0
LINE
  5
1AA90
  8
KI
  6
DASHED2
 62
     7
 10
-339.60667910265079
 20
-218.66293584505971
 30
0.0
 11
-339.60667910265079
 21
-230.66293584505181
 31
0.0
  0
LINE
  5
1AA91
  8
KI
  6
CONTINUOUS
 62
     7
 10
-197.60667996085391
 20
-210.66293584505999
 30
0.0
 11
-197.60667996085391
 21
-180.16293584505999
 31
0.0
  0
LINE
  5
1AA92
  8
KI
  6
CONTINUOUS
 62
     7
 10
-212.606679960854
 20
-210.66293584505999
 30
0.0
 11
-212.606679960854
 21
-180.16293584505999
 31
0.0
  0
LINE
  5
1AA93
  8
KI
  6
CONTINUOUS
 62
     7
 10
-172.606679102648
 20
-120.0148734886546
 30
0.0
 11
-172.606679102648
 21
-218.66293584505971
 31
0.0
  0
LINE
  5
1AA94
  8
KI
  6
CONTINUOUS
 62
     7
 10
-180.10667910659731
 20
-210.66293584505999
 30
0.0
 11
-180.10667910659751
 21
-120.0148734886546
 31
0.0
  0
LINE
  5
1AA95
  8
KI
  6
CONTINUOUS
 62
     7
 10
-230.10668081511031
 20
-210.66293584505999
 30
0.0
 11
-230.10668081511079
 21
-120.0148734886546
 31
0.0
  0
LINE
  5
1AA96
  8
KI
  6
CONTINUOUS
 62
     7
 10
-241.1066808153619
 20
-218.66293584505999
 30
0.0
 11
-241.1066808153623
 21
-120.0148734886546
 31
0.0
  0
LINE
  5
1AA97
  8
KI
  6
CONTINUOUS
 62
     7
 10
-193.85667996085411
 20
-161.91293584505999
 30
0.0
 11
-193.85667996085411
 21
-210.66293584505999
 31
0.0
  0
LINE
  5
1AA98
  8
KI
  6
CONTINUOUS
 62
     7
 10
-216.35667996085411
 20
-161.91293584505999
 30
0.0
 11
-216.35667996085411
 21
-210.66293584505999
 31
0.0
  0
LINE
  5
1AA99
  8
KI
  6
CONTINUOUS
 62
     7
 10
-197.60667996085391
 20
-210.66293584505999
 30
0.0
 11
-180.10667910659731
 21
-210.66293584505999
 31
0.0
  0
LINE
  5
1AA9A
  8
SU
  6
CONTINUOUS
 62
     3
 10
-245.11780769443911
 20
-242.924063667615
 30
0.0
 11
-216.35667996085411
 21
-214.16293584505999
 31
0.0
  0
LINE
  5
1AA9B
  8
KI
  6
CONTINUOUS
 62
     7
 10
-230.10668081511031
 20
-210.66293584505999
 30
0.0
 11
-212.606679960854
 21
-210.66293584505999
 31
0.0
  0
LINE
  5
1AA9C
  8
KI
  6
DASHED2
 62
     7
 10
-172.606679102648
 20
-218.66293584505971
 30
0.0
 11
-172.606679102648
 21
-230.66293584505181
 31
0.0
  0
LINE
  5
1AA9D
  8
KI
  6
CONTINUOUS
 62
     7
 10
-197.60667996085391
 20
-180.16293584505999
 30
0.0
 11
-212.606679960854
 21
-180.16293584505999
 31
0.0
  0
ARC
  5
1AA9E
  8
KI
  6
CONTINUOUS
 62
     7
 10
-205.10667996085411
 20
-161.91293584505999
 30
0.0
 40
11.25
 50
0.0
 51
180.0
  0
LINE
  5
1AA9F
  8
KI
  6
CONTINUOUS
 62
     7
 10
259.6242157861895
 20
-86.492412938115791
 30
0.0
 11
163.62421578619001
 21
-86.492412938115791
 31
0.0
  0
LINE
  5
1AAA0
  8
KI
  6
CONTINUOUS
 62
     7
 10
259.6242157861895
 20
-36.492411229602709
 30
0.0
 11
163.62421578619001
 21
-36.492411229602709
 31
0.0
  0
LINE
  5
1AAA1
  8
KI
  6
CONTINUOUS
 62
     7
 10
65.624221206300618
 20
-86.492412938115791
 30
0.0
 11
161.62421578619001
 21
-86.492412938115791
 31
0.0
  0
LINE
  5
1AAA2
  8
KI
  6
CONTINUOUS
 62
     7
 10
67.624223916355618
 20
-36.492411229602702
 30
0.0
 11
161.62421578619001
 21
-36.492411229602709
 31
0.0
  0
LINE
  5
1AAA3
  8
KI
  6
CONTINUOUS
 62
     7
 10
161.62421578619001
 20
-25.492411229602709
 30
0.0
 11
81.624215786190078
 21
-25.492411229602691
 31
0.0
  0
LINE
  5
1AAA4
  8
KI
  6
CONTINUOUS
 62
     7
 10
65.624221206300618
 20
-86.492412938115791
 30
0.0
 11
67.624223916355618
 21
-36.492411229602702
 31
0.0
  0
LINE
  5
1AAA5
  8
KI
  6
CONTINUOUS
 62
     7
 10
163.62421578619001
 20
-25.492411229602709
 30
0.0
 11
243.62421578618989
 21
-25.492411229602709
 31
0.0
  0
LINE
  5
1AAA6
  8
KI
  6
CONTINUOUS
 62
     7
 10
259.6242157861895
 20
-36.492411229602709
 30
0.0
 11
259.6242157861895
 21
-86.492412938115791
 31
0.0
  0
LINE
  5
1AAA7
  8
KI
  6
CONTINUOUS
 62
     7
 10
81.624215786190078
 20
-1.4924137040008241
 30
0.0
 11
161.62421578619001
 21
-1.4924137040008241
 31
0.0
  0
LINE
  5
1AAA8
  8
KI
  6
CONTINUOUS
 62
     7
 10
243.62421578618989
 20
-1.4924137040008241
 30
0.0
 11
163.62421578619001
 21
-1.4924137040008241
 31
0.0
  0
TEXT
  5
1AAA9
  8
KI
  6
CONTINUOUS
 62
     7
 10
218.6672664069456
 20
-242.4411371107378
 30
0.0
 40
7.0
  1
D TOS多機能商品シリーズ
 41
0.84552428
  0
TEXT
  5
1AAAA
  8
KI
  6
CONTINUOUS
 62
     7
 10
218.6672664069456
 20
-251.36442957220399
 30
0.0
 40
7.0
  1
高断熱・高気密ドア
 41
0.84552428
  0
TEXT
  5
1AAAB
  8
KI
  6
CONTINUOUS
 62
     7
 10
217.70790036644311
 20
-269.30914795167661
 30
0.0
 40
7.0
  1
dt05a009
 41
0.84552428
  0
LINE
  5
1AAAC
  8
KI
  6
CONTINUOUS
 62
     7
 10
263.6242157861895
 20
16.007587057935162
 30
0.0
 11
163.62421578619001
 21
16.007587057935162
 31
0.0
  0
LINE
  5
1AAAD
  8
KI
  6
CONTINUOUS
 62
     7
 10
61.624215786190121
 20
16.007587057935162
 30
0.0
 11
161.62421578619001
 21
16.007587057935162
 31
0.0
  0
LINE
  5
1AAAE
  8
KI
  6
CONTINUOUS
 62
     7
 10
256.81603256421721
 20
-90.992412942064803
 30
0.0
 11
163.62421578619001
 21
-90.992412942064803
 31
0.0
  0
LINE
  5
1AAAF
  8
KI
  6
CONTINUOUS
 62
     7
 10
61.624215786190121
 20
-90.992412942064803
 30
0.0
 11
161.62421578619001
 21
-90.992412942064803
 31
0.0
  0
LINE
  5
1AAB0
  8
KI
  6
CONTINUOUS
 62
     7
 10
261.3242157861896
 20
-90.992412942064846
 30
0.0
 11
259.13007649192332
 21
-90.992412942064846
 31
0.0
  0
LINE
  5
1AAB1
  8
KI
  6
CONTINUOUS
 62
     7
 10
263.6242157861895
 20
2.5075870579351802
 30
0.0
 11
163.62421578619001
 21
2.5075870579351802
 31
0.0
  0
LINE
  5
1AAB2
  8
KI
  6
CONTINUOUS
 62
     7
 10
61.624215786190121
 20
2.5075870579351802
 30
0.0
 11
161.62421578619001
 21
2.5075870579351802
 31
0.0
  0
LINE
  5
1AAB3
  8
OS
  6
CONTINUOUS
 62
     2
 10
-274.60162860000639
 20
-78.835514574645771
 30
0.0
 11
-241.1066818801385
 21
-45.340567854777817
 31
0.0
  0
LINE
  5
1AAB4
  8
OS
  6
CONTINUOUS
 62
     2
 10
-264.70213366339442
 20
-78.835514574645657
 30
0.0
 11
-241.1066818801385
 21
-55.240062791389512
 31
0.0
  0
LINE
  5
1AAB5
  8
OS
  6
CONTINUOUS
 62
     2
 10
-254.8026387267829
 20
-78.835514574645813
 30
0.0
 11
-239.80263589889921
 21
-63.83551174676218
 31
0.0
  0
LINE
  5
1AAB6
  8
OS
  6
CONTINUOUS
 62
     2
 10
-195.40566910711311
 20
-78.835514574645885
 30
0.0
 11
-180.40566627922939
 21
-63.83551174676218
 31
0.0
  0
LINE
  5
1AAB7
  8
OS
  6
CONTINUOUS
 62
     2
 10
-185.50617417050111
 20
-78.835514574645771
 30
0.0
 11
-175.60667923388971
 21
-68.936019638034026
 31
0.0
  0
LINE
  5
1AAB8
  8
OS
  6
CONTINUOUS
 62
     2
 10
-225.10415391694829
 20
-78.83551457464587
 30
0.0
 11
-210.10415108906429
 21
-63.83551174676218
 31
0.0
  0
LINE
  5
1AAB9
  8
OS
  6
CONTINUOUS
 62
     2
 10
-215.2046589803364
 20
-78.835514574645813
 30
0.0
 11
-200.20465615245291
 21
-63.83551174676218
 31
0.0
  0
LINE
  5
1AABA
  8
OS
  6
CONTINUOUS
 62
     2
 10
-235.0036488535597
 20
-78.835514574645885
 30
0.0
 11
-220.00364602567609
 21
-63.83551174676218
 31
0.0
  0
LINE
  5
1AABB
  8
OS
  6
CONTINUOUS
 62
     2
 10
-244.9031437901715
 20
-78.835514574645771
 30
0.0
 11
-229.90314096228781
 21
-63.83551174676218
 31
0.0
  0
LINE
  5
1AABC
  8
OS
  6
CONTINUOUS
 62
     2
 10
-205.3051640437244
 20
-78.835514574645771
 30
0.0
 11
-190.30516121584111
 21
-63.835511746762201
 31
0.0
  0
LINE
  5
1AABD
  8
OS
  6
CONTINUOUS
 62
     2
 10
-282.60667923388962
 20
-67.041575335305509
 30
0.0
 11
-259.400615645345
 21
-43.835511746762187
 31
0.0
  0
LINE
  5
1AABE
  8
OS
  6
CONTINUOUS
 62
     2
 10
-282.60667923388962
 20
-76.94107027191734
 30
0.0
 11
-249.50112070873439
 21
-43.835511746762187
 31
0.0
  0
LINE
  5
1AABF
  8
KI
  6
CONTINUOUS
 62
     7
 10
-269.10668188013813
 20
-43.835511746762187
 30
0.0
 11
-241.1066818801385
 21
-43.835511746762187
 31
0.0
  0
LINE
  5
1AAC0
  8
KI
  6
CONTINUOUS
 62
     7
 10
-282.60667923388962
 20
-63.83551174676218
 30
0.0
 11
-269.10668188013813
 21
-43.835511746762187
 31
0.0
  0
LINE
  5
1AAC1
  8
KI
  6
CONTINUOUS
 62
     7
 10
-282.60667923388962
 20
-63.83551174676218
 30
0.0
 11
-282.60667923388962
 21
-78.835514574645885
 31
0.0
  0
LINE
  5
1AAC2
  8
KI
  6
CONTINUOUS
 62
     7
 10
-241.1066818801385
 20
-63.83551174676218
 30
0.0
 11
-175.60667923388971
 21
-63.83551174676218
 31
0.0
  0
LINE
  5
1AAC3
  8
KI
  6
CONTINUOUS
 62
     7
 10
-241.1066818801385
 20
-63.83551174676218
 30
0.0
 11
-241.1066818801385
 21
-43.835511746762187
 31
0.0
  0
LINE
  5
1AAC4
  8
KI
  6
CONTINUOUS
 62
     7
 10
-175.60667923388971
 20
-63.83551174676218
 30
0.0
 11
-175.60667923388971
 21
-78.835514574645885
 31
0.0
  0
LINE
  5
1AAC5
  8
KI
  6
CONTINUOUS
 62
     7
 10
-282.60667923388962
 20
-78.835514574645885
 30
0.0
 11
-175.60667923388971
 21
-78.835514574645885
 31
0.0
  0
LINE
  5
1AAC6
  8
KI
  6
CONTINUOUS
 62
     7
 10
-240.60667587988641
 20
-43.835476751701613
 30
0.0
 11
-238.38058314865759
 21
-43.835476751701172
 31
0.0
  0
ARC
  5
1AAC7
  8
KI
  6
CONTINUOUS
 62
     7
 10
-231.0986528302308
 20
-55.3963526418515
 30
0.0
 40
9.2190722294335075
 50
182.80468734044729
 51
234.37413182448421
  0
LINE
  5
1AAC8
  8
KI
  6
CONTINUOUS
 62
     7
 10
-240.90668187988669
 20
-48.496558313423492
 30
0.0
 11
-240.30667587988671
 21
-47.896552313423364
 31
0.0
  0
LINE
  5
1AAC9
  8
KI
  6
CONTINUOUS
 62
     7
 10
-240.30667587988609
 20
-50.585486751700927
 30
0.0
 11
-240.30667587988609
 21
-44.835476751701613
 31
0.0
  0
LINE
  5
1AACA
  8
KI
  6
CONTINUOUS
 62
     7
 10
-241.10668187988639
 20
-53.83547675170071
 30
0.0
 11
-241.10668187988711
 21
-45.835476751701613
 31
0.0
  0
LINE
  5
1AACB
  8
KI
  6
CONTINUOUS
 62
     7
 10
-241.1066818798875
 20
-48.696558313423772
 30
0.0
 11
-240.90668187988669
 21
-48.496558313423492
 31
0.0
  0
LINE
  5
1AACC
  8
KI
  6
CONTINUOUS
 62
     7
 10
-240.90668187988669
 20
-49.394583925530213
 30
0.0
 11
-240.30667587988711
 21
-48.794577925530092
 31
0.0
  0
LINE
  5
1AACD
  8
KI
  6
CONTINUOUS
 62
     7
 10
-241.1066818798875
 20
-49.594583925530941
 30
0.0
 11
-240.90668187988669
 21
-49.394583925530213
 31
0.0
  0
LINE
  5
1AACE
  8
KI
  6
CONTINUOUS
 62
     7
 10
-240.90668187988581
 20
-50.292609537637382
 30
0.0
 11
-240.30667587988609
 21
-49.692603537637261
 31
0.0
  0
LINE
  5
1AACF
  8
KI
  6
CONTINUOUS
 62
     7
 10
-241.10668187988639
 20
-50.492609537637662
 30
0.0
 11
-240.90668187988629
 21
-50.292609537637382
 31
0.0
  0
LINE
  5
1AAD0
  8
KI
  6
CONTINUOUS
 62
     7
 10
-240.90668187988581
 20
-51.190635149743649
 30
0.0
 11
-240.55152348184279
 21
-50.835476751700718
 31
0.0
  0
LINE
  5
1AAD1
  8
KI
  6
CONTINUOUS
 62
     7
 10
-240.55152348184279
 20
-50.835476751700718
 30
0.0
 11
-240.32731134616759
 21
-50.611264616025402
 31
0.0
  0
LINE
  5
1AAD2
  8
KI
  6
CONTINUOUS
 62
     7
 10
-241.10668187988611
 20
-51.390635149744377
 30
0.0
 11
-240.90668187988629
 21
-51.190635149744111
 31
0.0
  0
LINE
  5
1AAD3
  8
KI
  6
CONTINUOUS
 62
     7
 10
-240.90668187988629
 20
-52.088660761851273
 30
0.0
 11
-240.3066818798869
 21
-51.488660761851818
 31
0.0
  0
LINE
  5
1AAD4
  8
KI
  6
CONTINUOUS
 62
     7
 10
-241.10668187988611
 20
-52.288660761851091
 30
0.0
 11
-240.90668187988629
 21
-52.088660761851273
 31
0.0
  0
LINE
  5
1AAD5
  8
KI
  6
CONTINUOUS
 62
     7
 10
-240.90668187988629
 20
-52.986686373958008
 30
0.0
 11
-240.30668187988641
 21
-52.386686373958099
 31
0.0
  0
LINE
  5
1AAD6
  8
KI
  6
CONTINUOUS
 62
     7
 10
-241.10668187988639
 20
-53.186686373958281
 30
0.0
 11
-240.90668187988629
 21
-52.986686373958008
 31
0.0
  0
LINE
  5
1AAD7
  8
KI
  6
CONTINUOUS
 62
     7
 10
-240.8574466455222
 20
-53.835476751700277
 30
0.0
 11
-240.30668187988641
 21
-53.284711986064821
 31
0.0
  0
LINE
  5
1AAD8
  8
KI
  6
CONTINUOUS
 62
     7
 10
-241.10668187988639
 20
-53.83547675170071
 30
0.0
 11
-240.30668187988641
 21
-53.83547675170071
 31
0.0
  0
LINE
  5
1AAD9
  8
KI
  6
CONTINUOUS
 62
     7
 10
-240.30668187988601
 20
-54.847455503970608
 30
0.0
 11
-240.30668187988641
 21
-51.085486751701382
 31
0.0
  0
LINE
  5
1AADA
  8
KI
  6
CONTINUOUS
 62
     7
 10
-240.50668187988671
 20
-50.83548675170092
 30
0.0
 11
-240.30668187988641
 21
-50.585476751701172
 31
0.0
  0
LINE
  5
1AADB
  8
KI
  6
CONTINUOUS
 62
     7
 10
-240.50667587988701
 20
-50.83548675170092
 30
0.0
 11
-240.30668187988641
 21
-51.085486751701382
 31
0.0
  0
ARC
  5
1AADC
  8
KI
  6
CONTINUOUS
 62
     7
 10
-240.60668187988631
 20
-55.547455503970902
 30
0.0
 40
0.3
 50
180.00000000034751
 51
270.0000000000847
  0
LINE
  5
1AADD
  8
KI
  6
CONTINUOUS
 62
     7
 10
-240.30668187988641
 20
-55.847455503970608
 30
0.0
 11
-240.60668187988631
 21
-55.847455503971091
 31
0.0
  0
ARC
  5
1AADE
  8
KI
  6
CONTINUOUS
 62
     7
 10
-240.60668187988941
 20
-55.147455503971258
 30
0.0
 40
0.3
 50
90.000000000084668
 51
180.00000000034751
  0
LINE
  5
1AADF
  8
KI
  6
CONTINUOUS
 62
     7
 10
-240.90668187988669
 20
-55.547455503970902
 30
0.0
 11
-240.90668187988911
 21
-55.147455503971258
 31
0.0
  0
LINE
  5
1AAE0
  8
KI
  6
CONTINUOUS
 62
     7
 10
-240.60668187988941
 20
-54.847455503971062
 30
0.0
 11
-240.30668187988601
 21
-54.847455503970608
 31
0.0
  0
LINE
  5
1AAE1
  8
KI
  6
CONTINUOUS
 62
     7
 10
-241.1066818798875
 20
-46.002481477103601
 30
0.0
 11
-240.93967715448369
 21
-45.835476751699801
 31
0.0
  0
LINE
  5
1AAE2
  8
KI
  6
CONTINUOUS
 62
     7
 10
-240.90668187988669
 20
-46.700507089209133
 30
0.0
 11
-240.30667587988671
 21
-46.100501089209473
 31
0.0
  0
LINE
  5
1AAE3
  8
KI
  6
CONTINUOUS
 62
     7
 10
-241.10668187988711
 20
-46.90050708920986
 30
0.0
 11
-240.90668187988669
 21
-46.700507089209587
 31
0.0
  0
LINE
  5
1AAE4
  8
KI
  6
CONTINUOUS
 62
     7
 10
-240.90668187988669
 20
-47.59853270131677
 30
0.0
 11
-240.30667587988671
 21
-46.998526701316642
 31
0.0
  0
LINE
  5
1AAE5
  8
KI
  6
CONTINUOUS
 62
     7
 10
-241.1066818798875
 20
-47.798532701317043
 30
0.0
 11
-240.90668187988669
 21
-47.59853270131677
 31
0.0
  0
LINE
  5
1AAE6
  8
KI
  6
CONTINUOUS
 62
     7
 10
-241.10668187988711
 20
-45.835476751701613
 30
0.0
 11
-240.30667587988609
 21
-45.835476751700249
 31
0.0
  0
ARC
  5
1AAE7
  8
KI
  6
CONTINUOUS
 62
     7
 10
-240.60668187988941
 20
-44.535476751701452
 30
0.0
 40
0.3
 50
180.00000000034751
 51
270.0000000000847
  0
ARC
  5
1AAE8
  8
KI
  6
CONTINUOUS
 62
     7
 10
-240.60668187989111
 20
-44.135476751701809
 30
0.0
 40
0.3
 50
90.000000000084668
 51
180.00000000034751
  0
LINE
  5
1AAE9
  8
KI
  6
CONTINUOUS
 62
     7
 10
-240.9066818798884
 20
-44.535476751701452
 30
0.0
 11
-240.9066818798911
 21
-44.135476751701809
 31
0.0
  0
LINE
  5
1AAEA
  8
KI
  6
CONTINUOUS
 62
     7
 10
-240.30667587988609
 20
-44.835476751701613
 30
0.0
 11
-240.60668187988941
 21
-44.835476751701613
 31
0.0
  0
ARC
  5
1AAEB
  8
KI
  6
CONTINUOUS
 62
     7
 10
-254.62746534501491
 20
-58.052067921651059
 30
0.0
 40
24.521586859558742
 50
356.28881364656843
 51
30.70307659906474
  0
ARC
  5
1AAEC
  8
KI
  6
CONTINUOUS
 62
     7
 10
-254.62746534501491
 20
-58.052067921651059
 30
0.0
 40
23.321944298558741
 50
356.28881364656843
 51
31.58910060604207
  0
LINE
  5
1AAED
  8
KI
  6
CONTINUOUS
 62
     7
 10
-238.30671244857001
 20
-56.34729981776033
 30
0.0
 11
-238.30671244857001
 21
-46.335476751700703
 31
0.0
  0
LINE
  5
1AAEE
  8
KI
  6
CONTINUOUS
 62
     7
 10
-237.4910234470311
 20
-59.392195158021849
 30
0.0
 11
-237.49102368813311
 21
-59.392194961594178
 31
0.0
  0
ARC
  5
1AAEF
  8
KI
  6
CONTINUOUS
 62
     7
 10
-235.1892200095034
 20
-63.339153846285598
 30
0.0
 40
0.3
 50
163.71693705722981
 51
347.14909562687671
  0
ARC
  5
1AAF0
  8
KI
  6
CONTINUOUS
 62
     7
 10
-236.3046713606617
 20
-61.978323107792647
 30
0.0
 40
0.5
 50
49.327411972635872
 51
65.442606426039717
  0
ARC
  5
1AAF1
  8
KI
  6
CONTINUOUS
 62
     7
 10
-232.52267700369009
 20
-53.701459846269223
 30
0.0
 40
10.0
 50
250.1968242058378
 51
252.81541990369061
  0
ARC
  5
1AAF2
  8
KI
  6
CONTINUOUS
 62
     7
 10
-236.19127999931871
 20
-63.004220300052083
 30
0.0
 40
0.3
 50
157.61329912440891
 51
339.33735528098322
  0
ARC
  5
1AAF3
  8
KI
  6
CONTINUOUS
 62
     7
 10
-234.15394382909281
 20
-59.475450541129682
 30
0.0
 40
4.0
 50
334.2981912537428
 51
357.65265816413881
  0
ARC
  5
1AAF4
  8
KI
  6
CONTINUOUS
 62
     7
 10
-232.52266996591231
 20
-53.701459846259667
 30
0.0
 40
8.7999999999999972
 50
254.19808653013209
 51
254.2239622526468
  0
ARC
  5
1AAF5
  8
KI
  6
CONTINUOUS
 62
     7
 10
-230.68984221395479
 20
-61.475450541128751
 30
0.0
 40
0.3
 50
237.85090437317311
 51
62.149095626860827
  0
ARC
  5
1AAF6
  8
KI
  6
CONTINUOUS
 62
     7
 10
-234.15394382909281
 20
-59.475450541129682
 30
0.0
 40
4.0
 50
319.29819125370602
 51
325.70180874629222
  0
ARC
  5
1AAF7
  8
KI
  6
CONTINUOUS
 62
     7
 10
-231.32551670434759
 20
-62.30387766587679
 30
0.0
 40
0.3
 50
222.850904373123
 51
47.149095626853317
  0
ARC
  5
1AAF8
  8
KI
  6
CONTINUOUS
 62
     7
 10
-234.15394382909079
 20
-63.475450541129668
 30
0.0
 40
0.3
 50
177.85090437321941
 51
2.1490956268587862
  0
ARC
  5
1AAF9
  8
KI
  6
CONTINUOUS
 62
     7
 10
-233.11866764868009
 20
-63.339153846285143
 30
0.0
 40
0.3
 50
192.85090437317751
 51
17.149095626929501
  0
ARC
  5
1AAFA
  8
KI
  6
CONTINUOUS
 62
     7
 10
-234.15394382909281
 20
-59.475450541129682
 30
0.0
 40
4.0
 50
289.29819125377412
 51
295.70180874626232
  0
ARC
  5
1AAFB
  8
KI
  6
CONTINUOUS
 62
     7
 10
-232.15394382909361
 20
-62.93955215626778
 30
0.0
 40
0.3
 50
207.85090437311229
 51
32.149095626882911
  0
ARC
  5
1AAFC
  8
KI
  6
CONTINUOUS
 62
     7
 10
-234.15394382909281
 20
-59.475450541129682
 30
0.0
 40
4.0
 50
304.29819125372239
 51
310.70180874624589
  0
ARC
  5
1AAFD
  8
KI
  6
CONTINUOUS
 62
     7
 10
-234.15394382909281
 20
-59.475450541129682
 30
0.0
 40
4.0
 50
259.29819125371631
 51
265.7018087463
  0
ARC
  5
1AAFE
  8
KI
  6
CONTINUOUS
 62
     7
 10
-234.15394382909281
 20
-59.47545054115195
 30
0.0
 40
4.0
 50
274.29819125375832
 51
280.7018087463199
  0
ARC
  5
1AAFF
  8
KI
  6
CONTINUOUS
 62
     7
 10
-234.15394382909281
 20
-59.475450541129682
 30
0.0
 40
2.799999999999998
 50
229.3274119726444
 51
357.65265816413881
  0
ARC
  5
1AB00
  8
KI
  6
CONTINUOUS
 62
     7
 10
-231.05778936690481
 20
-56.312429855541232
 30
0.0
 40
7.2490069497939373
 50
180.2756114576494
 51
225.96157026527959
  0
ARC
  5
1AB01
  8
KI
  6
CONTINUOUS
 62
     7
 10
-233.11328303048711
 20
-45.276318694787243
 30
0.0
 40
0.5
 50
116.01906736229211
 51
210.7030765990653
  0
ARC
  5
1AB02
  8
KI
  6
CONTINUOUS
 62
     7
 10
-236.52451875423759
 20
-38.28815235015005
 30
0.0
 40
7.2763100519022599
 50
296.01906736229222
 51
331.88676723363841
  0
ARC
  5
1AB03
  8
KI
  6
CONTINUOUS
 62
     7
 10
-236.52451875423759
 20
-38.28815235015005
 30
0.0
 40
5.776310051902259
 50
286.18682820039709
 51
331.88676723363841
  0
LINE
  5
1AB04
  8
KI
  6
CONTINUOUS
 62
     7
 10
-238.38058314865759
 20
-43.83547675170027
 30
0.0
 11
-234.9142548629296
 21
-43.835476751702082
 31
0.0
  0
LINE
  5
1AB05
  8
KI
  6
CONTINUOUS
 62
     7
 10
-237.8067124485699
 20
-45.835476751700718
 30
0.0
 11
-234.76121290396841
 21
-45.835476751700718
 31
0.0
  0
ARC
  5
1AB06
  8
KI
  6
CONTINUOUS
 62
     7
 10
-237.8067124485699
 20
-46.335476751700703
 30
0.0
 40
0.5
 50
89.999999999996732
 51
180.0
  0
ARC
  5
1AB07
  8
KI
  6
CONTINUOUS
 62
     7
 10
-230.8177446494748
 20
-41.456197352494172
 30
0.0
 40
0.7573354118943643
 50
339.86775998205133
 51
143.90577448522581
  0
LINE
  5
1AB08
  8
SU
  6
CONTINUOUS
 62
     3
 10
101.6242157861904
 20
-1.4924137040008301
 30
0.0
 11
101.6242157861904
 21
73.00758696564408
 31
0.0
  0
LINE
  5
1AB09
  8
SU
  6
CONTINUOUS
 62
     3
 10
81.624215786190078
 20
-0.492413704000825
 30
0.0
 11
81.624215786190078
 21
96.007593131811291
 31
0.0
  0
LINE
  5
1AB0A
  8
SU
  6
CONTINUOUS
 62
     3
 10
61.624215786190653
 20
93.007593131811262
 30
0.0
 11
81.624215786190078
 21
93.007593131811262
 31
0.0
  0
LINE
  5
1AB0B
  8
SU
  6
CONTINUOUS
 62
     3
 10
243.62421578618989
 20
-0.492413704000825
 30
0.0
 11
243.62421578618989
 21
96.007593131811362
 31
0.0
  0
LINE
  5
1AB0C
  8
SU
  6
CONTINUOUS
 62
     3
 10
263.6242157861904
 20
93.007593131811348
 30
0.0
 11
243.62421578618989
 21
93.007593131811348
 31
0.0
  0
LINE
  5
1AB0D
  8
SU
  6
CONTINUOUS
 62
     3
 10
62.624215786190682
 20
73.007586965644094
 30
0.0
 11
118.62421823471961
 21
73.00758696564408
 31
0.0
  0
LINE
  5
1AB0E
  8
SU
  6
CONTINUOUS
 62
     3
 10
62.624215786189957
 20
-93.992412942064803
 30
0.0
 11
118.62421823471961
 21
-93.992412942064831
 31
0.0
  0
LINE
  5
1AB0F
  8
SU
  6
CONTINUOUS
 62
     3
 10
115.62421823471961
 20
73.00758696564408
 30
0.0
 11
115.62421823471961
 21
-93.992412942064831
 31
0.0
  0
LINE
  5
1AB10
  8
SU
  6
CONTINUOUS
 62
     3
 10
277.62421578619001
 20
-173.49241294205001
 30
0.0
 11
287.62421578618989
 21
-167.49241294205001
 31
0.0
  0
LINE
  5
1AB11
  8
SU
  6
CONTINUOUS
 62
     3
 10
277.62421578619001
 20
-161.49241294205001
 30
0.0
 11
287.62421578618989
 21
-167.49241294205001
 31
0.0
  0
LINE
  5
1AB12
  8
SU
  6
CONTINUOUS
 62
     3
 10
277.62421578619001
 20
-173.49241294205001
 30
0.0
 11
277.62421578619001
 21
-161.49241294205001
 31
0.0
  0
LINE
  5
1AB13
  8
SU
  6
CONTINUOUS
 62
     3
 10
263.62421577060309
 20
-152.49241294205001
 30
0.0
 11
287.62421578618989
 21
-152.49241294205001
 31
0.0
  0
LINE
  5
1AB14
  8
SU
  6
CONTINUOUS
 62
     3
 10
101.62421578618979
 20
-36.492411229602709
 30
0.0
 11
101.62421578619011
 21
-25.492411229602691
 31
0.0
  0
LINE
  5
1AB15
  8
SU
  6
CONTINUOUS
 62
     3
 10
101.62421578619011
 20
-36.492411229602709
 30
0.0
 11
101.62421578619011
 21
-86.492412942048659
 31
0.0
  0
LINE
  5
1AB16
  8
KI
  6
CONTINUOUS
 62
     7
 10
60.544215786190129
 20
-92.572412942064744
 30
0.0
 11
60.544215786190179
 21
-93.982412942065054
 31
0.0
  0
LINE
  5
1AB17
  8
KI
  6
CONTINUOUS
 62
     7
 10
61.624215786190121
 20
-54.99241294206481
 30
0.0
 11
61.624215786190121
 21
-93.982412942065054
 31
0.0
  0
ARC
  5
1AB18
  8
KI
  6
CONTINUOUS
 62
     7
 10
60.544215786190179
 20
-93.982412942065054
 30
0.0
 40
1.0800000000000001
 50
297.90344809752992
 51
0.0
  0
LINE
  5
1AB19
  8
KI
  6
CONTINUOUS
 62
     7
 10
58.589637425159587
 20
-96.239541914236426
 30
0.0
 11
61.049637425118249
 21
-94.936849407684036
 31
0.0
  0
LINE
  5
1AB1A
  8
KI
  6
CONTINUOUS
 62
     7
 10
58.084215786190143
 20
-95.285105448639257
 30
0.0
 11
58.589637425159587
 21
-96.239541914236426
 31
0.0
  0
LINE
  5
1AB1B
  8
KI
  6
CONTINUOUS
 62
     7
 10
58.084215786190143
 20
-95.285105448639257
 30
0.0
 11
60.544215786190179
 21
-93.982412942065054
 31
0.0
  0
LINE
  5
1AB1C
  8
KI
  6
DASHED2
 62
     7
 10
51.674215786190302
 20
-76.442412942065062
 30
0.0
 11
51.674215786190302
 21
-65.25616032901975
 31
0.0
  0
LINE
  5
1AB1D
  8
KI
  6
DASHED2
 62
     7
 10
52.674215786190302
 20
-77.44241294206509
 30
0.0
 11
61.624215786190121
 21
-77.44241294206509
 31
0.0
  0
LINE
  5
1AB1E
  8
KI
  6
DASHED2
 62
     7
 10
52.674215786190302
 20
-73.022412942065017
 30
0.0
 11
61.624215786190121
 21
-73.022412942065017
 31
0.0
  0
ARC
  5
1AB1F
  8
KI
  6
DASHED2
 62
     7
 10
52.674215786190302
 20
-76.442412942065062
 30
0.0
 40
1.0
 50
180.0
 51
270.0
  0
ARC
  5
1AB20
  8
KI
  6
DASHED2
 62
     7
 10
52.674215786190302
 20
-72.022412942065003
 30
0.0
 40
1.0
 50
180.0
 51
270.0
  0
LINE
  5
1AB21
  8
KI
  6
DASHED2
 62
     7
 10
60.544215786190179
 20
-54.99241294206481
 30
0.0
 11
61.624215786190121
 21
-54.99241294206481
 31
0.0
  0
LINE
  5
1AB22
  8
KI
  6
DASHED2
 62
     7
 10
60.544215786190179
 20
-54.99241294206481
 30
0.0
 11
60.544215786190129
 21
-92.572412942064744
 31
0.0
  0
ARC
  5
1AB23
  8
KI
  6
CONTINUOUS
 62
     7
 10
68.676439935844769
 20
-75.662077475011429
 30
0.0
 40
16.06232918379629
 50
100.9541706765956
 51
116.0435154452659
  0
LINE
  5
1AB24
  8
KI
  6
CONTINUOUS
 62
     7
 10
65.624215786190121
 20
-59.892412083859341
 30
0.0
 11
66.688222645862979
 21
-59.892412083859341
 31
0.0
  0
LINE
  5
1AB25
  8
KI
  6
DASHED2
 62
     7
 10
52.624215786190121
 20
-75.092412083859614
 30
0.0
 11
61.624215786190099
 21
-75.092412083859614
 31
0.0
  0
ARC
  5
1AB26
  8
KI
  6
DASHED2
 62
     7
 10
68.676439935844769
 20
-75.662077475011429
 30
0.0
 40
16.06232918379629
 50
116.0435154452659
 51
177.96752584043799
  0
LINE
  5
1AB27
  8
KI
  6
CONTINUOUS
 62
     7
 10
61.624215786190099
 20
-75.092412083859614
 30
0.0
 11
66.080221842781782
 21
-75.0924120838596
 31
0.0
  0
LINE
  5
1AB28
  8
SU
  6
CONTINUOUS
 62
     3
 10
101.62421578619011
 20
-86.492412942048659
 30
0.0
 11
101.62421578619011
 21
-93.992412942064831
 31
0.0
  0
LINE
  5
1AB29
  8
SU
  6
CONTINUOUS
 62
     3
 10
101.62421578619011
 20
-93.992412942064831
 30
0.0
 11
101.62421578618979
 21
-105.9486034182551
 31
0.0
  0
LINE
  5
1AB2A
  8
SU
  6
CONTINUOUS
 62
     3
 10
47.624215786189957
 20
-173.49241294205001
 30
0.0
 11
37.62421578618995
 21
-167.49241294205001
 31
0.0
  0
LINE
  5
1AB2B
  8
SU
  6
CONTINUOUS
 62
     3
 10
47.624215786189957
 20
-161.49241294205001
 30
0.0
 11
37.62421578618995
 21
-167.49241294205001
 31
0.0
  0
LINE
  5
1AB2C
  8
SU
  6
CONTINUOUS
 62
     3
 10
47.624215786189957
 20
-173.49241294205001
 30
0.0
 11
47.624215786189957
 21
-161.49241294205001
 31
0.0
  0
LINE
  5
1AB2D
  8
SU
  6
CONTINUOUS
 62
     3
 10
61.624215801776813
 20
-152.49241294205001
 30
0.0
 11
37.624215786189879
 21
-152.49241294205001
 31
0.0
  0
LINE
  5
1AB2E
  8
SU
  6
CONTINUOUS
 62
     3
 10
61.624215786189957
 20
-94.992412942064249
 30
0.0
 11
61.624215786189922
 21
-155.49241294205001
 31
0.0
  0
LINE
  5
1AB2F
  8
SU
  6
CONTINUOUS
 62
     3
 10
65.624215801776813
 20
-152.49241294205001
 30
0.0
 11
61.624215786189922
 21
-152.49241294205001
 31
0.0
  0
LINE
  5
1AB30
  8
SU
  6
CONTINUOUS
 62
     3
 10
63.624215793983382
 20
-152.49241294205001
 30
0.0
 11
68.324215801776816
 21
-137.49241294205001
 31
0.0
  0
LINE
  5
1AB31
  8
SU
  6
CONTINUOUS
 62
     3
 10
68.324215801776816
 20
-137.49241294205001
 30
0.0
 11
73.295644373205391
 21
-137.49241294205001
 31
0.0
  0
LINE
  5
1AB32
  8
SU
  6
CONTINUOUS
 62
     3
 10
259.62421577060309
 20
-87.492412942050038
 30
0.0
 11
259.62421577060309
 21
-155.49241294205001
 31
0.0
  0
LINE
  5
1AB33
  8
SU
  6
CONTINUOUS
 62
     3
 10
65.624215801777041
 20
-87.492412942050038
 30
0.0
 11
65.624215801777041
 21
-155.49241294205001
 31
0.0
  0
LINE
  5
1AB34
  8
SU
  6
CONTINUOUS
 62
     3
 10
259.62421577060309
 20
-152.49241294205001
 30
0.0
 11
65.624215801777041
 21
-152.49241294205001
 31
0.0
  0
LINE
  5
1AB35
  8
SU
  6
CONTINUOUS
 62
     3
 10
263.62421578619001
 20
-94.992412942064249
 30
0.0
 11
263.62421578619001
 21
-155.49241294205001
 31
0.0
  0
LINE
  5
1AB36
  8
SU
  6
CONTINUOUS
 62
     3
 10
259.62421577060309
 20
-152.49241294205001
 30
0.0
 11
263.62421578619001
 21
-152.49241294205001
 31
0.0
  0
LINE
  5
1AB37
  8
SU
  6
CONTINUOUS
 62
     3
 10
261.6242157783966
 20
-152.49241294205001
 30
0.0
 11
256.92421577060293
 21
-137.49241294205001
 31
0.0
  0
LINE
  5
1AB38
  8
SU
  6
CONTINUOUS
 62
     3
 10
256.92421577060293
 20
-137.49241294205001
 30
0.0
 11
251.9527871991744
 21
-137.49241294205001
 31
0.0
  0
LINE
  5
1AB39
  8
SU
  6
CONTINUOUS
 62
     3
 10
37.62421578618995
 20
-94.992412942064803
 30
0.0
 11
37.624215786189922
 21
-170.49241294205001
 31
0.0
  0
LINE
  5
1AB3A
  8
SU
  6
CONTINUOUS
 62
     3
 10
287.62421578618989
 20
-94.992412942064803
 30
0.0
 11
287.62421578618989
 21
-170.49241294205001
 31
0.0
  0
LINE
  5
1AB3B
  8
SU
  6
CONTINUOUS
 62
     3
 10
37.624215786189922
 20
-167.49241294205001
 30
0.0
 11
287.62421578618989
 21
-167.49241294205001
 31
0.0
  0
LINE
  5
1AB3C
  8
KI
  6
DASHED2
 62
     7
 10
253.62421578618981
 20
-53.49241293811577
 30
0.0
 11
253.62421578618981
 21
-86.492412938115791
 31
0.0
  0
LINE
  5
1AB3D
  8
KI
  6
DASHED2
 62
     7
 10
259.6242157861895
 20
-53.49241293811577
 30
0.0
 11
253.62421578618981
 21
-53.49241293811577
 31
0.0
  0
LINE
  5
1AB3E
  8
KI
  6
DASHED2
 62
     7
 10
247.62421578618989
 20
-83.742412938115791
 30
0.0
 11
253.62421578618981
 21
-83.742412938115791
 31
0.0
  0
LINE
  5
1AB3F
  8
KI
  6
DASHED2
 62
     7
 10
247.62421578618989
 20
-56.242412938115791
 30
0.0
 11
253.62421578618981
 21
-56.242412938115791
 31
0.0
  0
LINE
  5
1AB40
  8
KI
  6
DASHED2
 62
     7
 10
241.62421578618989
 20
-57.992412938115777
 30
0.0
 11
247.62421578618989
 21
-57.992412938115777
 31
0.0
  0
LINE
  5
1AB41
  8
KI
  6
DASHED2
 62
     7
 10
241.62421578618989
 20
-81.992412938115805
 30
0.0
 11
247.62421578618989
 21
-81.992412938115805
 31
0.0
  0
LINE
  5
1AB42
  8
KI
  6
DASHED2
 62
     7
 10
247.62421578618989
 20
-56.242412938115791
 30
0.0
 11
247.62421578618989
 21
-83.742412938115791
 31
0.0
  0
LINE
  5
1AB43
  8
KI
  6
DASHED2
 62
     7
 10
241.62421578618989
 20
-57.992412938115777
 30
0.0
 11
241.62421578618989
 21
-81.992412938115805
 31
0.0
  0
CIRCLE
  5
1AB44
  8
KI
  6
CONTINUOUS
 62
     7
 10
260.62421578618989
 20
-104.49241293811571
 30
0.0
 40
3.1931342056999981
  0
CIRCLE
  5
1AB45
  8
KI
  6
CONTINUOUS
 62
     7
 10
260.62421578618989
 20
-104.49241293811571
 30
0.0
 40
4.0
  0
CIRCLE
  5
1AB46
  8
KI
  6
CONTINUOUS
 62
     7
 10
260.62421578618989
 20
-104.49241293811571
 30
0.0
 40
6.939104820999999
  0
CIRCLE
  5
1AB47
  8
KI
  6
CONTINUOUS
 62
     7
 10
260.62421578618989
 20
-104.49241293811571
 30
0.0
 40
8.0
  0
LINE
  5
1AB48
  8
KI
  6
CONTINUOUS
 62
     7
 10
263.6242157861895
 20
-49.992412938115791
 30
0.0
 11
263.6242157861895
 21
-97.076214451020064
 31
0.0
  0
LINE
  5
1AB49
  8
KI
  6
CONTINUOUS
 62
     7
 10
261.3242157861896
 20
-49.992412938115791
 30
0.0
 11
261.3242157861896
 21
-96.523096781757104
 31
0.0
  0
LINE
  5
1AB4A
  8
KI
  6
CONTINUOUS
 62
     7
 10
259.74417349494092
 20
-96.540964921206225
 30
0.0
 11
258.63203005991829
 21
-86.492412938115805
 31
0.0
  0
LINE
  5
1AB4B
  8
KI
  6
CONTINUOUS
 62
     7
 10
257.49528701439169
 20
-97.129682144380851
 30
0.0
 11
256.31798613221213
 21
-86.492412938115805
 31
0.0
  0
LINE
  5
1AB4C
  8
KI
  6
CONTINUOUS
 62
     7
 10
263.6242157861895
 20
-49.992412938115791
 30
0.0
 11
261.3242157861896
 21
-49.992412938115791
 31
0.0
  0
LINE
  5
1AB4D
  8
KI
  6
CONTINUOUS
 62
     7
 10
268.1242157861895
 20
-7.4924137040008221
 30
0.0
 11
268.1242157861895
 21
-19.49241122960316
 31
0.0
  0
LINE
  5
1AB4E
  8
KI
  6
CONTINUOUS
 62
     7
 10
268.1242157861895
 20
-19.49241122960316
 30
0.0
 11
263.6242157861895
 21
-19.49241122960316
 31
0.0
  0
LINE
  5
1AB4F
  8
KI
  6
CONTINUOUS
 62
     7
 10
263.6242157861895
 20
-19.49241122960273
 30
0.0
 11
263.6242157861895
 21
-25.492411229602709
 31
0.0
  0
LINE
  5
1AB50
  8
KI
  6
CONTINUOUS
 62
     7
 10
268.1242157861895
 20
-7.4924137040008221
 30
0.0
 11
263.6242157861895
 21
-7.4924137040008221
 31
0.0
  0
LINE
  5
1AB51
  8
KI
  6
CONTINUOUS
 62
     7
 10
263.6242157861895
 20
-1.4924137040008241
 30
0.0
 11
263.6242157861895
 21
-7.4924137040007954
 31
0.0
  0
LINE
  5
1AB52
  8
KI
  6
CONTINUOUS
 62
     7
 10
263.6242157861895
 20
-1.4924137040008241
 30
0.0
 11
243.62421578618989
 21
-1.4924137040008181
 31
0.0
  0
LINE
  5
1AB53
  8
KI
  6
CONTINUOUS
 62
     7
 10
243.62421578618989
 20
-1.4924137040008181
 30
0.0
 11
243.62421578618989
 21
-25.492411229602691
 31
0.0
  0
LINE
  5
1AB54
  8
KI
  6
CONTINUOUS
 62
     7
 10
263.6242157861895
 20
-25.492411229602709
 30
0.0
 11
243.62421578618989
 21
-25.492411229602691
 31
0.0
  0
LINE
  5
1AB55
  8
KI
  6
CONTINUOUS
 62
     7
 10
243.62418079112911
 20
-25.992417229603369
 30
0.0
 11
243.62418079112871
 21
-28.218509960831991
 31
0.0
  0
ARC
  5
1AB56
  8
KI
  6
CONTINUOUS
 62
     7
 10
255.18505668127889
 20
-35.500440279258918
 30
0.0
 40
9.2190722294335075
 50
35.6258681755167
 51
87.195312659551448
  0
LINE
  5
1AB57
  8
KI
  6
CONTINUOUS
 62
     7
 10
245.79118551653119
 20
-25.492411229602251
 30
0.0
 11
245.6241807911274
 21
-25.659415955006029
 31
0.0
  0
LINE
  5
1AB58
  8
KI
  6
CONTINUOUS
 62
     7
 10
246.4892111286367
 20
-25.692411229602971
 30
0.0
 11
245.88920512863751
 21
-26.2924172296031
 31
0.0
  0
LINE
  5
1AB59
  8
KI
  6
CONTINUOUS
 62
     7
 10
246.68921112863799
 20
-25.492411229602691
 30
0.0
 11
246.48921112863709
 21
-25.692411229602971
 31
0.0
  0
LINE
  5
1AB5A
  8
KI
  6
CONTINUOUS
 62
     7
 10
247.38723674074441
 20
-25.692411229602971
 30
0.0
 11
246.78723074074421
 21
-26.2924172296031
 31
0.0
  0
LINE
  5
1AB5B
  8
KI
  6
CONTINUOUS
 62
     7
 10
247.5872367407446
 20
-25.492411229602251
 30
0.0
 11
247.38723674074441
 21
-25.692411229602971
 31
0.0
  0
LINE
  5
1AB5C
  8
KI
  6
CONTINUOUS
 62
     7
 10
248.28526235285111
 20
-25.692411229602971
 30
0.0
 11
247.6852563528509
 21
-26.2924172296031
 31
0.0
  0
LINE
  5
1AB5D
  8
KI
  6
CONTINUOUS
 62
     7
 10
248.48526235285141
 20
-25.492411229602251
 30
0.0
 11
248.28526235285111
 21
-25.692411229602971
 31
0.0
  0
LINE
  5
1AB5E
  8
KI
  6
CONTINUOUS
 62
     7
 10
249.1832879649582
 20
-25.692411229602971
 30
0.0
 11
248.58328196495759
 21
-26.292417229602641
 31
0.0
  0
LINE
  5
1AB5F
  8
KI
  6
CONTINUOUS
 62
     7
 10
249.38328796495861
 20
-25.492411229602251
 30
0.0
 11
249.1832879649582
 21
-25.692411229602971
 31
0.0
  0
LINE
  5
1AB60
  8
KI
  6
CONTINUOUS
 62
     7
 10
250.08131357706509
 20
-25.69241122960387
 30
0.0
 11
249.48130757706531
 21
-26.292417229603551
 31
0.0
  0
LINE
  5
1AB61
  8
KI
  6
CONTINUOUS
 62
     7
 10
250.2813135770657
 20
-25.49241122960316
 30
0.0
 11
250.08131357706509
 21
-25.692411229603429
 31
0.0
  0
LINE
  5
1AB62
  8
KI
  6
CONTINUOUS
 62
     7
 10
250.97933918917181
 20
-25.69241122960387
 30
0.0
 11
250.62418079112831
 21
-26.047569627646819
 31
0.0
  0
LINE
  5
1AB63
  8
KI
  6
CONTINUOUS
 62
     7
 10
250.62418079112831
 20
-26.047569627646819
 30
0.0
 11
250.39996865545351
 21
-26.271781763322132
 31
0.0
  0
LINE
  5
1AB64
  8
KI
  6
CONTINUOUS
 62
     7
 10
251.17933918917191
 20
-25.492411229603611
 30
0.0
 11
250.97933918917181
 21
-25.692411229603429
 31
0.0
  0
LINE
  5
1AB65
  8
KI
  6
CONTINUOUS
 62
     7
 10
251.8773648012789
 20
-25.692411229603429
 30
0.0
 11
251.27736480127999
 21
-26.292411229602891
 31
0.0
  0
LINE
  5
1AB66
  8
KI
  6
CONTINUOUS
 62
     7
 10
252.0773648012788
 20
-25.492411229603611
 30
0.0
 11
251.8773648012789
 21
-25.692411229603429
 31
0.0
  0
LINE
  5
1AB67
  8
KI
  6
CONTINUOUS
 62
     7
 10
252.77539041338591
 20
-25.692411229603429
 30
0.0
 11
252.17539041338571
 21
-26.292411229603321
 31
0.0
  0
LINE
  5
1AB68
  8
KI
  6
CONTINUOUS
 62
     7
 10
252.9753904133859
 20
-25.49241122960316
 30
0.0
 11
252.77539041338591
 21
-25.692411229603429
 31
0.0
  0
LINE
  5
1AB69
  8
KI
  6
CONTINUOUS
 62
     7
 10
253.6241807911284
 20
-25.741646463967442
 30
0.0
 11
253.07341602549249
 21
-26.292411229603321
 31
0.0
  0
LINE
  5
1AB6A
  8
KI
  6
CONTINUOUS
 62
     7
 10
253.6241807911284
 20
-25.49241122960316
 30
0.0
 11
253.6241807911284
 21
-26.292411229603321
 31
0.0
  0
LINE
  5
1AB6B
  8
KI
  6
CONTINUOUS
 62
     7
 10
245.62418079112911
 20
-25.492411229602691
 30
0.0
 11
245.62418079112831
 21
-26.292417229603551
 31
0.0
  0
LINE
  5
1AB6C
  8
KI
  6
CONTINUOUS
 62
     7
 10
254.63615954339829
 20
-26.2924112296038
 30
0.0
 11
250.8741907911288
 21
-26.292411229603321
 31
0.0
  0
LINE
  5
1AB6D
  8
KI
  6
CONTINUOUS
 62
     7
 10
250.6241907911284
 20
-26.092411229603069
 30
0.0
 11
250.37418079112871
 21
-26.292411229603321
 31
0.0
  0
LINE
  5
1AB6E
  8
KI
  6
CONTINUOUS
 62
     7
 10
250.6241907911284
 20
-26.09241722960282
 30
0.0
 11
250.8741907911288
 21
-26.292411229603321
 31
0.0
  0
LINE
  5
1AB6F
  8
KI
  6
CONTINUOUS
 62
     7
 10
250.3741907911284
 20
-26.292417229603551
 30
0.0
 11
244.62418079112911
 21
-26.292417229603551
 31
0.0
  0
ARC
  5
1AB70
  8
KI
  6
CONTINUOUS
 62
     7
 10
255.3361595433984
 20
-25.99241122960316
 30
0.0
 40
0.3
 50
359.99999999991371
 51
89.999999999651507
  0
LINE
  5
1AB71
  8
KI
  6
CONTINUOUS
 62
     7
 10
255.63615954339821
 20
-26.292411229603321
 30
0.0
 11
255.63615954339861
 21
-25.99241122960316
 31
0.0
  0
ARC
  5
1AB72
  8
KI
  6
CONTINUOUS
 62
     7
 10
254.9361595433993
 20
-25.992411229600432
 30
0.0
 40
0.3
 50
89.999999999651507
 51
179.9999999999136
  0
LINE
  5
1AB73
  8
KI
  6
CONTINUOUS
 62
     7
 10
255.3361595433984
 20
-25.692411229602971
 30
0.0
 11
254.9361595433993
 21
-25.692411229600701
 31
0.0
  0
ARC
  5
1AB74
  8
KI
  6
CONTINUOUS
 62
     7
 10
244.32418079112909
 20
-25.992411229600432
 30
0.0
 40
0.3
 50
359.99999999991371
 51
89.999999999651507
  0
ARC
  5
1AB75
  8
KI
  6
CONTINUOUS
 62
     7
 10
243.9241807911294
 20
-25.992411229598609
 30
0.0
 40
0.3
 50
89.999999999651507
 51
179.9999999999136
  0
LINE
  5
1AB76
  8
KI
  6
CONTINUOUS
 62
     7
 10
244.32418079112909
 20
-25.692411229601159
 30
0.0
 11
243.9241807911294
 21
-25.692411229598431
 31
0.0
  0
LINE
  5
1AB77
  8
KI
  6
CONTINUOUS
 62
     7
 10
244.62418079112911
 20
-26.292417229603551
 30
0.0
 11
244.62418079112911
 21
-25.992411229600432
 31
0.0
  0
LINE
  5
1AB78
  8
KI
  6
CONTINUOUS
 62
     7
 10
254.63615954339869
 20
-25.992411229600432
 30
0.0
 11
254.63615954339829
 21
-26.2924112296038
 31
0.0
  0
LINE
  5
1AB79
  8
KI
  6
CONTINUOUS
 62
     7
 10
253.6241807911284
 20
-25.49241122960316
 30
0.0
 11
245.62418079112911
 21
-25.492411229602691
 31
0.0
  0
ARC
  5
1AB7A
  8
KI
  6
CONTINUOUS
 62
     7
 10
245.06502273421481
 20
-33.485810079002611
 30
0.0
 40
0.5
 50
59.296923400935583
 51
153.9809326377069
  0
ARC
  5
1AB7B
  8
KI
  6
CONTINUOUS
 62
     7
 10
238.07685638957761
 20
-30.07457435525216
 30
0.0
 40
7.2763100519022599
 50
298.11323276635818
 51
333.98093263770693
  0
ARC
  5
1AB7C
  8
KI
  6
CONTINUOUS
 62
     7
 10
257.84077196107842
 20
-11.97162776447489
 30
0.0
 40
24.521586859558742
 50
239.29692340093581
 51
273.71118635343151
  0
ARC
  5
1AB7D
  8
KI
  6
CONTINUOUS
 62
     7
 10
238.07685638957761
 20
-30.07457435525216
 30
0.0
 40
5.776310051902259
 50
298.11323276635818
 51
343.81317179960399
  0
LINE
  5
1AB7E
  8
KI
  6
CONTINUOUS
 62
     7
 10
243.62418079112791
 20
-28.218509960831991
 30
0.0
 11
243.62418079112959
 21
-31.684838246560179
 31
0.0
  0
ARC
  5
1AB7F
  8
KI
  6
CONTINUOUS
 62
     7
 10
257.84077196107842
 20
-11.97162776447489
 30
0.0
 40
23.321944298558741
 50
238.41089939395661
 51
273.71118635343151
  0
LINE
  5
1AB80
  8
KI
  6
CONTINUOUS
 62
     7
 10
245.62418079112831
 20
-28.7923806609198
 30
0.0
 11
245.62418079112831
 21
-31.837880205521412
 31
0.0
  0
LINE
  5
1AB81
  8
KI
  6
CONTINUOUS
 62
     7
 10
259.18089919744921
 20
-29.108069662458689
 30
0.0
 11
259.18089900102228
 21
-29.108069421356639
 31
0.0
  0
LINE
  5
1AB82
  8
KI
  6
CONTINUOUS
 62
     7
 10
256.13600385718792
 20
-28.2923806609198
 30
0.0
 11
246.1241807911282
 21
-28.2923806609198
 31
0.0
  0
ARC
  5
1AB83
  8
KI
  6
CONTINUOUS
 62
     7
 10
246.1241807911282
 20
-28.7923806609198
 30
0.0
 40
0.5
 50
90.0
 51
180.00000000000151
  0
ARC
  5
1AB84
  8
KI
  6
CONTINUOUS
 62
     7
 10
263.12785788571318
 20
-31.409873099986399
 30
0.0
 40
0.3
 50
282.850904373123
 51
106.2830629427703
  0
ARC
  5
1AB85
  8
KI
  6
CONTINUOUS
 62
     7
 10
261.76702714722001
 20
-30.29442174882811
 30
0.0
 40
0.5
 50
204.55739357395959
 51
220.67258802736049
  0
ARC
  5
1AB86
  8
KI
  6
CONTINUOUS
 62
     7
 10
253.4901638856968
 20
-34.07641610579973
 30
0.0
 40
10.0
 50
17.18458009630881
 51
19.80317579416214
  0
ARC
  5
1AB87
  8
KI
  6
CONTINUOUS
 62
     7
 10
262.79292433947973
 20
-30.407813110171119
 30
0.0
 40
0.3
 50
290.66264471901661
 51
112.3867008755925
  0
ARC
  5
1AB88
  8
KI
  6
CONTINUOUS
 62
     7
 10
259.26415458055732
 20
-32.445149280397011
 30
0.0
 40
4.0
 50
272.34734183586102
 51
295.7018087462551
  0
ARC
  5
1AB89
  8
KI
  6
CONTINUOUS
 62
     7
 10
253.49016388568711
 20
-34.0764231435775
 30
0.0
 40
8.7999999999999972
 50
15.77603774735195
 51
15.80191346986723
  0
ARC
  5
1AB8A
  8
KI
  6
CONTINUOUS
 62
     7
 10
261.26415458055641
 20
-35.909250895534711
 30
0.0
 40
0.3
 50
207.8509043731396
 51
32.149095626827588
  0
ARC
  5
1AB8B
  8
KI
  6
CONTINUOUS
 62
     7
 10
259.26415458055732
 20
-32.445149280397011
 30
0.0
 40
4.0
 50
304.29819125370682
 51
310.7018087462971
  0
ARC
  5
1AB8C
  8
KI
  6
CONTINUOUS
 62
     7
 10
262.09258170530438
 20
-35.273576405141881
 30
0.0
 40
0.3
 50
222.85090437314679
 51
47.149095626876061
  0
ARC
  5
1AB8D
  8
KI
  6
CONTINUOUS
 62
     7
 10
263.26415458055732
 20
-32.445149280398851
 30
0.0
 40
0.3
 50
267.85090437314102
 51
92.149095626780564
  0
ARC
  5
1AB8E
  8
KI
  6
CONTINUOUS
 62
     7
 10
263.12785788571279
 20
-33.480425460809471
 30
0.0
 40
0.3
 50
252.8509043730698
 51
77.149095626823339
  0
ARC
  5
1AB8F
  8
KI
  6
CONTINUOUS
 62
     7
 10
259.26415458055732
 20
-32.445149280397011
 30
0.0
 40
4.0
 50
334.29819125373632
 51
340.70180874622662
  0
ARC
  5
1AB90
  8
KI
  6
CONTINUOUS
 62
     7
 10
262.72825619569551
 20
-34.445149280396123
 30
0.0
 40
0.3
 50
237.85090437311911
 51
62.149095626886691
  0
ARC
  5
1AB91
  8
KI
  6
CONTINUOUS
 62
     7
 10
259.26415458055732
 20
-32.445149280397011
 30
0.0
 40
4.0
 50
319.29819125375622
 51
325.70180874627903
  0
ARC
  5
1AB92
  8
KI
  6
CONTINUOUS
 62
     7
 10
259.26415458055732
 20
-32.445149280397011
 30
0.0
 40
4.0
 50
4.2981912536995841
 51
10.70180874628195
  0
ARC
  5
1AB93
  8
KI
  6
CONTINUOUS
 62
     7
 10
259.26415458058
 20
-32.445149280397011
 30
0.0
 40
4.0
 50
349.2981912536801
 51
355.70180874624123
  0
ARC
  5
1AB94
  8
KI
  6
CONTINUOUS
 62
     7
 10
259.26415458055732
 20
-32.445149280397011
 30
0.0
 40
2.799999999999998
 50
272.34734183586102
 51
40.672588027355403
  0
ARC
  5
1AB95
  8
KI
  6
CONTINUOUS
 62
     7
 10
256.10113389496883
 20
-35.541303742584788
 30
0.0
 40
7.2490069497939373
 50
44.038429734718576
 51
89.724388542350269
  0
ARC
  5
1AB96
  8
KI
  6
CONTINUOUS
 62
     7
 10
241.2449013919223
 20
-35.781348460014812
 30
0.0
 40
0.7573354118943643
 50
126.0942255147736
 51
290.13224001794953
  0
ARC
  5
1AB97
  8
KI
  6
CONTINUOUS
 62
     7
 10
242.57376905126401
 20
-18.992918603016872
 30
0.0
 40
2.5000001067820641
 50
191.52508544921761
 51
271.1553192138681
  0
LINE
  5
1AB98
  8
KI
  6
CONTINUOUS
 62
     7
 10
242.62419693363199
 20
-21.492405813441682
 30
0.0
 11
243.62418079112911
 21
-21.492405813441682
 31
0.0
  0
LINE
  5
1AB99
  8
KI
  6
DASHED2
 62
     7
 10
241.62417808107381
 20
-18.992411174637841
 30
0.0
 11
242.62419693363199
 21
-20.242417242804681
 31
0.0
  0
LINE
  5
1AB9A
  8
KI
  6
DASHED2
 62
     7
 10
243.62421578618989
 20
-18.992411170688801
 30
0.0
 11
242.62419693363199
 21
-20.242417238855641
 31
0.0
  0
LINE
  5
1AB9B
  8
KI
  6
DASHED2
 62
     7
 10
241.62417808107381
 20
-7.9924137668641819
 30
0.0
 11
241.62417808107381
 21
-18.992411174637841
 31
0.0
  0
LINE
  5
1AB9C
  8
KI
  6
DASHED2
 62
     7
 10
242.62419693363199
 20
-6.7424076986973427
 30
0.0
 11
242.62419693363199
 21
-20.242417242804681
 31
0.0
  0
LINE
  5
1AB9D
  8
KI
  6
DASHED2
 62
     7
 10
242.62419693363199
 20
-6.7424076986973427
 30
0.0
 11
243.62418079112911
 21
-7.9924137668641819
 31
0.0
  0
LINE
  5
1AB9E
  8
KI
  6
DASHED2
 62
     7
 10
242.62419693363199
 20
-6.7424076986973427
 30
0.0
 11
241.62417808107381
 21
-7.9924137668641819
 31
0.0
  0
LINE
  5
1AB9F
  8
KI
  6
CONTINUOUS
 62
     7
 10
240.1241847972978
 20
-19.49242060091651
 30
0.0
 11
240.1241847972978
 21
-7.4924043405855159
 31
0.0
  0
ARC
  5
1ABA0
  8
KI
  6
CONTINUOUS
 62
     7
 10
242.57376905126401
 20
-7.9919063384851601
 30
0.0
 40
2.5000001067820641
 50
88.844696044923452
 51
168.47492980957091
  0
LINE
  5
1ABA1
  8
KI
  6
CONTINUOUS
 62
     7
 10
242.62419693363199
 20
-5.4924191280607841
 30
0.0
 11
243.62418079112911
 21
-5.4924191280607841
 31
0.0
  0
LINE
  5
1ABA2
  8
KI
  6
CONTINUOUS
 62
     7
 10
57.124215786190121
 20
-7.4924137040008221
 30
0.0
 11
57.124215786190121
 21
-19.49241122960316
 31
0.0
  0
LINE
  5
1ABA3
  8
KI
  6
CONTINUOUS
 62
     7
 10
57.124215786190121
 20
-19.49241122960316
 30
0.0
 11
61.624215786190121
 21
-19.49241122960316
 31
0.0
  0
LINE
  5
1ABA4
  8
KI
  6
CONTINUOUS
 62
     7
 10
61.624215786190121
 20
-19.49241122960273
 30
0.0
 11
61.624215786190121
 21
-25.492411229602709
 31
0.0
  0
LINE
  5
1ABA5
  8
KI
  6
CONTINUOUS
 62
     7
 10
57.124215786190121
 20
-7.4924137040008221
 30
0.0
 11
61.624215786190121
 21
-7.4924137040008221
 31
0.0
  0
LINE
  5
1ABA6
  8
KI
  6
CONTINUOUS
 62
     7
 10
61.624215786190121
 20
-1.4924137040008261
 30
0.0
 11
61.624215786190121
 21
-7.4924137040007972
 31
0.0
  0
LINE
  5
1ABA7
  8
KI
  6
CONTINUOUS
 62
     7
 10
61.624215786190121
 20
-1.4924137040008261
 30
0.0
 11
81.624215786190078
 21
-1.4924137040008301
 31
0.0
  0
LINE
  5
1ABA8
  8
KI
  6
CONTINUOUS
 62
     7
 10
81.624215786190078
 20
-1.4924137040008301
 30
0.0
 11
81.624215786190078
 21
-25.492411229602709
 31
0.0
  0
LINE
  5
1ABA9
  8
KI
  6
CONTINUOUS
 62
     7
 10
61.624215786190121
 20
-25.492411229602709
 30
0.0
 11
81.624215786190078
 21
-25.492411229602709
 31
0.0
  0
LINE
  5
1ABAA
  8
KI
  6
CONTINUOUS
 62
     7
 10
81.62425078125068
 20
-25.992417229603369
 30
0.0
 11
81.624250781251149
 21
-28.218509960831991
 31
0.0
  0
ARC
  5
1ABAB
  8
KI
  6
CONTINUOUS
 62
     7
 10
70.063374891100821
 20
-35.500440279258918
 30
0.0
 40
9.2190722294335075
 50
92.804687340448481
 51
144.37413182448279
  0
LINE
  5
1ABAC
  8
KI
  6
CONTINUOUS
 62
     7
 10
79.457246055848699
 20
-25.492411229602261
 30
0.0
 11
79.624250781252485
 21
-25.659415955006029
 31
0.0
  0
LINE
  5
1ABAD
  8
KI
  6
CONTINUOUS
 62
     7
 10
78.759220443743175
 20
-25.692411229602989
 30
0.0
 11
79.359226443742372
 21
-26.29241722960311
 31
0.0
  0
LINE
  5
1ABAE
  8
KI
  6
CONTINUOUS
 62
     7
 10
78.559220443741992
 20
-25.492411229602709
 30
0.0
 11
78.75922044374272
 21
-25.692411229602989
 31
0.0
  0
LINE
  5
1ABAF
  8
KI
  6
CONTINUOUS
 62
     7
 10
77.861194831635558
 20
-25.692411229602989
 30
0.0
 11
78.461200831635651
 21
-26.29241722960311
 31
0.0
  0
LINE
  5
1ABB0
  8
KI
  6
CONTINUOUS
 62
     7
 10
77.661194831635271
 20
-25.492411229602261
 30
0.0
 11
77.861194831635558
 21
-25.692411229602989
 31
0.0
  0
LINE
  5
1ABB1
  8
KI
  6
CONTINUOUS
 62
     7
 10
76.963169219528766
 20
-25.692411229602971
 30
0.0
 11
77.563175219528944
 21
-26.29241722960311
 31
0.0
  0
LINE
  5
1ABB2
  8
KI
  6
CONTINUOUS
 62
     7
 10
76.76316921952855
 20
-25.492411229602251
 30
0.0
 11
76.963169219528766
 21
-25.692411229602971
 31
0.0
  0
LINE
  5
1ABB3
  8
KI
  6
CONTINUOUS
 62
     7
 10
76.065143607421632
 20
-25.692411229602971
 30
0.0
 11
76.665149607422222
 21
-26.292417229602641
 31
0.0
  0
LINE
  5
1ABB4
  8
KI
  6
CONTINUOUS
 62
     7
 10
75.865143607421373
 20
-25.492411229602251
 30
0.0
 11
76.065143607421632
 21
-25.692411229602971
 31
0.0
  0
LINE
  5
1ABB5
  8
KI
  6
CONTINUOUS
 62
     7
 10
75.167117995314896
 20
-25.692411229603891
 30
0.0
 11
75.767123995314591
 21
-26.292417229603551
 31
0.0
  0
LINE
  5
1ABB6
  8
KI
  6
CONTINUOUS
 62
     7
 10
74.967117995314183
 20
-25.49241122960316
 30
0.0
 11
75.167117995314896
 21
-25.69241122960344
 31
0.0
  0
LINE
  5
1ABB7
  8
KI
  6
CONTINUOUS
 62
     7
 10
74.269092383208189
 20
-25.692411229603891
 30
0.0
 11
74.62425078125159
 21
-26.047569627646819
 31
0.0
  0
LINE
  5
1ABB8
  8
KI
  6
CONTINUOUS
 62
     7
 10
74.62425078125159
 20
-26.047569627646819
 30
0.0
 11
74.848462916926451
 21
-26.271781763322132
 31
0.0
  0
LINE
  5
1ABB9
  8
KI
  6
CONTINUOUS
 62
     7
 10
74.069092383207945
 20
-25.492411229603611
 30
0.0
 11
74.269092383208189
 21
-25.69241122960344
 31
0.0
  0
LINE
  5
1ABBA
  8
KI
  6
CONTINUOUS
 62
     7
 10
73.371066771101013
 20
-25.69241122960344
 30
0.0
 11
73.971066771100013
 21
-26.292411229602891
 31
0.0
  0
LINE
  5
1ABBB
  8
KI
  6
CONTINUOUS
 62
     7
 10
73.171066771101223
 20
-25.492411229603611
 30
0.0
 11
73.371066771101013
 21
-25.69241122960344
 31
0.0
  0
LINE
  5
1ABBC
  8
KI
  6
CONTINUOUS
 62
     7
 10
72.473041158993865
 20
-25.69241122960344
 30
0.0
 11
73.073041158994201
 21
-26.292411229603349
 31
0.0
  0
LINE
  5
1ABBD
  8
KI
  6
CONTINUOUS
 62
     7
 10
72.273041158994033
 20
-25.49241122960316
 30
0.0
 11
72.473041158993865
 21
-25.69241122960344
 31
0.0
  0
LINE
  5
1ABBE
  8
KI
  6
CONTINUOUS
 62
     7
 10
71.62425078125159
 20
-25.741646463967442
 30
0.0
 11
72.175015546887479
 21
-26.292411229603349
 31
0.0
  0
LINE
  5
1ABBF
  8
KI
  6
CONTINUOUS
 62
     7
 10
71.62425078125159
 20
-25.49241122960316
 30
0.0
 11
71.62425078125159
 21
-26.292411229603349
 31
0.0
  0
LINE
  5
1ABC0
  8
KI
  6
CONTINUOUS
 62
     7
 10
79.62425078125068
 20
-25.492411229602709
 30
0.0
 11
79.62425078125159
 21
-26.292417229603551
 31
0.0
  0
LINE
  5
1ABC1
  8
KI
  6
CONTINUOUS
 62
     7
 10
70.612272028981693
 20
-26.2924112296038
 30
0.0
 11
74.374240781250933
 21
-26.292411229603349
 31
0.0
  0
LINE
  5
1ABC2
  8
KI
  6
CONTINUOUS
 62
     7
 10
74.624240781251373
 20
-26.092411229603069
 30
0.0
 11
74.874250781251149
 21
-26.292411229603349
 31
0.0
  0
LINE
  5
1ABC3
  8
KI
  6
CONTINUOUS
 62
     7
 10
74.624240781251373
 20
-26.09241722960282
 30
0.0
 11
74.374240781250933
 21
-26.292411229603349
 31
0.0
  0
LINE
  5
1ABC4
  8
KI
  6
CONTINUOUS
 62
     7
 10
74.874240781251373
 20
-26.292417229603551
 30
0.0
 11
80.62425078125068
 21
-26.292417229603551
 31
0.0
  0
ARC
  5
1ABC5
  8
KI
  6
CONTINUOUS
 62
     7
 10
69.91227202898142
 20
-25.99241122960316
 30
0.0
 40
0.3
 50
90.000000000348507
 51
180.000000000086
  0
LINE
  5
1ABC6
  8
KI
  6
CONTINUOUS
 62
     7
 10
69.612272028981693
 20
-26.292411229603349
 30
0.0
 11
69.612272028981252
 21
-25.99241122960316
 31
0.0
  0
ARC
  5
1ABC7
  8
KI
  6
CONTINUOUS
 62
     7
 10
70.312272028980601
 20
-25.992411229600439
 30
0.0
 40
0.3
 50
0.0000000000863075
 51
90.000000000348507
  0
LINE
  5
1ABC8
  8
KI
  6
CONTINUOUS
 62
     7
 10
69.91227202898142
 20
-25.692411229602971
 30
0.0
 11
70.312272028980601
 21
-25.692411229600712
 31
0.0
  0
ARC
  5
1ABC9
  8
KI
  6
CONTINUOUS
 62
     7
 10
80.924250781250876
 20
-25.992411229600439
 30
0.0
 40
0.3
 50
90.000000000348507
 51
180.000000000086
  0
ARC
  5
1ABCA
  8
KI
  6
CONTINUOUS
 62
     7
 10
81.324250781250498
 20
-25.99241122959862
 30
0.0
 40
0.3
 50
0.0000000000863075
 51
90.000000000348507
  0
LINE
  5
1ABCB
  8
KI
  6
CONTINUOUS
 62
     7
 10
80.924250781250876
 20
-25.69241122960117
 30
0.0
 11
81.324250781250498
 21
-25.692411229598441
 31
0.0
  0
LINE
  5
1ABCC
  8
KI
  6
CONTINUOUS
 62
     7
 10
80.62425078125068
 20
-26.292417229603551
 30
0.0
 11
80.62425078125068
 21
-25.992411229600439
 31
0.0
  0
LINE
  5
1ABCD
  8
KI
  6
CONTINUOUS
 62
     7
 10
70.612272028981224
 20
-25.992411229600439
 30
0.0
 11
70.612272028981693
 21
-26.2924112296038
 31
0.0
  0
LINE
  5
1ABCE
  8
KI
  6
CONTINUOUS
 62
     7
 10
71.62425078125159
 20
-25.49241122960316
 30
0.0
 11
79.62425078125068
 21
-25.492411229602709
 31
0.0
  0
ARC
  5
1ABCF
  8
KI
  6
CONTINUOUS
 62
     7
 10
80.183408838165064
 20
-33.485810079002611
 30
0.0
 40
0.5
 50
26.019067362292621
 51
120.7030765990647
  0
ARC
  5
1ABD0
  8
KI
  6
CONTINUOUS
 62
     7
 10
87.171575182802258
 20
-30.074574355252171
 30
0.0
 40
7.2763100519022599
 50
206.0190673622925
 51
241.88676723364139
  0
ARC
  5
1ABD1
  8
KI
  6
CONTINUOUS
 62
     7
 10
67.407659611301256
 20
-11.97162776447489
 30
0.0
 40
24.521586859558742
 50
266.28881364656843
 51
300.70307659906382
  0
ARC
  5
1ABD2
  8
KI
  6
CONTINUOUS
 62
     7
 10
87.171575182802258
 20
-30.074574355252171
 30
0.0
 40
5.776310051902259
 50
196.18682820039569
 51
241.88676723364139
  0
LINE
  5
1ABD3
  8
KI
  6
CONTINUOUS
 62
     7
 10
81.62425078125203
 20
-28.218509960831991
 30
0.0
 11
81.624250781250225
 21
-31.684838246560201
 31
0.0
  0
ARC
  5
1ABD4
  8
KI
  6
CONTINUOUS
 62
     7
 10
67.407659611301256
 20
-11.97162776447489
 30
0.0
 40
23.321944298558741
 50
266.28881364656843
 51
301.58910060604359
  0
LINE
  5
1ABD5
  8
KI
  6
CONTINUOUS
 62
     7
 10
79.62425078125159
 20
-28.792380660919811
 30
0.0
 11
79.62425078125159
 21
-31.837880205521412
 31
0.0
  0
LINE
  5
1ABD6
  8
KI
  6
CONTINUOUS
 62
     7
 10
66.067532374930465
 20
-29.108069662458689
 30
0.0
 11
66.067532571357674
 21
-29.108069421356639
 31
0.0
  0
LINE
  5
1ABD7
  8
KI
  6
CONTINUOUS
 62
     7
 10
69.11242771519197
 20
-28.2923806609198
 30
0.0
 11
79.12425078125159
 21
-28.292380660919811
 31
0.0
  0
ARC
  5
1ABD8
  8
KI
  6
CONTINUOUS
 62
     7
 10
79.12425078125159
 20
-28.792380660919811
 30
0.0
 40
0.5
 50
359.99999999999829
 51
90.0
  0
ARC
  5
1ABD9
  8
KI
  6
CONTINUOUS
 62
     7
 10
62.120573686666717
 20
-31.409873099986399
 30
0.0
 40
0.3
 50
73.716937057229572
 51
257.14909562687677
  0
ARC
  5
1ABDA
  8
KI
  6
CONTINUOUS
 62
     7
 10
63.481404425159653
 20
-30.29442174882811
 30
0.0
 40
0.5
 50
319.32741197263852
 51
335.44260642604002
  0
ARC
  5
1ABDB
  8
KI
  6
CONTINUOUS
 62
     7
 10
71.758267686683098
 20
-34.07641610579973
 30
0.0
 40
10.0
 50
160.1968242058378
 51
162.81541990369081
  0
ARC
  5
1ABDC
  8
KI
  6
CONTINUOUS
 62
     7
 10
62.455507232900231
 20
-30.407813110171119
 30
0.0
 40
0.3
 50
67.613299124407419
 51
249.3373552809833
  0
ARC
  5
1ABDD
  8
KI
  6
CONTINUOUS
 62
     7
 10
65.98427699182264
 20
-32.445149280397011
 30
0.0
 40
4.0
 50
244.29819125374479
 51
267.65265816413881
  0
ARC
  5
1ABDE
  8
KI
  6
CONTINUOUS
 62
     7
 10
71.758267686692633
 20
-34.0764231435775
 30
0.0
 40
8.7999999999999972
 50
164.19808653013251
 51
164.22396225264811
  0
ARC
  5
1ABDF
  8
KI
  6
CONTINUOUS
 62
     7
 10
63.984276991823542
 20
-35.909250895534711
 30
0.0
 40
0.3
 50
147.8509043731726
 51
332.1490956268604
  0
ARC
  5
1ABE0
  8
KI
  6
CONTINUOUS
 62
     7
 10
65.98427699182264
 20
-32.445149280397011
 30
0.0
 40
4.0
 50
229.29819125370301
 51
235.70180874629281
  0
ARC
  5
1ABE1
  8
KI
  6
CONTINUOUS
 62
     7
 10
63.15584986707551
 20
-35.273576405141881
 30
0.0
 40
0.3
 50
132.85090437312351
 51
317.14909562685312
  0
ARC
  5
1ABE2
  8
KI
  6
CONTINUOUS
 62
     7
 10
61.984276991822632
 20
-32.445149280398851
 30
0.0
 40
0.3
 50
87.850904373219379
 51
272.14909562685881
  0
ARC
  5
1ABE3
  8
KI
  6
CONTINUOUS
 62
     7
 10
62.120573686667157
 20
-33.480425460809471
 30
0.0
 40
0.3
 50
102.85090437317641
 51
287.14909562692998
  0
ARC
  5
1ABE4
  8
KI
  6
CONTINUOUS
 62
     7
 10
65.98427699182264
 20
-32.445149280397011
 30
0.0
 40
4.0
 50
199.2981912537729
 51
205.701808746263
  0
ARC
  5
1ABE5
  8
KI
  6
CONTINUOUS
 62
     7
 10
62.520175376684499
 20
-34.445149280396123
 30
0.0
 40
0.3
 50
117.8509043731132
 51
302.14909562688081
  0
ARC
  5
1ABE6
  8
KI
  6
CONTINUOUS
 62
     7
 10
65.98427699182264
 20
-32.445149280397011
 30
0.0
 40
4.0
 50
214.29819125372151
 51
220.70180874624359
  0
ARC
  5
1ABE7
  8
KI
  6
CONTINUOUS
 62
     7
 10
65.98427699182264
 20
-32.445149280397011
 30
0.0
 40
4.0
 50
169.29819125371779
 51
175.7018087463002
  0
ARC
  5
1ABE8
  8
KI
  6
CONTINUOUS
 62
     7
 10
65.984276991799902
 20
-32.445149280397011
 30
0.0
 40
4.0
 50
184.2981912537584
 51
190.7018087463199
  0
ARC
  5
1ABE9
  8
KI
  6
CONTINUOUS
 62
     7
 10
65.98427699182264
 20
-32.445149280397011
 30
0.0
 40
2.799999999999998
 50
139.32741197264451
 51
267.65265816413881
  0
ARC
  5
1ABEA
  8
KI
  6
CONTINUOUS
 62
     7
 10
69.147297677411075
 20
-35.541303742584788
 30
0.0
 40
7.2490069497939373
 50
90.275611457649703
 51
135.96157026528141
  0
ARC
  5
1ABEB
  8
KI
  6
CONTINUOUS
 62
     7
 10
84.003530180457659
 20
-35.781348460014812
 30
0.0
 40
0.7573354118943643
 50
249.86775998205039
 51
53.905774485226729
  0
ARC
  5
1ABEC
  8
KI
  6
CONTINUOUS
 62
     7
 10
82.674662521115707
 20
-18.992918603016872
 30
0.0
 40
2.5000001067820641
 50
268.84468078613151
 51
348.47491455078188
  0
LINE
  5
1ABED
  8
KI
  6
CONTINUOUS
 62
     7
 10
82.624234638747907
 20
-21.49240581344171
 30
0.0
 11
81.62425078125068
 21
-21.49240581344171
 31
0.0
  0
LINE
  5
1ABEE
  8
KI
  6
DASHED2
 62
     7
 10
83.624253491306149
 20
-18.992411174637841
 30
0.0
 11
82.624234638747907
 21
-20.242417242804681
 31
0.0
  0
LINE
  5
1ABEF
  8
KI
  6
DASHED2
 62
     7
 10
81.624215786190078
 20
-18.992411170688801
 30
0.0
 11
82.624234638747907
 21
-20.242417238855641
 31
0.0
  0
LINE
  5
1ABF0
  8
KI
  6
DASHED2
 62
     7
 10
83.624253491306149
 20
-7.9924137668641952
 30
0.0
 11
83.624253491306149
 21
-18.992411174637841
 31
0.0
  0
LINE
  5
1ABF1
  8
KI
  6
DASHED2
 62
     7
 10
82.624234638747907
 20
-6.7424076986973507
 30
0.0
 11
82.624234638747907
 21
-20.242417242804681
 31
0.0
  0
LINE
  5
1ABF2
  8
KI
  6
DASHED2
 62
     7
 10
82.624234638747907
 20
-6.7424076986973507
 30
0.0
 11
81.62425078125068
 21
-7.9924137668641908
 31
0.0
  0
LINE
  5
1ABF3
  8
KI
  6
DASHED2
 62
     7
 10
82.624234638747907
 20
-6.7424076986973507
 30
0.0
 11
83.624253491306149
 21
-7.9924137668641952
 31
0.0
  0
LINE
  5
1ABF4
  8
KI
  6
CONTINUOUS
 62
     7
 10
85.124246775082057
 20
-19.49242060091651
 30
0.0
 11
85.124246775082057
 21
-7.4924043405855292
 31
0.0
  0
ARC
  5
1ABF5
  8
KI
  6
CONTINUOUS
 62
     7
 10
82.674662521115707
 20
-7.991906338485169
 30
0.0
 40
2.5000001067820641
 50
11.525070190429
 51
91.155303955076519
  0
LINE
  5
1ABF6
  8
KI
  6
CONTINUOUS
 62
     7
 10
82.624234638747907
 20
-5.492419128060793
 30
0.0
 11
81.62425078125068
 21
-5.492419128060793
 31
0.0
  0
LINE
  5
1ABF7
  8
SU
  6
CONTINUOUS
 62
     3
 10
82.624215786190106
 20
-25.492411229602691
 30
0.0
 11
104.62421578619011
 21
-25.492411229602709
 31
0.0
  0
LINE
  5
1ABF8
  8
SU
  6
CONTINUOUS
 62
     3
 10
82.624215786190106
 20
-1.4924137040008241
 30
0.0
 11
104.62421578619011
 21
-1.4924137040008301
 31
0.0
  0
LINE
  5
1ABF9
  8
SU
  6
CONTINUOUS
 62
     3
 10
101.62421578619011
 20
-25.492411229602691
 30
0.0
 11
101.62421578619011
 21
-1.4924137040008301
 31
0.0
  0
LINE
  5
1ABFA
  8
KI
  6
DASHED2
 62
     7
 10
243.62418079112911
 20
-14.542404269888859
 30
0.0
 11
241.62417808107381
 21
-16.04113773148233
 31
0.0
  0
LINE
  5
1ABFB
  8
KI
  6
DASHED2
 62
     7
 10
243.62418079112911
 20
-12.44242067161408
 30
0.0
 11
241.62417808107381
 21
-10.943687210020579
 31
0.0
  0
LINE
  5
1ABFC
  8
KI
  6
DASHED2
 62
     7
 10
267.36811945810229
 20
-12.3319412612565
 30
0.0
 11
265.5514908657475
 21
-14.781018086843829
 31
0.0
  0
LINE
  5
1ABFD
  8
KI
  6
DASHED2
 62
     7
 10
268.47826776646241
 20
-12.3319412612565
 30
0.0
 11
266.66163917410711
 21
-14.781018086843829
 31
0.0
  0
LINE
  5
1ABFE
  8
KI
  6
DASHED2
 62
     7
 10
269.58845106988281
 20
-12.3319412612565
 30
0.0
 11
267.77182247752802
 21
-14.781018086843829
 31
0.0
  0
LINE
  5
1ABFF
  8
KI
  6
DASHED2
 62
     7
 10
270.69859937824282
 20
-12.3319412612565
 30
0.0
 11
268.88197078588792
 21
-14.781018086843829
 31
0.0
  0
LINE
  5
1AC00
  8
KI
  6
DASHED2
 62
     7
 10
271.80874768660311
 20
-12.3319412612565
 30
0.0
 11
269.99211909424832
 21
-14.781018086843829
 31
0.0
  0
LINE
  5
1AC01
  8
KI
  6
DASHED2
 62
     7
 10
272.91893099002351
 20
-12.3319412612565
 30
0.0
 11
271.10230239766872
 21
-14.781018086843829
 31
0.0
  0
LINE
  5
1AC02
  8
KI
  6
DASHED2
 62
     7
 10
274.02907929838341
 20
-12.3319412612565
 30
0.0
 11
272.21245070602902
 21
-14.781018086843829
 31
0.0
  0
LINE
  5
1AC03
  8
KI
  6
DASHED2
 62
     7
 10
275.13922760674359
 20
-12.3319412612565
 30
0.0
 11
273.3225990143888
 21
-14.781018086843829
 31
0.0
  0
LINE
  5
1AC04
  8
KI
  6
DASHED2
 62
     7
 10
276.2494109101641
 20
-12.3319412612565
 30
0.0
 11
274.4327823178092
 21
-14.781018086843829
 31
0.0
  0
LINE
  5
1AC05
  8
KI
  6
DASHED2
 62
     7
 10
277.35955921852383
 20
-12.3319412612565
 30
0.0
 11
275.54293062616949
 21
-14.781018086843829
 31
0.0
  0
LINE
  5
1AC06
  8
KI
  6
DASHED2
 62
     7
 10
278.4697425219448
 20
-12.3319412612565
 30
0.0
 11
276.65311392958978
 21
-14.781018086843829
 31
0.0
  0
LINE
  5
1AC07
  8
KI
  6
DASHED2
 62
     7
 10
264.03763953796181
 20
-12.3319412612565
 30
0.0
 11
262.22101094560691
 21
-14.781018086843829
 31
0.0
  0
LINE
  5
1AC08
  8
KI
  6
DASHED2
 62
     7
 10
265.1477878463221
 20
-12.3319412612565
 30
0.0
 11
263.33115925396669
 21
-14.781018086843829
 31
0.0
  0
LINE
  5
1AC09
  8
KI
  6
DASHED2
 62
     7
 10
266.25793615468172
 20
-12.3319412612565
 30
0.0
 11
264.44130756232681
 21
-14.781018086843829
 31
0.0
  0
LINE
  5
1AC0A
  8
KI
  6
DASHED2
 62
     7
 10
260.70712462276072
 20
-12.3319412612565
 30
0.0
 11
258.89053102546637
 21
-14.781018086843829
 31
0.0
  0
LINE
  5
1AC0B
  8
KI
  6
DASHED2
 62
     7
 10
261.8173079261814
 20
-12.3319412612565
 30
0.0
 11
260.00067933382599
 21
-14.781018086843829
 31
0.0
  0
LINE
  5
1AC0C
  8
KI
  6
DASHED2
 62
     7
 10
262.92745623454141
 20
-12.3319412612565
 30
0.0
 11
261.11082764218622
 21
-14.781018086843829
 31
0.0
  0
LINE
  5
1AC0D
  8
KI
  6
DASHED2
 62
     7
 10
267.36811945810229
 20
-12.33194126520551
 30
0.0
 11
265.5514908657475
 21
-14.78101809079285
 31
0.0
  0
LINE
  5
1AC0E
  8
KI
  6
DASHED2
 62
     7
 10
268.47826776646241
 20
-12.33194126520551
 30
0.0
 11
266.66163917410711
 21
-14.78101809079285
 31
0.0
  0
LINE
  5
1AC0F
  8
KI
  6
DASHED2
 62
     7
 10
269.58845106988281
 20
-12.33194126520551
 30
0.0
 11
267.77182247752802
 21
-14.78101809079285
 31
0.0
  0
LINE
  5
1AC10
  8
KI
  6
DASHED2
 62
     7
 10
270.69859937824282
 20
-12.33194126520551
 30
0.0
 11
268.88197078588792
 21
-14.78101809079285
 31
0.0
  0
LINE
  5
1AC11
  8
KI
  6
DASHED2
 62
     7
 10
271.80874768660311
 20
-12.33194126520551
 30
0.0
 11
269.99211909424832
 21
-14.78101809079285
 31
0.0
  0
LINE
  5
1AC12
  8
KI
  6
DASHED2
 62
     7
 10
272.91893099002351
 20
-12.33194126520551
 30
0.0
 11
271.10230239766872
 21
-14.78101809079285
 31
0.0
  0
LINE
  5
1AC13
  8
KI
  6
DASHED2
 62
     7
 10
274.02907929838341
 20
-12.33194126520551
 30
0.0
 11
272.21245070602902
 21
-14.78101809079285
 31
0.0
  0
LINE
  5
1AC14
  8
KI
  6
DASHED2
 62
     7
 10
275.13922760674359
 20
-12.33194126520551
 30
0.0
 11
273.3225990143888
 21
-14.78101809079285
 31
0.0
  0
LINE
  5
1AC15
  8
KI
  6
DASHED2
 62
     7
 10
276.2494109101641
 20
-12.33194126520551
 30
0.0
 11
274.4327823178092
 21
-14.78101809079285
 31
0.0
  0
LINE
  5
1AC16
  8
KI
  6
DASHED2
 62
     7
 10
277.35955921852383
 20
-12.33194126520551
 30
0.0
 11
275.54293062616949
 21
-14.78101809079285
 31
0.0
  0
LINE
  5
1AC17
  8
KI
  6
DASHED2
 62
     7
 10
278.4697425219448
 20
-12.33194126520551
 30
0.0
 11
276.65311392958978
 21
-14.78101809079285
 31
0.0
  0
LINE
  5
1AC18
  8
KI
  6
DASHED2
 62
     7
 10
279.57989083030509
 20
-12.33194126520551
 30
0.0
 11
277.76326223794962
 21
-14.78101809079285
 31
0.0
  0
LINE
  5
1AC19
  8
KI
  6
DASHED2
 62
     7
 10
280.69003913866482
 20
-12.33194126520551
 30
0.0
 11
278.87341054631003
 21
-14.78101809079285
 31
0.0
  0
LINE
  5
1AC1A
  8
KI
  6
DASHED2
 62
     7
 10
281.80022244208533
 20
-12.33194126520551
 30
0.0
 11
279.98359384973043
 21
-14.78101809079285
 31
0.0
  0
LINE
  5
1AC1B
  8
KI
  6
DASHED2
 62
     7
 10
282.91037075044562
 20
-12.33194126520551
 30
0.0
 11
281.09374215809032
 21
-14.78101809079285
 31
0.0
  0
LINE
  5
1AC1C
  8
KI
  6
DASHED2
 62
     7
 10
243.62418079112911
 20
-12.44242067161408
 30
0.0
 11
281.73880611067972
 21
-12.442420671614091
 31
0.0
  0
LINE
  5
1AC1D
  8
KI
  6
DASHED2
 62
     7
 10
281.73880611067972
 20
-12.442420671614091
 30
0.0
 11
290.32711891514862
 21
-13.487950600521041
 31
0.0
  0
LINE
  5
1AC1E
  8
KI
  6
DASHED2
 62
     7
 10
281.73880611067972
 20
-14.542404269888859
 30
0.0
 11
290.32711891514862
 21
-13.49687434098192
 31
0.0
  0
LINE
  5
1AC1F
  8
KI
  6
DASHED2
 62
     7
 10
243.62418079112911
 20
-14.542404269888859
 30
0.0
 11
281.73880611067972
 21
-14.542404269888859
 31
0.0
  0
LINE
  5
1AC20
  8
KI
  6
DASHED2
 62
     7
 10
264.03763953796181
 20
-12.33194126520551
 30
0.0
 11
262.22101094560691
 21
-14.78101809079285
 31
0.0
  0
LINE
  5
1AC21
  8
KI
  6
DASHED2
 62
     7
 10
265.1477878463221
 20
-12.33194126520551
 30
0.0
 11
263.33115925396709
 21
-14.78101809079285
 31
0.0
  0
LINE
  5
1AC22
  8
KI
  6
DASHED2
 62
     7
 10
266.25793615468172
 20
-12.33194126520551
 30
0.0
 11
264.44130756232681
 21
-14.78101809079285
 31
0.0
  0
LINE
  5
1AC23
  8
KI
  6
DASHED2
 62
     7
 10
260.70712462276072
 20
-12.33194126520551
 30
0.0
 11
258.89053102546637
 21
-14.78101809079285
 31
0.0
  0
LINE
  5
1AC24
  8
KI
  6
DASHED2
 62
     7
 10
261.8173079261814
 20
-12.33194126520551
 30
0.0
 11
260.00067933382599
 21
-14.78101809079285
 31
0.0
  0
LINE
  5
1AC25
  8
KI
  6
DASHED2
 62
     7
 10
262.92745623454141
 20
-12.33194126520551
 30
0.0
 11
261.11082764218622
 21
-14.78101809079285
 31
0.0
  0
LINE
  5
1AC26
  8
KI
  6
CENTER2
 62
     7
 10
237.26921776099499
 20
-13.49241247075147
 30
0.0
 11
295.73941999709717
 21
-13.49241247075148
 31
0.0
  0
LINE
  5
1AC27
  8
KI
  6
DASHED2
 62
     7
 10
81.62425078125068
 20
-14.542404269888859
 30
0.0
 11
83.624253491306149
 21
-16.04113773148233
 31
0.0
  0
LINE
  5
1AC28
  8
KI
  6
DASHED2
 62
     7
 10
81.62425078125068
 20
-12.44242067161408
 30
0.0
 11
83.624253491306149
 21
-10.943687210020579
 31
0.0
  0
LINE
  5
1AC29
  8
KI
  6
DASHED2
 62
     7
 10
57.880312114277658
 20
-12.331941261256491
 30
0.0
 11
59.69694070663251
 21
-14.781018086843821
 31
0.0
  0
LINE
  5
1AC2A
  8
KI
  6
DASHED2
 62
     7
 10
56.77016380591737
 20
-12.331941261256491
 30
0.0
 11
58.586792398272671
 21
-14.781018086843821
 31
0.0
  0
LINE
  5
1AC2B
  8
KI
  6
DASHED2
 62
     7
 10
55.659980502496978
 20
-12.331941261256491
 30
0.0
 11
57.476609094851817
 21
-14.781018086843821
 31
0.0
  0
LINE
  5
1AC2C
  8
KI
  6
DASHED2
 62
     7
 10
54.549832194137153
 20
-12.331941261256491
 30
0.0
 11
56.366460786491977
 21
-14.781018086843821
 31
0.0
  0
LINE
  5
1AC2D
  8
KI
  6
DASHED2
 62
     7
 10
53.439683885776837
 20
-12.331941261256491
 30
0.0
 11
55.256312478131669
 21
-14.781018086843821
 31
0.0
  0
LINE
  5
1AC2E
  8
KI
  6
DASHED2
 62
     7
 10
52.329500582356431
 20
-12.331941261256491
 30
0.0
 11
54.146129174711277
 21
-14.781018086843821
 31
0.0
  0
LINE
  5
1AC2F
  8
KI
  6
DASHED2
 62
     7
 10
51.219352273996599
 20
-12.331941261256491
 30
0.0
 11
53.035980866350997
 21
-14.781018086843821
 31
0.0
  0
LINE
  5
1AC30
  8
KI
  6
DASHED2
 62
     7
 10
50.109203965636311
 20
-12.331941261256491
 30
0.0
 11
51.92583255799115
 21
-14.781018086843821
 31
0.0
  0
LINE
  5
1AC31
  8
KI
  6
DASHED2
 62
     7
 10
48.999020662215912
 20
-12.331941261256491
 30
0.0
 11
50.815649254570758
 21
-14.781018086843821
 31
0.0
  0
LINE
  5
1AC32
  8
KI
  6
DASHED2
 62
     7
 10
47.888872353856058
 20
-12.331941261256491
 30
0.0
 11
49.705500946210456
 21
-14.781018086843821
 31
0.0
  0
LINE
  5
1AC33
  8
KI
  6
DASHED2
 62
     7
 10
46.778689050435219
 20
-12.331941261256491
 30
0.0
 11
48.59531764279005
 21
-14.781018086843821
 31
0.0
  0
LINE
  5
1AC34
  8
KI
  6
DASHED2
 62
     7
 10
61.210792034418198
 20
-12.331941261256491
 30
0.0
 11
63.027420626773043
 21
-14.781018086843821
 31
0.0
  0
LINE
  5
1AC35
  8
KI
  6
DASHED2
 62
     7
 10
60.10064372605791
 20
-12.331941261256491
 30
0.0
 11
61.917272318413211
 21
-14.781018086843821
 31
0.0
  0
LINE
  5
1AC36
  8
KI
  6
DASHED2
 62
     7
 10
58.990495417698071
 20
-12.331941261256491
 30
0.0
 11
60.807124010052917
 21
-14.781018086843821
 31
0.0
  0
LINE
  5
1AC37
  8
KI
  6
DASHED2
 62
     7
 10
64.541306949619283
 20
-12.3319412612565
 30
0.0
 11
66.357900546913569
 21
-14.781018086843821
 31
0.0
  0
LINE
  5
1AC38
  8
KI
  6
DASHED2
 62
     7
 10
63.431123646198451
 20
-12.3319412612565
 30
0.0
 11
65.247752238553744
 21
-14.781018086843821
 31
0.0
  0
LINE
  5
1AC39
  8
KI
  6
DASHED2
 62
     7
 10
62.320975337838611
 20
-12.331941261256491
 30
0.0
 11
64.137603930193436
 21
-14.781018086843821
 31
0.0
  0
LINE
  5
1AC3A
  8
KI
  6
DASHED2
 62
     7
 10
57.880312114277658
 20
-12.33194126520551
 30
0.0
 11
59.69694070663251
 21
-14.78101809079285
 31
0.0
  0
LINE
  5
1AC3B
  8
KI
  6
DASHED2
 62
     7
 10
56.77016380591737
 20
-12.33194126520551
 30
0.0
 11
58.586792398272671
 21
-14.78101809079285
 31
0.0
  0
LINE
  5
1AC3C
  8
KI
  6
DASHED2
 62
     7
 10
55.659980502496978
 20
-12.33194126520551
 30
0.0
 11
57.476609094851817
 21
-14.78101809079285
 31
0.0
  0
LINE
  5
1AC3D
  8
KI
  6
DASHED2
 62
     7
 10
54.549832194137153
 20
-12.33194126520551
 30
0.0
 11
56.366460786491977
 21
-14.78101809079285
 31
0.0
  0
LINE
  5
1AC3E
  8
KI
  6
DASHED2
 62
     7
 10
53.439683885776837
 20
-12.33194126520551
 30
0.0
 11
55.256312478131669
 21
-14.78101809079285
 31
0.0
  0
LINE
  5
1AC3F
  8
KI
  6
DASHED2
 62
     7
 10
52.329500582356431
 20
-12.33194126520551
 30
0.0
 11
54.146129174711277
 21
-14.78101809079285
 31
0.0
  0
LINE
  5
1AC40
  8
KI
  6
DASHED2
 62
     7
 10
51.219352273996599
 20
-12.33194126520551
 30
0.0
 11
53.035980866350997
 21
-14.78101809079285
 31
0.0
  0
LINE
  5
1AC41
  8
KI
  6
DASHED2
 62
     7
 10
50.109203965636311
 20
-12.33194126520551
 30
0.0
 11
51.92583255799115
 21
-14.78101809079285
 31
0.0
  0
LINE
  5
1AC42
  8
KI
  6
DASHED2
 62
     7
 10
48.999020662215912
 20
-12.33194126520551
 30
0.0
 11
50.815649254570758
 21
-14.78101809079285
 31
0.0
  0
LINE
  5
1AC43
  8
KI
  6
DASHED2
 62
     7
 10
47.888872353856058
 20
-12.33194126520551
 30
0.0
 11
49.705500946210456
 21
-14.78101809079285
 31
0.0
  0
LINE
  5
1AC44
  8
KI
  6
DASHED2
 62
     7
 10
46.778689050435219
 20
-12.33194126520551
 30
0.0
 11
48.59531764279005
 21
-14.78101809079285
 31
0.0
  0
LINE
  5
1AC45
  8
KI
  6
DASHED2
 62
     7
 10
45.66854074207491
 20
-12.33194126520551
 30
0.0
 11
47.485169334430211
 21
-14.78101809079285
 31
0.0
  0
LINE
  5
1AC46
  8
KI
  6
DASHED2
 62
     7
 10
44.558392433715063
 20
-12.33194126520551
 30
0.0
 11
46.37502102606993
 21
-14.781018090792839
 31
0.0
  0
LINE
  5
1AC47
  8
KI
  6
DASHED2
 62
     7
 10
43.448209130294678
 20
-12.33194126520551
 30
0.0
 11
45.264837722649517
 21
-14.781018090792839
 31
0.0
  0
LINE
  5
1AC48
  8
KI
  6
DASHED2
 62
     7
 10
42.338060821934391
 20
-12.33194126520551
 30
0.0
 11
44.154689414289678
 21
-14.781018090792839
 31
0.0
  0
LINE
  5
1AC49
  8
KI
  6
DASHED2
 62
     7
 10
81.62425078125068
 20
-12.44242067161408
 30
0.0
 11
43.509625461700011
 21
-12.442420671614061
 31
0.0
  0
LINE
  5
1AC4A
  8
KI
  6
DASHED2
 62
     7
 10
43.509625461700011
 20
-12.442420671614061
 30
0.0
 11
34.921312657231162
 21
-13.48795060052101
 31
0.0
  0
LINE
  5
1AC4B
  8
KI
  6
DASHED2
 62
     7
 10
43.509625461700011
 20
-14.542404269888831
 30
0.0
 11
34.921312657231162
 21
-13.496874340981901
 31
0.0
  0
LINE
  5
1AC4C
  8
KI
  6
DASHED2
 62
     7
 10
81.62425078125068
 20
-14.542404269888859
 30
0.0
 11
43.509625461700011
 21
-14.542404269888831
 31
0.0
  0
LINE
  5
1AC4D
  8
KI
  6
DASHED2
 62
     7
 10
61.210792034418198
 20
-12.33194126520551
 30
0.0
 11
63.027420626773043
 21
-14.78101809079285
 31
0.0
  0
LINE
  5
1AC4E
  8
KI
  6
DASHED2
 62
     7
 10
60.10064372605791
 20
-12.33194126520551
 30
0.0
 11
61.91727231841277
 21
-14.78101809079285
 31
0.0
  0
LINE
  5
1AC4F
  8
KI
  6
DASHED2
 62
     7
 10
58.990495417698071
 20
-12.33194126520551
 30
0.0
 11
60.807124010052917
 21
-14.78101809079285
 31
0.0
  0
LINE
  5
1AC50
  8
KI
  6
DASHED2
 62
     7
 10
64.541306949619283
 20
-12.33194126520551
 30
0.0
 11
66.357900546913569
 21
-14.78101809079285
 31
0.0
  0
LINE
  5
1AC51
  8
KI
  6
DASHED2
 62
     7
 10
63.431123646198451
 20
-12.33194126520551
 30
0.0
 11
65.247752238553744
 21
-14.78101809079285
 31
0.0
  0
LINE
  5
1AC52
  8
KI
  6
DASHED2
 62
     7
 10
62.320975337838611
 20
-12.33194126520551
 30
0.0
 11
64.137603930193436
 21
-14.78101809079285
 31
0.0
  0
LINE
  5
1AC53
  8
KI
  6
CENTER2
 62
     7
 10
87.979213811384753
 20
-13.49241247075147
 30
0.0
 11
29.50901157528267
 21
-13.492412470751461
 31
0.0
  0
LINE
  5
1AC54
  8
SU
  6
CONTINUOUS
 62
     3
 10
-179.10667910659731
 20
-210.66293584505999
 30
0.0
 11
-134.6066789891438
 21
-210.66293584505999
 31
0.0
  0
LINE
  5
1AC55
  8
SU
  6
CONTINUOUS
 62
     3
 10
-137.6066789891438
 20
-210.66293584505999
 30
0.0
 11
-137.6066789891438
 21
-218.66293584505999
 31
0.0
  0
LINE
  5
1AC56
  8
SU
  6
CONTINUOUS
 62
     3
 10
-147.606679102648
 20
-230.66293584505999
 30
0.0
 11
-119.60667898914519
 21
-230.66293584505999
 31
0.0
  0
LINE
  5
1AC57
  8
SU
  6
CONTINUOUS
 62
     3
 10
-122.60667898914519
 20
-218.66293584505999
 30
0.0
 11
-122.60667898914519
 21
-230.66293584505999
 31
0.0
  0
LINE
  5
1AC58
  8
SU
  6
CONTINUOUS
 62
     3
 10
-216.35667996085411
 20
-214.16293584505999
 30
0.0
 11
-218.27626527392221
 21
-215.63588546150521
 31
0.0
  0
LINE
  5
1AC59
  8
SU
  6
CONTINUOUS
 62
     3
 10
-216.35667996085411
 20
-214.16293584505999
 30
0.0
 11
-217.83003380744799
 21
-216.0830479611142
 31
0.0
  0
ARC
  5
1AC5A
  8
KI
  6
CONTINUOUS
 62
     7
 10
-194.8034258996957
 20
-217.71477190870351
 30
0.0
 40
0.9481639363564127
 50
176.8660808498669
 51
3.133919150132968
  0
LINE
  5
1AC5B
  8
KI
  6
CONTINUOUS
 62
     7
 10
-214.35667996085411
 20
-212.66293584505999
 30
0.0
 11
-214.35667996085411
 21
-217.66293584505999
 31
0.0
  0
LINE
  5
1AC5C
  8
KI
  6
CONTINUOUS
 62
     7
 10
-195.75017183853669
 20
-212.66293584505999
 30
0.0
 11
-195.75017183853669
 21
-217.66293584505999
 31
0.0
  0
LINE
  5
1AC5D
  8
KI
  6
CONTINUOUS
 62
     7
 10
-193.85667996085411
 20
-210.66293584505999
 30
0.0
 11
-193.85667996085411
 21
-217.66293584505999
 31
0.0
  0
LINE
  5
1AC5E
  8
KI
  6
CONTINUOUS
 62
     7
 10
-216.35667996085411
 20
-210.66293584505999
 30
0.0
 11
-216.35667996085411
 21
-217.66293584505999
 31
0.0
  0
ARC
  5
1AC5F
  8
KI
  6
CONTINUOUS
 62
     7
 10
-215.35667996085411
 20
-217.66293584505999
 30
0.0
 40
1.0
 50
180.0
 51
0.0
  0
LINE
  5
1AC60
  8
KI
  6
CONTINUOUS
 62
     7
 10
-216.35667996085411
 20
-210.66293584505999
 30
0.0
 11
-193.85667996085411
 21
-210.66293584505999
 31
0.0
  0
LINE
  5
1AC61
  8
KI
  6
CONTINUOUS
 62
     7
 10
-195.75017183853669
 20
-212.66293584505999
 30
0.0
 11
-214.35667996085411
 21
-212.66293584505999
 31
0.0
  0
LINE
  5
1AC62
  8
SU
  6
CONTINUOUS
 62
     3
 10
-128.60667898914511
 20
-208.66293584505971
 30
0.0
 11
-122.60667898914519
 21
-218.66293584505971
 31
0.0
  0
LINE
  5
1AC63
  8
SU
  6
CONTINUOUS
 62
     3
 10
-116.60667898914519
 20
-208.66293584505971
 30
0.0
 11
-122.60667898914519
 21
-218.66293584505971
 31
0.0
  0
LINE
  5
1AC64
  8
SU
  6
CONTINUOUS
 62
     3
 10
-128.60667898914511
 20
-208.66293584505971
 30
0.0
 11
-116.60667898914519
 21
-208.66293584505971
 31
0.0
  0
LINE
  5
1AC65
  8
SU
  6
CONTINUOUS
 62
     3
 10
-179.1066791026478
 20
-210.66293584505999
 30
0.0
 11
-134.6066789891438
 21
-210.66293584505999
 31
0.0
  0
LINE
  5
1AC66
  8
SU
  6
CONTINUOUS
 62
     3
 10
-137.6066789891438
 20
-120.0148734886547
 30
0.0
 11
-137.6066789891438
 21
-210.66293584505999
 31
0.0
  0
LINE
  5
1AC67
  8
SU
  6
CONTINUOUS
 62
     3
 10
-147.60667853044339
 20
-218.66293584505999
 30
0.0
 11
-119.60667898914519
 21
-218.66293584505999
 31
0.0
  0
LINE
  5
1AC68
  8
SU
  6
CONTINUOUS
 62
     3
 10
-122.60667898914519
 20
-120.0148734886547
 30
0.0
 11
-122.60667898914519
 21
-218.66293584505999
 31
0.0
  0
TEXT
  5
1AC69
  8
SU
  6
CONTINUOUS
 62
     3
 10
-299.77687704837763
 20
-241.590730334282
 30
0.0
 40
4.0
  1
ボトムタイトナー（三方枠用）
 41
0.8299999999999999
  0
TEXT
  5
1AC6A
  8
SU
  6
CONTINUOUS
 62
     3
 10
-284.86849609599682
 20
-248.25739700094849
 30
0.0
 40
4.0
  1
〔オプション〕
 41
0.8299999999999999
  0
LINE
  5
1AC6B
  8
SU
  6
CONTINUOUS
 62
     3
 10
-180.106679102648
 20
86.160642570500514
 30
0.0
 11
-175.606679102648
 21
86.160642570500514
 31
0.0
  0
LINE
  5
1AC6C
  8
SU
  6
CONTINUOUS
 62
     3
 10
-175.606679102648
 20
86.160642570500514
 30
0.0
 11
-163.6504886264575
 21
86.160642570500514
 31
0.0
  0
LINE
  5
1AC6D
  8
SU
  6
CONTINUOUS
 62
     3
 10
-230.10668081511031
 20
123.66061004983671
 30
0.0
 11
-230.10668081511031
 21
83.160642570500656
 31
0.0
  0
LINE
  5
1AC6E
  8
SU
  6
CONTINUOUS
 62
     3
 10
-241.1066808153619
 20
106.66061004983661
 30
0.0
 11
-241.1066808153619
 21
83.160642570500656
 31
0.0
  0
LINE
  5
1AC6F
  8
SU
  6
CONTINUOUS
 62
     3
 10
-230.10668081511031
 20
86.160642570500656
 30
0.0
 11
-241.1066808153619
 21
86.160642570500656
 31
0.0
  0
LINE
  5
1AC70
  8
KI
  6
DASHED2
 62
     7
 10
-252.0566877748243
 20
107.6605750547759
 30
0.0
 11
-250.55795431323079
 21
105.66057234472051
 31
0.0
  0
LINE
  5
1AC71
  8
KI
  6
DASHED2
 62
     7
 10
-254.15667137309919
 20
107.6605750547759
 30
0.0
 11
-255.65540483469269
 21
105.66057234472051
 31
0.0
  0
LINE
  5
1AC72
  8
KI
  6
DASHED2
 62
     7
 10
-254.2671507834568
 20
131.40451372174891
 30
0.0
 11
-251.8180739578695
 21
129.58788512939421
 31
0.0
  0
LINE
  5
1AC73
  8
KI
  6
DASHED2
 62
     7
 10
-254.2671507834568
 20
132.51466203010921
 30
0.0
 11
-251.8180739578695
 21
130.69803343775391
 31
0.0
  0
LINE
  5
1AC74
  8
KI
  6
DASHED2
 62
     7
 10
-254.2671507834568
 20
133.62484533352941
 30
0.0
 11
-251.8180739578695
 21
131.8082167411749
 31
0.0
  0
LINE
  5
1AC75
  8
KI
  6
DASHED2
 62
     7
 10
-254.2671507834568
 20
134.7349936418895
 30
0.0
 11
-251.8180739578695
 21
132.91836504953471
 31
0.0
  0
LINE
  5
1AC76
  8
KI
  6
DASHED2
 62
     7
 10
-254.2671507834568
 20
135.84514195024971
 30
0.0
 11
-251.8180739578695
 21
134.02851335789481
 31
0.0
  0
LINE
  5
1AC77
  8
KI
  6
DASHED2
 62
     7
 10
-254.2671507834568
 20
136.9553252536702
 30
0.0
 11
-251.8180739578695
 21
135.13869666131541
 31
0.0
  0
LINE
  5
1AC78
  8
KI
  6
DASHED2
 62
     7
 10
-254.2671507834568
 20
138.06547356202981
 30
0.0
 11
-251.8180739578695
 21
136.2488449696757
 31
0.0
  0
LINE
  5
1AC79
  8
KI
  6
DASHED2
 62
     7
 10
-254.2671507834568
 20
139.17562187039039
 30
0.0
 11
-251.8180739578695
 21
137.35899327803551
 31
0.0
  0
LINE
  5
1AC7A
  8
KI
  6
DASHED2
 62
     7
 10
-254.2671507834568
 20
140.28580517381079
 30
0.0
 11
-251.8180739578695
 21
138.46917658145591
 31
0.0
  0
LINE
  5
1AC7B
  8
KI
  6
DASHED2
 62
     7
 10
-254.2671507834568
 20
141.3959534821706
 30
0.0
 11
-251.8180739578695
 21
139.57932488981621
 31
0.0
  0
LINE
  5
1AC7C
  8
KI
  6
DASHED2
 62
     7
 10
-254.2671507834568
 20
142.50613678559151
 30
0.0
 11
-251.8180739578695
 21
140.68950819323661
 31
0.0
  0
LINE
  5
1AC7D
  8
KI
  6
DASHED2
 62
     7
 10
-254.2671507834568
 20
128.07403380160841
 30
0.0
 11
-251.8180739578695
 21
126.25740520925351
 31
0.0
  0
LINE
  5
1AC7E
  8
KI
  6
DASHED2
 62
     7
 10
-254.2671507834568
 20
129.1841821099687
 30
0.0
 11
-251.8180739578695
 21
127.3675535176135
 31
0.0
  0
LINE
  5
1AC7F
  8
KI
  6
DASHED2
 62
     7
 10
-254.2671507834568
 20
130.2943304183286
 30
0.0
 11
-251.8180739578695
 21
128.47770182597381
 31
0.0
  0
LINE
  5
1AC80
  8
KI
  6
DASHED2
 62
     7
 10
-254.2671507834568
 20
124.7435188864074
 30
0.0
 11
-251.8180739578695
 21
122.9269252891131
 31
0.0
  0
LINE
  5
1AC81
  8
KI
  6
DASHED2
 62
     7
 10
-254.2671507834568
 20
125.8537021898282
 30
0.0
 11
-251.8180739578695
 21
124.0370735974729
 31
0.0
  0
LINE
  5
1AC82
  8
KI
  6
DASHED2
 62
     7
 10
-254.2671507834568
 20
126.9638504981879
 30
0.0
 11
-251.8180739578695
 21
125.14722190583321
 31
0.0
  0
LINE
  5
1AC83
  8
KI
  6
DASHED2
 62
     7
 10
-254.26715077950769
 20
131.40451372174891
 30
0.0
 11
-251.8180739539203
 21
129.58788512939421
 31
0.0
  0
LINE
  5
1AC84
  8
KI
  6
DASHED2
 62
     7
 10
-254.26715077950769
 20
132.51466203010921
 30
0.0
 11
-251.8180739539203
 21
130.69803343775391
 31
0.0
  0
LINE
  5
1AC85
  8
KI
  6
DASHED2
 62
     7
 10
-254.26715077950769
 20
133.62484533352941
 30
0.0
 11
-251.8180739539203
 21
131.8082167411749
 31
0.0
  0
LINE
  5
1AC86
  8
KI
  6
DASHED2
 62
     7
 10
-254.26715077950769
 20
134.7349936418895
 30
0.0
 11
-251.8180739539203
 21
132.91836504953471
 31
0.0
  0
LINE
  5
1AC87
  8
KI
  6
DASHED2
 62
     7
 10
-254.26715077950769
 20
135.84514195024971
 30
0.0
 11
-251.8180739539203
 21
134.02851335789481
 31
0.0
  0
LINE
  5
1AC88
  8
KI
  6
DASHED2
 62
     7
 10
-254.26715077950769
 20
136.9553252536702
 30
0.0
 11
-251.8180739539203
 21
135.13869666131541
 31
0.0
  0
LINE
  5
1AC89
  8
KI
  6
DASHED2
 62
     7
 10
-254.26715077950769
 20
138.06547356202981
 30
0.0
 11
-251.8180739539203
 21
136.2488449696757
 31
0.0
  0
LINE
  5
1AC8A
  8
KI
  6
DASHED2
 62
     7
 10
-254.26715077950769
 20
139.17562187039039
 30
0.0
 11
-251.8180739539203
 21
137.35899327803551
 31
0.0
  0
LINE
  5
1AC8B
  8
KI
  6
DASHED2
 62
     7
 10
-254.26715077950769
 20
140.28580517381079
 30
0.0
 11
-251.8180739539203
 21
138.46917658145591
 31
0.0
  0
LINE
  5
1AC8C
  8
KI
  6
DASHED2
 62
     7
 10
-254.26715077950769
 20
141.3959534821706
 30
0.0
 11
-251.8180739539203
 21
139.57932488981621
 31
0.0
  0
LINE
  5
1AC8D
  8
KI
  6
DASHED2
 62
     7
 10
-254.26715077950769
 20
142.50613678559151
 30
0.0
 11
-251.8180739539203
 21
140.68950819323661
 31
0.0
  0
LINE
  5
1AC8E
  8
KI
  6
DASHED2
 62
     7
 10
-254.26715077950769
 20
143.6162850939518
 30
0.0
 11
-251.8180739539203
 21
141.79965650159639
 31
0.0
  0
LINE
  5
1AC8F
  8
KI
  6
DASHED2
 62
     7
 10
-254.26715077950769
 20
144.7264334023115
 30
0.0
 11
-251.8180739539203
 21
142.9098048099568
 31
0.0
  0
LINE
  5
1AC90
  8
KI
  6
DASHED2
 62
     7
 10
-254.26715077950769
 20
145.83661670573201
 30
0.0
 11
-251.8180739539203
 21
144.01998811337711
 31
0.0
  0
LINE
  5
1AC91
  8
KI
  6
DASHED2
 62
     7
 10
-254.26715077950769
 20
146.94676501409231
 30
0.0
 11
-251.8180739539203
 21
145.13013642173681
 31
0.0
  0
LINE
  5
1AC92
  8
KI
  6
DASHED2
 62
     7
 10
-254.15667137309919
 20
107.6605750547759
 30
0.0
 11
-254.15667137309919
 21
145.77520037432669
 31
0.0
  0
LINE
  5
1AC93
  8
KI
  6
DASHED2
 62
     7
 10
-254.15667137309919
 20
145.77520037432669
 30
0.0
 11
-253.1111414441923
 21
154.3635131787955
 31
0.0
  0
LINE
  5
1AC94
  8
KI
  6
DASHED2
 62
     7
 10
-252.0566877748243
 20
145.77520037432669
 30
0.0
 11
-253.10221770373141
 21
154.3635131787955
 31
0.0
  0
LINE
  5
1AC95
  8
KI
  6
DASHED2
 62
     7
 10
-252.0566877748243
 20
107.6605750547759
 30
0.0
 11
-252.0566877748243
 21
145.77520037432669
 31
0.0
  0
LINE
  5
1AC96
  8
KI
  6
DASHED2
 62
     7
 10
-254.26715077950769
 20
128.07403380160841
 30
0.0
 11
-251.8180739539203
 21
126.25740520925351
 31
0.0
  0
LINE
  5
1AC97
  8
KI
  6
DASHED2
 62
     7
 10
-254.26715077950769
 20
129.1841821099687
 30
0.0
 11
-251.8180739539203
 21
127.3675535176139
 31
0.0
  0
LINE
  5
1AC98
  8
KI
  6
DASHED2
 62
     7
 10
-254.26715077950769
 20
130.2943304183286
 30
0.0
 11
-251.8180739539203
 21
128.47770182597381
 31
0.0
  0
LINE
  5
1AC99
  8
KI
  6
DASHED2
 62
     7
 10
-254.26715077950769
 20
124.7435188864074
 30
0.0
 11
-251.8180739539203
 21
122.9269252891131
 31
0.0
  0
LINE
  5
1AC9A
  8
KI
  6
DASHED2
 62
     7
 10
-254.26715077950769
 20
125.8537021898282
 30
0.0
 11
-251.8180739539203
 21
124.0370735974729
 31
0.0
  0
LINE
  5
1AC9B
  8
KI
  6
DASHED2
 62
     7
 10
-254.26715077950769
 20
126.9638504981879
 30
0.0
 11
-251.8180739539203
 21
125.14722190583321
 31
0.0
  0
LINE
  5
1AC9C
  8
KI
  6
CENTER2
 62
     7
 10
-253.1066795739618
 20
101.3056120246419
 30
0.0
 11
-253.1066795739618
 21
159.775814260744
 31
0.0
  0
LINE
  5
1AC9D
  8
SU
  6
CONTINUOUS
 62
     3
 10
-180.10667910659751
 20
123.66061004983651
 30
0.0
 11
-180.10667910659751
 21
83.160642570500514
 31
0.0
  0
LINE
  5
1AC9E
  8
SU
  6
CONTINUOUS
 62
     3
 10
-230.10668081511031
 20
123.66061004983671
 30
0.0
 11
-230.10668081511031
 21
83.160642570500514
 31
0.0
  0
LINE
  5
1AC9F
  8
SU
  6
CONTINUOUS
 62
     3
 10
-180.10667910659751
 20
86.160642570500514
 30
0.0
 11
-230.10668081511031
 21
86.160642570500514
 31
0.0
  0
LINE
  5
1ACA0
  8
SU
  6
CONTINUOUS
 62
     3
 10
-175.606679102648
 20
71.160642570500428
 30
0.0
 11
-172.606679102648
 21
71.160642570500428
 31
0.0
  0
LINE
  5
1ACA1
  8
SU
  6
CONTINUOUS
 62
     3
 10
-172.606679102648
 20
71.160642570500428
 30
0.0
 11
-165.39334576931461
 21
71.160642570500428
 31
0.0
  0
LINE
  5
1ACA2
  8
SU
  6
CONTINUOUS
 62
     3
 10
-337.6066791026492
 20
127.66064257049879
 30
0.0
 11
-362.606679102648
 21
127.66064257049879
 31
0.0
  0
LINE
  5
1ACA3
  8
SU
  6
CONTINUOUS
 62
     3
 10
-266.10667834096353
 20
107.66061004983661
 30
0.0
 11
-362.606679102648
 21
107.66061004983661
 31
0.0
  0
LINE
  5
1ACA4
  8
SU
  6
CONTINUOUS
 62
     3
 10
-359.606679102648
 20
127.66064257049879
 30
0.0
 11
-359.606679102648
 21
107.66061004983661
 31
0.0
  0
LINE
  5
1ACA5
  8
SU
  6
CONTINUOUS
 62
     3
 10
-265.10667834071222
 20
106.66061004983661
 30
0.0
 11
-265.10667834071222
 21
83.160642570500698
 31
0.0
  0
LINE
  5
1ACA6
  8
SU
  6
CONTINUOUS
 62
     3
 10
-336.60667910264903
 20
126.66064257049879
 30
0.0
 11
-336.60667910264903
 21
83.160642570500698
 31
0.0
  0
LINE
  5
1ACA7
  8
SU
  6
CONTINUOUS
 62
     3
 10
-265.10667834071222
 20
86.160642570500684
 30
0.0
 11
-336.60667910264903
 21
86.160642570500684
 31
0.0
  0
LINE
  5
1ACA8
  8
SU
  6
CONTINUOUS
 62
     3
 10
-336.60667910264903
 20
71.160642570500187
 30
0.0
 11
-339.60667910264692
 21
71.160642570500187
 31
0.0
  0
LINE
  5
1ACA9
  8
SU
  6
CONTINUOUS
 62
     3
 10
-339.60667910264692
 20
71.160642570500187
 30
0.0
 11
-346.82001243598052
 21
71.160642570500187
 31
0.0
  0
LINE
  5
1ACAA
  8
SU
  6
CONTINUOUS
 62
     3
 10
-241.1066808153619
 20
106.66061004983661
 30
0.0
 11
-241.1066808153619
 21
83.160642570500784
 31
0.0
  0
LINE
  5
1ACAB
  8
SU
  6
CONTINUOUS
 62
     3
 10
-265.10667834096353
 20
106.66061004983671
 30
0.0
 11
-265.10667834096353
 21
83.160642570500784
 31
0.0
  0
LINE
  5
1ACAC
  8
SU
  6
CONTINUOUS
 62
     3
 10
-241.1066808153619
 20
86.160642570500798
 30
0.0
 11
-265.10667834096353
 21
86.160642570500798
 31
0.0
  0
LINE
  5
1ACAD
  8
KI
  6
CONTINUOUS
 62
     7
 10
-259.10667834071239
 20
132.16061004983661
 30
0.0
 11
-247.10668081511
 21
132.16061004983661
 31
0.0
  0
LINE
  5
1ACAE
  8
KI
  6
CONTINUOUS
 62
     7
 10
-247.10668081511
 20
132.16061004983661
 30
0.0
 11
-247.10668081511
 21
127.66061004983651
 31
0.0
  0
LINE
  5
1ACAF
  8
KI
  6
CONTINUOUS
 62
     7
 10
-247.10668081511031
 20
127.66061004983651
 30
0.0
 11
-241.10668081511039
 21
127.66061004983651
 31
0.0
  0
LINE
  5
1ACB0
  8
KI
  6
CONTINUOUS
 62
     7
 10
-259.10667834071239
 20
132.16061004983661
 30
0.0
 11
-259.10667834071239
 21
127.66061004983651
 31
0.0
  0
LINE
  5
1ACB1
  8
KI
  6
CONTINUOUS
 62
     7
 10
-265.10667834071222
 20
127.66061004983651
 30
0.0
 11
-259.10667834071239
 21
127.66061004983651
 31
0.0
  0
LINE
  5
1ACB2
  8
KI
  6
CONTINUOUS
 62
     7
 10
-265.10667834071222
 20
127.66061004983651
 30
0.0
 11
-265.10667834071222
 21
107.66061004983661
 31
0.0
  0
LINE
  5
1ACB3
  8
KI
  6
CONTINUOUS
 62
     7
 10
-265.10667834071222
 20
107.66061004983661
 30
0.0
 11
-241.10668081511039
 21
107.66061004983661
 31
0.0
  0
LINE
  5
1ACB4
  8
KI
  6
CONTINUOUS
 62
     7
 10
-241.10668081511039
 20
127.66061004983651
 30
0.0
 11
-241.10668081511039
 21
107.66061004983661
 31
0.0
  0
LINE
  5
1ACB5
  8
KI
  6
CONTINUOUS
 62
     7
 10
-240.60667481510981
 20
107.6605750547759
 30
0.0
 11
-238.38058208388119
 21
107.66057505477551
 31
0.0
  0
ARC
  5
1ACB6
  8
KI
  6
CONTINUOUS
 62
     7
 10
-231.09865176545441
 20
119.22145094492591
 30
0.0
 40
9.2190722294335075
 50
125.6258681755171
 51
177.1953126595514
  0
LINE
  5
1ACB7
  8
KI
  6
CONTINUOUS
 62
     7
 10
-241.10668081511091
 20
109.827579780178
 30
0.0
 11
-240.93967608970709
 21
109.6605750547742
 31
0.0
  0
LINE
  5
1ACB8
  8
KI
  6
CONTINUOUS
 62
     7
 10
-240.90668081511029
 20
110.5256053922833
 30
0.0
 11
-240.30667481511
 21
109.9255993922843
 31
0.0
  0
LINE
  5
1ACB9
  8
KI
  6
CONTINUOUS
 62
     7
 10
-241.10668081511039
 20
110.72560539228471
 30
0.0
 11
-240.90668081511029
 21
110.52560539228379
 31
0.0
  0
LINE
  5
1ACBA
  8
KI
  6
CONTINUOUS
 62
     7
 10
-240.90668081511029
 20
111.423631004391
 30
0.0
 11
-240.30667481511
 21
110.823625004391
 31
0.0
  0
LINE
  5
1ACBB
  8
KI
  6
CONTINUOUS
 62
     7
 10
-241.10668081511091
 20
111.6236310043914
 30
0.0
 11
-240.90668081511029
 21
111.423631004391
 31
0.0
  0
LINE
  5
1ACBC
  8
KI
  6
CONTINUOUS
 62
     7
 10
-240.90668081511029
 20
112.3216566164979
 30
0.0
 11
-240.30667481511
 21
111.7216506164977
 31
0.0
  0
LINE
  5
1ACBD
  8
KI
  6
CONTINUOUS
 62
     7
 10
-241.10668081511091
 20
112.52165661649811
 30
0.0
 11
-240.90668081511029
 21
112.3216566164979
 31
0.0
  0
LINE
  5
1ACBE
  8
KI
  6
CONTINUOUS
 62
     7
 10
-240.90668081511029
 20
113.219682228605
 30
0.0
 11
-240.3066748151104
 21
112.6196762286045
 31
0.0
  0
LINE
  5
1ACBF
  8
KI
  6
CONTINUOUS
 62
     7
 10
-241.10668081511091
 20
113.4196822286053
 30
0.0
 11
-240.90668081511029
 21
113.219682228605
 31
0.0
  0
LINE
  5
1ACC0
  8
KI
  6
CONTINUOUS
 62
     7
 10
-240.90668081510941
 20
114.1177078407118
 30
0.0
 11
-240.3066748151096
 21
113.51770184071211
 31
0.0
  0
LINE
  5
1ACC1
  8
KI
  6
CONTINUOUS
 62
     7
 10
-241.10668081511011
 20
114.3177078407125
 30
0.0
 11
-240.90668081510981
 21
114.1177078407118
 31
0.0
  0
LINE
  5
1ACC2
  8
KI
  6
CONTINUOUS
 62
     7
 10
-240.90668081510941
 20
115.01573345281849
 30
0.0
 11
-240.55152241706639
 21
114.66057505477499
 31
0.0
  0
LINE
  5
1ACC3
  8
KI
  6
CONTINUOUS
 62
     7
 10
-240.55152241706639
 20
114.66057505477499
 30
0.0
 11
-240.32731028139119
 21
114.43636291910011
 31
0.0
  0
LINE
  5
1ACC4
  8
KI
  6
CONTINUOUS
 62
     7
 10
-241.10668081510971
 20
115.2157334528187
 30
0.0
 11
-240.90668081510981
 21
115.01573345281849
 31
0.0
  0
LINE
  5
1ACC5
  8
KI
  6
CONTINUOUS
 62
     7
 10
-240.90668081510981
 20
115.9137590649256
 30
0.0
 11
-240.30668081511041
 21
115.3137590649267
 31
0.0
  0
LINE
  5
1ACC6
  8
KI
  6
CONTINUOUS
 62
     7
 10
-241.10668081510971
 20
116.1137590649255
 30
0.0
 11
-240.90668081510981
 21
115.9137590649256
 31
0.0
  0
LINE
  5
1ACC7
  8
KI
  6
CONTINUOUS
 62
     7
 10
-240.90668081510981
 20
116.8117846770327
 30
0.0
 11
-240.30668081510959
 21
116.2117846770325
 31
0.0
  0
LINE
  5
1ACC8
  8
KI
  6
CONTINUOUS
 62
     7
 10
-241.10668081511011
 20
117.01178467703249
 30
0.0
 11
-240.90668081510981
 21
116.8117846770327
 31
0.0
  0
LINE
  5
1ACC9
  8
KI
  6
CONTINUOUS
 62
     7
 10
-240.85744558074589
 20
117.66057505477499
 30
0.0
 11
-240.30668081510959
 21
117.10981028913911
 31
0.0
  0
LINE
  5
1ACCA
  8
KI
  6
CONTINUOUS
 62
     7
 10
-241.10668081511011
 20
117.66057505477499
 30
0.0
 11
-240.30668081510959
 21
117.66057505477499
 31
0.0
  0
LINE
  5
1ACCB
  8
KI
  6
CONTINUOUS
 62
     7
 10
-241.10668081511039
 20
109.660575054776
 30
0.0
 11
-240.3066748151096
 21
109.66057505477499
 31
0.0
  0
LINE
  5
1ACCC
  8
KI
  6
CONTINUOUS
 62
     7
 10
-240.3066808151093
 20
118.67255380704501
 30
0.0
 11
-240.30668081510959
 21
114.91058505477579
 31
0.0
  0
LINE
  5
1ACCD
  8
KI
  6
CONTINUOUS
 62
     7
 10
-240.50668081510989
 20
114.6605850547752
 30
0.0
 11
-240.30668081510959
 21
114.41057505477551
 31
0.0
  0
LINE
  5
1ACCE
  8
KI
  6
CONTINUOUS
 62
     7
 10
-240.5066748151105
 20
114.6605850547752
 30
0.0
 11
-240.30668081510959
 21
114.91058505477579
 31
0.0
  0
LINE
  5
1ACCF
  8
KI
  6
CONTINUOUS
 62
     7
 10
-240.3066748151096
 20
114.4105850547753
 30
0.0
 11
-240.3066748151096
 21
108.6605750547759
 31
0.0
  0
ARC
  5
1ACD0
  8
KI
  6
CONTINUOUS
 62
     7
 10
-240.60668081511
 20
119.37255380704519
 30
0.0
 40
0.3
 50
89.999999999913726
 51
179.99999999965141
  0
LINE
  5
1ACD1
  8
KI
  6
CONTINUOUS
 62
     7
 10
-240.30668081510959
 20
119.67255380704501
 30
0.0
 11
-240.60668081511
 21
119.6725538070454
 31
0.0
  0
ARC
  5
1ACD2
  8
KI
  6
CONTINUOUS
 62
     7
 10
-240.6066808151129
 20
118.972553807046
 30
0.0
 40
0.3
 50
179.99999999965141
 51
269.99999999991348
  0
LINE
  5
1ACD3
  8
KI
  6
CONTINUOUS
 62
     7
 10
-240.90668081511029
 20
119.37255380704519
 30
0.0
 11
-240.9066808151124
 21
118.972553807046
 31
0.0
  0
ARC
  5
1ACD4
  8
KI
  6
CONTINUOUS
 62
     7
 10
-240.6066808151129
 20
108.3605750547755
 30
0.0
 40
0.3
 50
89.999999999913726
 51
179.99999999965141
  0
ARC
  5
1ACD5
  8
KI
  6
CONTINUOUS
 62
     7
 10
-240.6066808151146
 20
107.9605750547762
 30
0.0
 40
0.3
 50
179.99999999965141
 51
269.99999999991348
  0
LINE
  5
1ACD6
  8
KI
  6
CONTINUOUS
 62
     7
 10
-240.90668081511191
 20
108.3605750547755
 30
0.0
 11
-240.90668081511481
 21
107.9605750547762
 31
0.0
  0
LINE
  5
1ACD7
  8
KI
  6
CONTINUOUS
 62
     7
 10
-240.3066748151096
 20
108.6605750547759
 30
0.0
 11
-240.6066808151129
 21
108.6605750547759
 31
0.0
  0
LINE
  5
1ACD8
  8
KI
  6
CONTINUOUS
 62
     7
 10
-240.6066808151129
 20
118.6725538070454
 30
0.0
 11
-240.3066808151093
 21
118.67255380704501
 31
0.0
  0
LINE
  5
1ACD9
  8
KI
  6
CONTINUOUS
 62
     7
 10
-241.10668081511011
 20
117.66057505477499
 30
0.0
 11
-241.10668081511039
 21
109.660575054776
 31
0.0
  0
ARC
  5
1ACDA
  8
KI
  6
CONTINUOUS
 62
     7
 10
-233.11328196571071
 20
109.10141699786151
 30
0.0
 40
0.5
 50
149.29692340093499
 51
243.98093263770789
  0
ARC
  5
1ACDB
  8
KI
  6
CONTINUOUS
 62
     7
 10
-236.52451768946111
 20
102.1132506532244
 30
0.0
 40
7.2763100519022599
 50
28.113232766358639
 51
63.980932637708079
  0
ARC
  5
1ACDC
  8
KI
  6
CONTINUOUS
 62
     7
 10
-254.6274642802384
 20
121.8771662247253
 30
0.0
 40
24.521586859558742
 50
329.29692340093601
 51
3.711186353431466
  0
ARC
  5
1ACDD
  8
KI
  6
CONTINUOUS
 62
     7
 10
-236.52451768946111
 20
102.1132506532244
 30
0.0
 40
5.776310051902259
 50
28.113232766358639
 51
73.813171799604191
  0
LINE
  5
1ACDE
  8
KI
  6
CONTINUOUS
 62
     7
 10
-238.38058208388119
 20
107.6605750547745
 30
0.0
 11
-234.91425379815311
 21
107.6605750547765
 31
0.0
  0
ARC
  5
1ACDF
  8
KI
  6
CONTINUOUS
 62
     7
 10
-254.6274642802384
 20
121.8771662247253
 30
0.0
 40
23.321944298558741
 50
328.41089939395619
 51
3.711186353431466
  0
LINE
  5
1ACE0
  8
KI
  6
CONTINUOUS
 62
     7
 10
-237.8067113837935
 20
109.66057505477499
 30
0.0
 11
-234.7612118391919
 21
109.66057505477499
 31
0.0
  0
LINE
  5
1ACE1
  8
KI
  6
CONTINUOUS
 62
     7
 10
-237.49102238225461
 20
123.2172934610962
 30
0.0
 11
-237.49102262335651
 21
123.2172932646689
 31
0.0
  0
LINE
  5
1ACE2
  8
KI
  6
CONTINUOUS
 62
     7
 10
-238.3067113837935
 20
120.1723981208347
 30
0.0
 11
-238.3067113837935
 21
110.16057505477499
 31
0.0
  0
ARC
  5
1ACE3
  8
KI
  6
CONTINUOUS
 62
     7
 10
-237.8067113837935
 20
110.16057505477499
 30
0.0
 40
0.5
 50
180.0
 51
270.00000000000159
  0
ARC
  5
1ACE4
  8
KI
  6
CONTINUOUS
 62
     7
 10
-235.1892189447268
 20
127.16425214936
 30
0.0
 40
0.3
 50
12.850904373123271
 51
196.2830629427705
  0
ARC
  5
1ACE5
  8
KI
  6
CONTINUOUS
 62
     7
 10
-236.3046702958849
 20
125.803421410867
 30
0.0
 40
0.5
 50
294.55739357396061
 51
310.67258802736131
  0
ARC
  5
1ACE6
  8
KI
  6
CONTINUOUS
 62
     7
 10
-232.52267593891361
 20
117.5265581493434
 30
0.0
 40
10.0
 50
107.18458009630901
 51
109.803175794162
  0
ARC
  5
1ACE7
  8
KI
  6
CONTINUOUS
 62
     7
 10
-236.1912789345422
 20
126.8293186031264
 30
0.0
 40
0.3
 50
20.662644719016761
 51
202.3867008755924
  0
ARC
  5
1ACE8
  8
KI
  6
CONTINUOUS
 62
     7
 10
-234.1539427643163
 20
123.300548844204
 30
0.0
 40
4.0
 50
2.3473418358611311
 51
25.701808746255011
  0
ARC
  5
1ACE9
  8
KI
  6
CONTINUOUS
 62
     7
 10
-232.5226689011358
 20
117.5265581493337
 30
0.0
 40
8.7999999999999972
 50
105.7760377473512
 51
105.8019134698674
  0
ARC
  5
1ACEA
  8
KI
  6
CONTINUOUS
 62
     7
 10
-230.68984114917839
 20
125.30054884420311
 30
0.0
 40
0.3
 50
297.8509043731388
 51
122.14909562682701
  0
ARC
  5
1ACEB
  8
KI
  6
CONTINUOUS
 62
     7
 10
-234.1539427643163
 20
123.300548844204
 30
0.0
 40
4.0
 50
34.29819125370711
 51
40.701808746296827
  0
ARC
  5
1ACEC
  8
KI
  6
CONTINUOUS
 62
     7
 10
-231.32551563957111
 20
126.1289759689512
 30
0.0
 40
0.3
 50
312.8509043731467
 51
137.1490956268762
  0
ARC
  5
1ACED
  8
KI
  6
CONTINUOUS
 62
     7
 10
-234.15394276431439
 20
127.300548844204
 30
0.0
 40
0.3
 50
357.85090437314102
 51
182.14909562678051
  0
ARC
  5
1ACEE
  8
KI
  6
CONTINUOUS
 62
     7
 10
-233.11866658390349
 20
127.1642521493594
 30
0.0
 40
0.3
 50
342.85090437306962
 51
167.14909562682331
  0
ARC
  5
1ACEF
  8
KI
  6
CONTINUOUS
 62
     7
 10
-234.1539427643163
 20
123.300548844204
 30
0.0
 40
4.0
 50
64.298191253737713
 51
70.701808746227059
  0
ARC
  5
1ACF0
  8
KI
  6
CONTINUOUS
 62
     7
 10
-232.15394276431721
 20
126.76465045934211
 30
0.0
 40
0.3
 50
327.85090437311919
 51
152.14909562688661
  0
ARC
  5
1ACF1
  8
KI
  6
CONTINUOUS
 62
     7
 10
-234.1539427643163
 20
123.300548844204
 30
0.0
 40
4.0
 50
49.298191253756329
 51
55.70180874627755
  0
ARC
  5
1ACF2
  8
KI
  6
CONTINUOUS
 62
     7
 10
-234.1539427643163
 20
123.300548844204
 30
0.0
 40
4.0
 50
94.298191253699784
 51
100.7018087462819
  0
ARC
  5
1ACF3
  8
KI
  6
CONTINUOUS
 62
     7
 10
-234.1539427643163
 20
123.3005488442268
 30
0.0
 40
4.0
 50
79.298191253680031
 51
85.701808746241468
  0
ARC
  5
1ACF4
  8
KI
  6
CONTINUOUS
 62
     7
 10
-234.1539427643163
 20
123.300548844204
 30
0.0
 40
2.799999999999998
 50
2.3473418358611311
 51
130.67258802735509
  0
ARC
  5
1ACF5
  8
KI
  6
CONTINUOUS
 62
     7
 10
-231.05778830212839
 20
120.13752815861559
 30
0.0
 40
7.2490069497939373
 50
134.03842973471851
 51
179.72438854235031
  0
ARC
  5
1ACF6
  8
KI
  6
CONTINUOUS
 62
     7
 10
-230.81774358469829
 20
105.281295655569
 30
0.0
 40
0.7573354118943643
 50
216.09422551477309
 51
20.132240017949432
  0
ARC
  5
1ACF7
  8
KI
  6
CONTINUOUS
 62
     7
 10
-247.6061734416964
 20
106.61016331491091
 30
0.0
 40
2.5000001067820641
 50
281.5250854492183
 51
1.155319213868458
  0
LINE
  5
1ACF8
  8
KI
  6
CONTINUOUS
 62
     7
 10
-245.1066862312714
 20
106.66059119727871
 30
0.0
 11
-245.1066862312714
 21
107.6605750547759
 31
0.0
  0
LINE
  5
1ACF9
  8
KI
  6
DASHED2
 62
     7
 10
-247.60668087007519
 20
105.66057234472051
 30
0.0
 11
-246.35667480190861
 21
106.66059119727871
 31
0.0
  0
LINE
  5
1ACFA
  8
KI
  6
DASHED2
 62
     7
 10
-247.60668087402431
 20
107.66061004983661
 30
0.0
 11
-246.3566748058573
 21
106.66059119727871
 31
0.0
  0
LINE
  5
1ACFB
  8
KI
  6
DASHED2
 62
     7
 10
-258.60667827784908
 20
105.66057234472051
 30
0.0
 11
-247.60668087007519
 21
105.66057234472051
 31
0.0
  0
LINE
  5
1ACFC
  8
KI
  6
DASHED2
 62
     7
 10
-259.85668434601581
 20
106.66059119727871
 30
0.0
 11
-246.35667480190861
 21
106.66059119727871
 31
0.0
  0
LINE
  5
1ACFD
  8
KI
  6
DASHED2
 62
     7
 10
-259.85668434601581
 20
106.66059119727871
 30
0.0
 11
-258.60667827784908
 21
107.6605750547759
 31
0.0
  0
LINE
  5
1ACFE
  8
KI
  6
DASHED2
 62
     7
 10
-259.85668434601581
 20
106.66059119727871
 30
0.0
 11
-258.60667827784908
 21
105.66057234472051
 31
0.0
  0
LINE
  5
1ACFF
  8
KI
  6
CONTINUOUS
 62
     7
 10
-247.10667144379681
 20
104.1605790609446
 30
0.0
 11
-259.10668770412769
 21
104.1605790609446
 31
0.0
  0
ARC
  5
1AD00
  8
KI
  6
CONTINUOUS
 62
     7
 10
-258.60718570622811
 20
106.61016331491091
 30
0.0
 40
2.5000001067820641
 50
178.84469604492341
 51
258.47492980957082
  0
LINE
  5
1AD01
  8
KI
  6
CONTINUOUS
 62
     7
 10
-261.10667291665243
 20
106.66059119727871
 30
0.0
 11
-261.10667291665243
 21
107.6605750547759
 31
0.0
  0
LINE
  5
1AD02
  8
SU
  6
CONTINUOUS
 62
     3
 10
-175.606679102648
 20
126.66064257049899
 30
0.0
 11
-175.606679102648
 21
68.160642570500187
 31
0.0
  0
LINE
  5
1AD03
  8
SU
  6
CONTINUOUS
 62
     3
 10
-336.60667910264903
 20
126.66064257049879
 30
0.0
 11
-336.60667910264903
 21
68.160642570500187
 31
0.0
  0
LINE
  5
1AD04
  8
SU
  6
CONTINUOUS
 62
     3
 10
-175.606679102648
 20
71.160642570500187
 30
0.0
 11
-336.60667910264903
 21
71.160642570500187
 31
0.0
  0
LINE
  5
1AD05
  8
SU
  6
CONTINUOUS
 62
     3
 10
-172.60667911177541
 20
-79.835514099927394
 30
0.0
 11
-172.60667911177541
 21
-101.8355140999209
 31
0.0
  0
LINE
  5
1AD06
  8
SU
  6
CONTINUOUS
 62
     3
 10
-172.60667911177541
 20
-98.835514099920942
 30
0.0
 11
-161.67810768320379
 21
-98.835514099920942
 31
0.0
  0
LINE
  5
1AD07
  8
SU
  6
CONTINUOUS
 62
     3
 10
-175.6066792252785
 20
-98.835514099920942
 30
0.0
 11
-172.60667911177541
 21
-98.835514099920942
 31
0.0
  0
LINE
  5
1AD08
  8
SU
  6
CONTINUOUS
 62
     3
 10
-274.50556889810753
 20
-51.833863620994123
 30
0.0
 11
-275.80561061283839
 21
-49.793206891729831
 31
0.0
  0
LINE
  5
1AD09
  8
SU
  6
CONTINUOUS
 62
     3
 10
-274.50556889810753
 20
-51.833863620994123
 30
0.0
 11
-276.28996315903271
 21
-50.198767532970621
 31
0.0
  0
LINE
  5
1AD0A
  8
SU
  6
CONTINUOUS
 62
     3
 10
-283.606679102648
 20
-63.835511272029592
 30
0.0
 11
-362.606679102648
 21
-63.835511272029592
 31
0.0
  0
LINE
  5
1AD0B
  8
SU
  6
CONTINUOUS
 62
     3
 10
-270.10668081511011
 20
-43.835511272029592
 30
0.0
 11
-362.606679102648
 21
-43.835511272029578
 31
0.0
  0
LINE
  5
1AD0C
  8
SU
  6
CONTINUOUS
 62
     3
 10
-359.606679102648
 20
-63.835511272029592
 30
0.0
 11
-359.606679102648
 21
-43.835511272029578
 31
0.0
  0
LINE
  5
1AD0D
  8
SU
  6
CONTINUOUS
 62
     3
 10
-359.60667910264982
 20
-78.835514099913297
 30
0.0
 11
-356.606679102648
 21
-78.835514099913297
 31
0.0
  0
LINE
  5
1AD0E
  8
SU
  6
CONTINUOUS
 62
     3
 10
-283.606679102648
 20
-63.835511272029592
 30
0.0
 11
-362.606679102648
 21
-63.835511272029592
 31
0.0
  0
LINE
  5
1AD0F
  8
SU
  6
CONTINUOUS
 62
     3
 10
-359.606679102648
 20
-63.835511272029592
 30
0.0
 11
-359.606679102648
 21
-78.835514099913297
 31
0.0
  0
LINE
  5
1AD10
  8
SU
  6
CONTINUOUS
 62
     3
 10
-359.606679102648
 20
-78.835514099913297
 30
0.0
 11
-359.606679102648
 21
-88.736466480865687
 31
0.0
  0
TEXT
  5
1AD11
  8
SU
  6
CONTINUOUS
 62
     3
 10
-323.50732771032222
 20
-37.213620528430681
 30
0.0
 40
4.0
  1
下枠沓摺（四方枠用）
 41
0.8299999999999999
  0
LINE
  5
1AD12
  8
SU
  6
CONTINUOUS
 62
     3
 10
-282.60667921615101
 20
-79.835514099921937
 30
0.0
 11
-282.60667921615101
 21
-101.8355140999212
 31
0.0
  0
LINE
  5
1AD13
  8
SU
  6
CONTINUOUS
 62
     3
 10
-339.60667910264999
 20
-79.835514099906021
 30
0.0
 11
-339.60667910264999
 21
-101.8355140999212
 31
0.0
  0
LINE
  5
1AD14
  8
SU
  6
CONTINUOUS
 62
     3
 10
-285.00667921615093
 20
-98.835514099921284
 30
0.0
 11
-339.60667910264999
 21
-98.835514099921284
 31
0.0
  0
LINE
  5
1AD15
  8
SU
  6
CONTINUOUS
 62
     3
 10
-361.60667910264982
 20
-78.835514099913297
 30
0.0
 11
-377.606679102648
 21
-78.835514099913297
 31
0.0
  0
LINE
  5
1AD16
  8
SU
  6
CONTINUOUS
 62
     3
 10
-270.10668081511011
 20
-43.835511272029592
 30
0.0
 11
-377.606679102648
 21
-43.835511272029571
 31
0.0
  0
LINE
  5
1AD17
  8
SU
  6
CONTINUOUS
 62
     3
 10
-374.606679102648
 20
-78.835514099913297
 30
0.0
 11
-374.606679102648
 21
-43.835511272029571
 31
0.0
  0
LINE
  5
1AD18
  8
SU
  6
CONTINUOUS
 62
     3
 10
-282.60667921615101
 20
-79.835514099921937
 30
0.0
 11
-282.60667921615101
 21
-101.8355140999211
 31
0.0
  0
LINE
  5
1AD19
  8
SU
  6
CONTINUOUS
 62
     3
 10
-175.6066792252785
 20
-79.835514099921468
 30
0.0
 11
-175.6066792252785
 21
-101.8355140999211
 31
0.0
  0
LINE
  5
1AD1A
  8
SU
  6
CONTINUOUS
 62
     3
 10
-282.60667921615101
 20
-98.835514099921156
 30
0.0
 11
-175.6066792252785
 21
-98.835514099921156
 31
0.0
  0
LINE
  5
1AD1B
  8
SU
  6
CONTINUOUS
 62
     3
 10
-179.106679102648
 20
124.66064257049899
 30
0.0
 11
-134.60667910264661
 21
124.66064257049899
 31
0.0
  0
LINE
  5
1AD1C
  8
SU
  6
CONTINUOUS
 62
     3
 10
-137.60667910264669
 20
124.66064257049899
 30
0.0
 11
-137.60667910264669
 21
127.66064257049899
 31
0.0
  0
LINE
  5
1AD1D
  8
SU
  6
CONTINUOUS
 62
     3
 10
-137.60667910264669
 20
126.16064257049899
 30
0.0
 11
-152.6066791026478
 21
134.7298146557502
 31
0.0
  0
LINE
  5
1AD1E
  8
SU
  6
CONTINUOUS
 62
     3
 10
-152.6066791026478
 20
134.7298146557502
 30
0.0
 11
-152.6066791026478
 21
139.54314798908359
 31
0.0
  0
LINE
  5
1AD1F
  8
SU
  6
CONTINUOUS
 62
     3
 10
-174.6066791026478
 20
127.66064257049899
 30
0.0
 11
-134.60667910264661
 21
127.66064257049899
 31
0.0
  0
LINE
  5
1AD20
  8
SU
  6
CONTINUOUS
 62
     3
 10
-137.60667910264669
 20
127.66064257049899
 30
0.0
 11
-137.60667910264669
 21
151.66064257049899
 31
0.0
  0
LINE
  5
1AD21
  8
SU
  6
CONTINUOUS
 62
     3
 10
-128.606679102648
 20
141.66064257049899
 30
0.0
 11
-122.6066791026479
 21
151.66064257049899
 31
0.0
  0
LINE
  5
1AD22
  8
SU
  6
CONTINUOUS
 62
     3
 10
-116.6066791026479
 20
141.66064257049899
 30
0.0
 11
-122.6066791026479
 21
151.66064257049899
 31
0.0
  0
LINE
  5
1AD23
  8
SU
  6
CONTINUOUS
 62
     3
 10
-128.606679102648
 20
141.66064257049899
 30
0.0
 11
-116.6066791026479
 21
141.66064257049899
 31
0.0
  0
LINE
  5
1AD24
  8
SU
  6
CONTINUOUS
 62
     3
 10
-174.6066791026478
 20
-63.835511272029592
 30
0.0
 11
-134.60667910264661
 21
-63.835511272029592
 31
0.0
  0
LINE
  5
1AD25
  8
SU
  6
CONTINUOUS
 62
     3
 10
-137.60667910264669
 20
-63.835511272029592
 30
0.0
 11
-137.60667910264669
 21
-78.835514099913297
 31
0.0
  0
LINE
  5
1AD26
  8
SU
  6
CONTINUOUS
 62
     3
 10
-137.60667910264669
 20
-58.83551127202962
 30
0.0
 11
-137.60667910264669
 21
-63.835511272029592
 31
0.0
  0
LINE
  5
1AD27
  8
SU
  6
CONTINUOUS
 62
     3
 10
-128.606679102648
 20
-68.835514099913297
 30
0.0
 11
-122.6066791026479
 21
-78.835514099913297
 31
0.0
  0
LINE
  5
1AD28
  8
SU
  6
CONTINUOUS
 62
     3
 10
-116.6066791026479
 20
-68.835514099913297
 30
0.0
 11
-122.6066791026479
 21
-78.835514099913297
 31
0.0
  0
LINE
  5
1AD29
  8
SU
  6
CONTINUOUS
 62
     3
 10
-128.606679102648
 20
-68.835514099913297
 30
0.0
 11
-116.6066791026479
 21
-68.835514099913297
 31
0.0
  0
LINE
  5
1AD2A
  8
SU
  6
CONTINUOUS
 62
     3
 10
-179.10667910659751
 20
-58.835511272029592
 30
0.0
 11
-134.60667910264661
 21
-58.83551127202962
 31
0.0
  0
LINE
  5
1AD2B
  8
SU
  6
CONTINUOUS
 62
     3
 10
-137.60667910264669
 20
124.66064257049899
 30
0.0
 11
-137.60667910264669
 21
-58.83551127202962
 31
0.0
  0
LINE
  5
1AD2C
  8
SU
  6
CONTINUOUS
 62
     3
 10
-171.6066791026478
 20
151.66064257049899
 30
0.0
 11
-119.6066791026479
 21
151.66064257049899
 31
0.0
  0
LINE
  5
1AD2D
  8
SU
  6
CONTINUOUS
 62
     3
 10
-147.606679102648
 20
-78.835514099913297
 30
0.0
 11
-119.6066791026479
 21
-78.835514099913297
 31
0.0
  0
LINE
  5
1AD2E
  8
SU
  6
CONTINUOUS
 62
     3
 10
-122.6066791026479
 20
151.66064257049899
 30
0.0
 11
-122.6066791026479
 21
-78.835514099913297
 31
0.0
  0
LINE
  5
1AD2F
  8
KI
  6
CONTINUOUS
 62
     7
 10
263.6242157861895
 20
-91.492412942064803
 30
0.0
 11
263.6242157861895
 21
-21.49241122960316
 31
0.0
  0
LINE
  5
1AD30
  8
KI
  6
CONTINUOUS
 62
     7
 10
266.1242157861895
 20
73.007587057935197
 30
0.0
 11
287.62421578618989
 21
73.007587057935197
 31
0.0
  0
LINE
  5
1AD31
  8
KI
  6
CONTINUOUS
 62
     7
 10
266.1242157861895
 20
73.007587057935197
 30
0.0
 11
263.6242157861895
 21
70.507587057935197
 31
0.0
1001
GENIUS_GENFIL_13
1070
     0
1040
2.5
1040
2.5
1040
20.0
1040
0.0
1002
{
1002
}
1001
GENIUS_GENOBJ-N-CHA_13
1002
{
1000
OWNER
1000
GEN
1002
}
1001
GENIUS_GENODEF_13
1002
{
1000
HIER
1070
     0
1002
}
1002
{
1000
MANEDIT
1070
     0
1002
}
1002
{
1000
NOSEL
1070
     0
1002
}
1002
{
1000
BEHIND
1070
     0
1002
}
1002
{
1000
OTHER
1070
     0
1002
}
1002
{
1000
REACTOR
1002
}
  0
LINE
  5
1AD32
  8
KI
  6
CONTINUOUS
 62
     7
 10
287.62421578618989
 20
73.007587057936533
 30
0.0
 11
287.62421578618989
 21
-93.992412942064803
 31
0.0
  0
LINE
  5
1AD33
  8
KI
  6
CONTINUOUS
 62
     7
 10
287.62421578618989
 20
-93.992412942064803
 30
0.0
 11
266.1242157861895
 21
-93.992412942064803
 31
0.0
  0
LINE
  5
1AD34
  8
KI
  6
CONTINUOUS
 62
     7
 10
266.1242157861895
 20
-93.992412942064803
 30
0.0
 11
263.6242157861895
 21
-91.492412942064803
 31
0.0
1001
GENIUS_GENFIL_13
1070
     0
1040
2.5
1040
2.5
1040
20.0
1040
0.0
1002
{
1002
}
1001
GENIUS_GENOBJ-N-CHA_13
1002
{
1000
OWNER
1000
GEN
1002
}
1001
GENIUS_GENODEF_13
1002
{
1000
HIER
1070
     0
1002
}
1002
{
1000
MANEDIT
1070
     0
1002
}
1002
{
1000
NOSEL
1070
     0
1002
}
1002
{
1000
BEHIND
1070
     0
1002
}
1002
{
1000
OTHER
1070
     0
1002
}
1002
{
1000
REACTOR
1002
}
  0
LINE
  5
1AD35
  8
OS
  6
CONTINUOUS
 62
     2
 10
285.64992492250798
 20
-93.992412942064803
 30
0.0
 11
287.6242157861895
 21
-92.018122078383044
 31
0.0
  0
LINE
  5
1AD36
  8
OS
  6
CONTINUOUS
 62
     2
 10
275.7504299858964
 20
-93.992412942064917
 30
0.0
 11
287.62421578618989
 21
-82.118627141771427
 31
0.0
  0
LINE
  5
1AD37
  8
OS
  6
CONTINUOUS
 62
     2
 10
265.98757541773722
 20
-93.855772573612285
 30
0.0
 11
287.62421578618989
 21
-72.219132205159653
 31
0.0
  0
LINE
  5
1AD38
  8
OS
  6
CONTINUOUS
 62
     2
 10
263.62421578619001
 20
-86.319637268548163
 30
0.0
 11
287.62421578618989
 21
-62.319637268548043
 31
0.0
  0
LINE
  5
1AD39
  8
OS
  6
CONTINUOUS
 62
     2
 10
263.6242157861895
 20
-76.420142331936404
 30
0.0
 11
287.62421578618989
 21
-52.42014233193639
 31
0.0
  0
LINE
  5
1AD3A
  8
OS
  6
CONTINUOUS
 62
     2
 10
263.6242157861895
 20
-66.520647395324659
 30
0.0
 11
287.62421578618989
 21
-42.520647395324652
 31
0.0
  0
LINE
  5
1AD3B
  8
OS
  6
CONTINUOUS
 62
     2
 10
263.62421578619001
 20
-56.621152458713141
 30
0.0
 11
287.62421578618989
 21
-32.62115245871302
 31
0.0
  0
LINE
  5
1AD3C
  8
OS
  6
CONTINUOUS
 62
     2
 10
263.6242157861895
 20
-46.72165752210136
 30
0.0
 11
287.62421578618989
 21
-22.721657522101388
 31
0.0
  0
LINE
  5
1AD3D
  8
OS
  6
CONTINUOUS
 62
     2
 10
263.6242157861895
 20
-26.922667648878289
 30
0.0
 11
287.62421578618989
 21
-2.9226676488780181
 31
0.0
  0
LINE
  5
1AD3E
  8
OS
  6
CONTINUOUS
 62
     2
 10
268.6242157861895
 20
-12.023172712266391
 30
0.0
 11
287.62421578618989
 21
6.9768272877336122
 31
0.0
  0
LINE
  5
1AD3F
  8
OS
  6
CONTINUOUS
 62
     2
 10
265.25547985784368
 20
-5.492413704000823
 30
0.0
 11
287.6242157861895
 21
16.876322224345241
 31
0.0
  0
LINE
  5
1AD40
  8
OS
  6
CONTINUOUS
 62
     2
 10
263.6242157861895
 20
2.775817160956874
 30
0.0
 11
287.62421578618989
 21
26.77581716095699
 31
0.0
  0
LINE
  5
1AD41
  8
OS
  6
CONTINUOUS
 62
     2
 10
263.6242157861895
 20
12.67531209756862
 30
0.0
 11
287.62421578618989
 21
36.675312097568622
 31
0.0
  0
LINE
  5
1AD42
  8
OS
  6
CONTINUOUS
 62
     2
 10
263.6242157861895
 20
22.574807034180349
 30
0.0
 11
287.6242157861895
 21
46.574807034180253
 31
0.0
  0
LINE
  5
1AD43
  8
OS
  6
CONTINUOUS
 62
     2
 10
263.6242157861895
 20
32.474301970791878
 30
0.0
 11
287.62421578618989
 21
56.474301970791998
 31
0.0
  0
LINE
  5
1AD44
  8
OS
  6
CONTINUOUS
 62
     2
 10
263.6242157861895
 20
42.37379690740363
 30
0.0
 11
287.62421578618989
 21
66.37379690740363
 31
0.0
  0
LINE
  5
1AD45
  8
OS
  6
CONTINUOUS
 62
     2
 10
263.6242157861895
 20
52.273291844015361
 30
0.0
 11
284.35851100010962
 21
73.007587057935226
 31
0.0
  0
LINE
  5
1AD46
  8
OS
  6
CONTINUOUS
 62
     2
 10
263.6242157861895
 20
62.172786780626879
 30
0.0
 11
274.45901606349798
 21
73.007587057935069
 31
0.0
  0
LINE
  5
1AD47
  8
OS
  6
CONTINUOUS
 62
     2
 10
263.6242157861895
 20
-36.822162585489671
 30
0.0
 11
287.6242157861895
 21
-12.82216258548976
 31
0.0
  0
LINE
  5
1AD48
  8
KI
  6
CONTINUOUS
 62
     7
 10
268.62421578618989
 20
-21.49241122960316
 30
0.0
 11
268.62421578618989
 21
-5.492413704000823
 31
0.0
  0
LINE
  5
1AD49
  8
KI
  6
CONTINUOUS
 62
     7
 10
263.6242157861895
 20
-5.492413704000823
 30
0.0
 11
268.62421578618989
 21
-5.492413704000823
 31
0.0
  0
LINE
  5
1AD4A
  8
KI
  6
CONTINUOUS
 62
     7
 10
268.62421578618989
 20
-21.49241122960316
 30
0.0
 11
263.6242157861895
 21
-21.49241122960316
 31
0.0
  0
LINE
  5
1AD4B
  8
KI
  6
CONTINUOUS
 62
     7
 10
263.6242157861895
 20
-5.492413704000823
 30
0.0
 11
263.6242157861895
 21
70.507587057935197
 31
0.0
  0
LINE
  5
1AD4C
  8
OS
  6
CONTINUOUS
 62
     2
 10
338.6242182362617
 20
-80.992412942064803
 30
0.0
 11
287.62421576907309
 21
-80.992412942064803
 31
0.0
  0
LINE
  5
1AD4D
  8
OS
  6
CONTINUOUS
 62
     2
 10
338.6242182362617
 20
-82.992412942064789
 30
0.0
 11
287.62421576907309
 21
-82.992412942064789
 31
0.0
  0
LINE
  5
1AD4E
  8
OS
  6
CONTINUOUS
 62
     2
 10
338.6242182362617
 20
-72.492412942064803
 30
0.0
 11
287.62421576907309
 21
-72.492412942064803
 31
0.0
  0
LINE
  5
1AD4F
  8
OS
  6
CONTINUOUS
 62
     2
 10
338.6242182362617
 20
-70.492412942064803
 30
0.0
 11
287.62421576907309
 21
-70.492412942064803
 31
0.0
  0
LINE
  5
1AD50
  8
OS
  6
CONTINUOUS
 62
     2
 10
338.6242182362617
 20
3.507525279327437
 30
0.0
 11
292.6240784399634
 21
49.507644278394139
 31
0.0
  0
LINE
  5
1AD51
  8
OS
  6
CONTINUOUS
 62
     2
 10
292.6240784399634
 20
-70.492355721605819
 30
0.0
 11
338.6242182362617
 21
-24.49229716445987
 31
0.0
  0
LINE
  5
1AD52
  8
OS
  6
CONTINUOUS
 62
     2
 10
338.6242182362617
 20
51.507587057935183
 30
0.0
 11
287.62421576907309
 21
51.507587057935183
 31
0.0
  0
LINE
  5
1AD53
  8
OS
  6
CONTINUOUS
 62
     2
 10
338.6242182362617
 20
49.507587057935183
 30
0.0
 11
287.62421576907309
 21
49.507587057935183
 31
0.0
  0
LINE
  5
1AD54
  8
OS
  6
CONTINUOUS
 62
     2
 10
338.6242182362617
 20
60.007587057935183
 30
0.0
 11
287.62421576907309
 21
60.007587057935183
 31
0.0
  0
LINE
  5
1AD55
  8
OS
  6
CONTINUOUS
 62
     2
 10
338.6242182362617
 20
62.007587057935183
 30
0.0
 11
287.62421576907309
 21
62.007587057935183
 31
0.0
  0
LINE
  5
1AD56
  8
OS
  6
CONTINUOUS
 62
     2
 10
292.6242157690732
 20
49.507587057935183
 30
0.0
 11
292.6242157690732
 21
-70.492412942064803
 31
0.0
  0
LINE
  5
1AD57
  8
OS
  6
CONTINUOUS
 62
     2
 10
287.6242615454334
 20
49.507594687329252
 30
0.0
 11
292.62426154543323
 21
-70.492412942064803
 31
0.0
  0
LINE
  5
1AD58
  8
OS
  6
CONTINUOUS
 62
     2
 10
-13.37578668099988
 20
-80.992412942064803
 30
0.0
 11
37.624215786188472
 21
-80.992412942064803
 31
0.0
  0
LINE
  5
1AD59
  8
OS
  6
CONTINUOUS
 62
     2
 10
-13.37578668099988
 20
-82.992412942064789
 30
0.0
 11
37.624215786188472
 21
-82.992412942064789
 31
0.0
  0
LINE
  5
1AD5A
  8
OS
  6
CONTINUOUS
 62
     2
 10
-13.37578668099988
 20
-72.492412942064803
 30
0.0
 11
37.624215786188472
 21
-72.492412942064803
 31
0.0
  0
LINE
  5
1AD5B
  8
OS
  6
CONTINUOUS
 62
     2
 10
-13.37578668099988
 20
-70.492412942064803
 30
0.0
 11
37.624215786188472
 21
-70.492412942064803
 31
0.0
  0
LINE
  5
1AD5C
  8
OS
  6
CONTINUOUS
 62
     2
 10
-13.37578668099988
 20
3.507525279327437
 30
0.0
 11
32.624353115298447
 21
49.507644278394139
 31
0.0
  0
LINE
  5
1AD5D
  8
OS
  6
CONTINUOUS
 62
     2
 10
32.624353115298447
 20
-70.492355721605819
 30
0.0
 11
-13.37578668099987
 21
-24.49229716445987
 31
0.0
  0
LINE
  5
1AD5E
  8
OS
  6
CONTINUOUS
 62
     2
 10
-13.37578668099988
 20
51.507587057935183
 30
0.0
 11
37.624215786188472
 21
51.507587057935183
 31
0.0
  0
LINE
  5
1AD5F
  8
OS
  6
CONTINUOUS
 62
     2
 10
-13.37578668099988
 20
49.507587057935183
 30
0.0
 11
37.624215786188472
 21
49.507587057935183
 31
0.0
  0
LINE
  5
1AD60
  8
OS
  6
CONTINUOUS
 62
     2
 10
-13.37578668099988
 20
60.007587057935183
 30
0.0
 11
37.624215786188472
 21
60.007587057935183
 31
0.0
  0
LINE
  5
1AD61
  8
OS
  6
CONTINUOUS
 62
     2
 10
-13.37578668099988
 20
62.007587057935183
 30
0.0
 11
37.624215786188472
 21
62.007587057935183
 31
0.0
  0
LINE
  5
1AD62
  8
OS
  6
CONTINUOUS
 62
     2
 10
32.624215786188472
 20
49.507587057935183
 30
0.0
 11
32.624215786188472
 21
-70.492412942064803
 31
0.0
  0
LINE
  5
1AD63
  8
OS
  6
CONTINUOUS
 62
     2
 10
37.624170009828447
 20
49.507594687329252
 30
0.0
 11
32.624170009828447
 21
-70.492412942064803
 31
0.0
  0
LINE
  5
1AD64
  8
OS
  6
CONTINUOUS
 62
     2
 10
-316.10662569688589
 20
156.6605057182347
 30
0.0
 11
-229.70657218460551
 21
192.66064257049911
 31
0.0
  0
LINE
  5
1AD65
  8
OS
  6
CONTINUOUS
 62
     2
 10
-196.106679102648
 20
156.66064257049911
 30
0.0
 11
-316.106679102648
 21
156.66064257049911
 31
0.0
  0
LINE
  5
1AD66
  8
OS
  6
CONTINUOUS
 62
     2
 10
-196.10667147325381
 20
151.66068695731471
 30
0.0
 11
-316.106679102648
 21
156.66068739319201
 31
0.0
  0
LINE
  5
1AD67
  8
OS
  6
CONTINUOUS
 62
     2
 10
-328.606679102648
 20
192.66064257049911
 30
0.0
 11
-328.606679102648
 21
151.66064257049899
 31
0.0
  0
LINE
  5
1AD68
  8
OS
  6
CONTINUOUS
 62
     2
 10
-326.606679102648
 20
192.66064257049911
 30
0.0
 11
-326.606679102648
 21
151.66064257049899
 31
0.0
  0
LINE
  5
1AD69
  8
OS
  6
CONTINUOUS
 62
     2
 10
-316.106679102648
 20
192.66064257049911
 30
0.0
 11
-316.106679102648
 21
151.66064257049899
 31
0.0
  0
LINE
  5
1AD6A
  8
OS
  6
CONTINUOUS
 62
     2
 10
-318.106679102648
 20
192.66064257049911
 30
0.0
 11
-318.106679102648
 21
151.66064257049899
 31
0.0
  0
LINE
  5
1AD6B
  8
OS
  6
CONTINUOUS
 62
     2
 10
-196.106679102648
 20
192.66064257049911
 30
0.0
 11
-196.106679102648
 21
151.66064257049899
 31
0.0
  0
LINE
  5
1AD6C
  8
OS
  6
CONTINUOUS
 62
     2
 10
-183.606679102648
 20
192.66064257049911
 30
0.0
 11
-183.606679102648
 21
151.66064257049899
 31
0.0
  0
LINE
  5
1AD6D
  8
OS
  6
CONTINUOUS
 62
     2
 10
-194.106679102648
 20
192.66064257049911
 30
0.0
 11
-194.106679102648
 21
151.66064257049899
 31
0.0
  0
LINE
  5
1AD6E
  8
OS
  6
CONTINUOUS
 62
     2
 10
-185.606679102648
 20
192.66064257049911
 30
0.0
 11
-185.606679102648
 21
151.66064257049899
 31
0.0
  0
LINE
  5
1AD6F
  8
KI
  6
CONTINUOUS
 62
     7
 10
61.624215786190689
 20
-91.492412942064803
 30
0.0
 11
61.624215786190689
 21
-21.49241122960316
 31
0.0
  0
LINE
  5
1AD70
  8
KI
  6
CONTINUOUS
 62
     7
 10
59.124215786190689
 20
73.007587057935197
 30
0.0
 11
37.624215786190682
 21
73.007587057935197
 31
0.0
  0
LINE
  5
1AD71
  8
KI
  6
CONTINUOUS
 62
     7
 10
59.124215786190689
 20
73.007587057935197
 30
0.0
 11
61.624215786190689
 21
70.507587057935197
 31
0.0
1001
GENIUS_GENFIL_13
1070
     0
1040
2.5
1040
2.5
1040
20.0
1040
0.0
1002
{
1002
}
1001
GENIUS_GENOBJ-N-CHA_13
1002
{
1000
OWNER
1000
GEN
1002
}
1001
GENIUS_GENODEF_13
1002
{
1000
HIER
1070
     0
1002
}
1002
{
1000
MANEDIT
1070
     0
1002
}
1002
{
1000
NOSEL
1070
     0
1002
}
1002
{
1000
BEHIND
1070
     0
1002
}
1002
{
1000
OTHER
1070
     0
1002
}
1002
{
1000
REACTOR
1002
}
  0
LINE
  5
1AD72
  8
KI
  6
CONTINUOUS
 62
     7
 10
37.624215786190682
 20
73.007587057936533
 30
0.0
 11
37.624215786190682
 21
-93.992412942064803
 31
0.0
  0
LINE
  5
1AD73
  8
KI
  6
CONTINUOUS
 62
     7
 10
37.624215786190682
 20
-93.992412942064803
 30
0.0
 11
59.124215786190689
 21
-93.992412942064803
 31
0.0
  0
LINE
  5
1AD74
  8
KI
  6
CONTINUOUS
 62
     7
 10
59.124215786190689
 20
-93.992412942064803
 30
0.0
 11
61.624215786190689
 21
-91.492412942064803
 31
0.0
1001
GENIUS_GENFIL_13
1070
     0
1040
2.5
1040
2.5
1040
20.0
1040
0.0
1002
{
1002
}
1001
GENIUS_GENOBJ-N-CHA_13
1002
{
1000
OWNER
1000
GEN
1002
}
1001
GENIUS_GENODEF_13
1002
{
1000
HIER
1070
     0
1002
}
1002
{
1000
MANEDIT
1070
     0
1002
}
1002
{
1000
NOSEL
1070
     0
1002
}
1002
{
1000
BEHIND
1070
     0
1002
}
1002
{
1000
OTHER
1070
     0
1002
}
1002
{
1000
REACTOR
1002
}
  0
LINE
  5
1AD75
  8
OS
  6
CONTINUOUS
 62
     2
 10
39.59850664987254
 20
-93.992412942064803
 30
0.0
 11
37.624215786190788
 21
-92.018122078383044
 31
0.0
  0
LINE
  5
1AD76
  8
OS
  6
CONTINUOUS
 62
     2
 10
49.498001586484179
 20
-93.992412942064917
 30
0.0
 11
37.624215786190568
 21
-82.118627141771427
 31
0.0
  0
LINE
  5
1AD77
  8
OS
  6
CONTINUOUS
 62
     2
 10
59.2608561546432
 20
-93.855772573612285
 30
0.0
 11
37.624215786190682
 21
-72.219132205159653
 31
0.0
  0
LINE
  5
1AD78
  8
OS
  6
CONTINUOUS
 62
     2
 10
61.624215786190561
 20
-86.319637268548163
 30
0.0
 11
37.624215786190568
 21
-62.319637268548043
 31
0.0
  0
LINE
  5
1AD79
  8
OS
  6
CONTINUOUS
 62
     2
 10
61.624215786190689
 20
-76.420142331936404
 30
0.0
 11
37.624215786190568
 21
-52.42014233193639
 31
0.0
  0
LINE
  5
1AD7A
  8
OS
  6
CONTINUOUS
 62
     2
 10
61.624215786190689
 20
-66.520647395324659
 30
0.0
 11
37.624215786190682
 21
-42.520647395324652
 31
0.0
  0
LINE
  5
1AD7B
  8
OS
  6
CONTINUOUS
 62
     2
 10
61.624215786190561
 20
-56.621152458713141
 30
0.0
 11
37.624215786190568
 21
-32.62115245871302
 31
0.0
  0
LINE
  5
1AD7C
  8
OS
  6
CONTINUOUS
 62
     2
 10
61.624215786190689
 20
-46.72165752210136
 30
0.0
 11
37.624215786190682
 21
-22.721657522101388
 31
0.0
  0
LINE
  5
1AD7D
  8
OS
  6
CONTINUOUS
 62
     2
 10
61.624215786190689
 20
-26.922667648878289
 30
0.0
 11
37.624215786190568
 21
-2.9226676488780181
 31
0.0
  0
LINE
  5
1AD7E
  8
OS
  6
CONTINUOUS
 62
     2
 10
56.624215786190739
 20
-12.023172712266391
 30
0.0
 11
37.624215786190682
 21
6.9768272877336122
 31
0.0
  0
LINE
  5
1AD7F
  8
OS
  6
CONTINUOUS
 62
     2
 10
59.992951714536879
 20
-5.492413704000823
 30
0.0
 11
37.624215786190788
 21
16.876322224345241
 31
0.0
  0
LINE
  5
1AD80
  8
OS
  6
CONTINUOUS
 62
     2
 10
61.624215786190689
 20
2.775817160956874
 30
0.0
 11
37.624215786190568
 21
26.77581716095699
 31
0.0
  0
LINE
  5
1AD81
  8
OS
  6
CONTINUOUS
 62
     2
 10
61.624215786190689
 20
12.67531209756862
 30
0.0
 11
37.624215786190682
 21
36.675312097568622
 31
0.0
  0
LINE
  5
1AD82
  8
OS
  6
CONTINUOUS
 62
     2
 10
61.624215786190689
 20
22.574807034180349
 30
0.0
 11
37.624215786190788
 21
46.574807034180253
 31
0.0
  0
LINE
  5
1AD83
  8
OS
  6
CONTINUOUS
 62
     2
 10
61.624215786190689
 20
32.474301970791878
 30
0.0
 11
37.624215786190568
 21
56.474301970791998
 31
0.0
  0
LINE
  5
1AD84
  8
OS
  6
CONTINUOUS
 62
     2
 10
61.624215786190689
 20
42.37379690740363
 30
0.0
 11
37.624215786190682
 21
66.37379690740363
 31
0.0
  0
LINE
  5
1AD85
  8
OS
  6
CONTINUOUS
 62
     2
 10
61.624215786190689
 20
52.273291844015361
 30
0.0
 11
40.889920572270853
 21
73.007587057935226
 31
0.0
  0
LINE
  5
1AD86
  8
OS
  6
CONTINUOUS
 62
     2
 10
61.624215786190689
 20
62.172786780626879
 30
0.0
 11
50.789415508882492
 21
73.007587057935069
 31
0.0
  0
LINE
  5
1AD87
  8
OS
  6
CONTINUOUS
 62
     2
 10
61.624215786190689
 20
-36.822162585489671
 30
0.0
 11
37.624215786190788
 21
-12.82216258548976
 31
0.0
  0
LINE
  5
1AD88
  8
KI
  6
CONTINUOUS
 62
     7
 10
56.624215786190689
 20
-21.49241122960316
 30
0.0
 11
56.624215786190689
 21
-5.492413704000823
 31
0.0
  0
LINE
  5
1AD89
  8
KI
  6
CONTINUOUS
 62
     7
 10
61.624215786190689
 20
-5.492413704000823
 30
0.0
 11
56.624215786190689
 21
-5.492413704000823
 31
0.0
  0
LINE
  5
1AD8A
  8
KI
  6
CONTINUOUS
 62
     7
 10
56.624215786190689
 20
-21.49241122960316
 30
0.0
 11
61.624215786190689
 21
-21.49241122960316
 31
0.0
  0
LINE
  5
1AD8B
  8
KI
  6
CONTINUOUS
 62
     7
 10
61.624215786190689
 20
-5.492413704000823
 30
0.0
 11
61.624215786190689
 21
70.507587057935197
 31
0.0
  0
LINE
  5
1AD8C
  8
KI
  6
CONTINUOUS
 62
     7
 10
-261.22050240747308
 20
127.66064257049899
 30
0.0
 11
-334.10667910264772
 21
127.66064257049899
 31
0.0
  0
LINE
  5
1AD8D
  8
KI
  6
CONTINUOUS
 62
     7
 10
-336.60667910264942
 20
151.66064257049899
 30
0.0
 11
-175.606679102648
 21
151.66064257049899
 31
0.0
  0
LINE
  5
1AD8E
  8
KI
  6
CONTINUOUS
 62
     7
 10
-336.60667910264772
 20
130.16064257049891
 30
0.0
 11
-334.10667910264772
 21
127.66064257049899
 31
0.0
1001
GENIUS_GENFIL_13
1070
     0
1040
2.5
1040
2.5
1040
20.0
1040
0.0
1002
{
1002
}
1001
GENIUS_GENOBJ-N-CHA_13
1002
{
1000
OWNER
1000
GEN
1002
}
1001
GENIUS_GENODEF_13
1002
{
1000
HIER
1070
     0
1002
}
1002
{
1000
MANEDIT
1070
     0
1002
}
1002
{
1000
NOSEL
1070
     0
1002
}
1002
{
1000
BEHIND
1070
     0
1002
}
1002
{
1000
OTHER
1070
     0
1002
}
1002
{
1000
REACTOR
1002
}
  0
LINE
  5
1AD8F
  8
KI
  6
CONTINUOUS
 62
     7
 10
-336.60667910264772
 20
130.16064257049891
 30
0.0
 11
-336.60667910264772
 21
151.66064257049899
 31
0.0
  0
LINE
  5
1AD90
  8
KI
  6
CONTINUOUS
 62
     7
 10
-178.106679102648
 20
127.66064257049899
 30
0.0
 11
-245.22050488187071
 21
127.66064257049899
 31
0.0
  0
LINE
  5
1AD91
  8
KI
  6
CONTINUOUS
 62
     7
 10
-175.606679102648
 20
130.16064257049891
 30
0.0
 11
-178.106679102648
 21
127.66064257049899
 31
0.0
1001
GENIUS_GENFIL_13
1070
     0
1040
2.5
1040
2.5
1040
20.0
1040
0.0
1002
{
1002
}
1001
GENIUS_GENOBJ-N-CHA_13
1002
{
1000
OWNER
1000
GEN
1002
}
1001
GENIUS_GENODEF_13
1002
{
1000
HIER
1070
     0
1002
}
1002
{
1000
MANEDIT
1070
     0
1002
}
1002
{
1000
NOSEL
1070
     0
1002
}
1002
{
1000
BEHIND
1070
     0
1002
}
1002
{
1000
OTHER
1070
     0
1002
}
1002
{
1000
REACTOR
1002
}
  0
LINE
  5
1AD92
  8
KI
  6
CONTINUOUS
 62
     7
 10
-175.606679102648
 20
151.66064257049899
 30
0.0
 11
-175.606679102648
 21
130.16064257049891
 31
0.0
  0
LINE
  5
1AD93
  8
OS
  6
CONTINUOUS
 62
     2
 10
-336.60667910264772
 20
149.0684044260895
 30
0.0
 11
-334.01444095823831
 21
151.66064257049891
 31
0.0
  0
LINE
  5
1AD94
  8
OS
  6
CONTINUOUS
 62
     2
 10
-336.60667910264772
 20
139.16890948947781
 30
0.0
 11
-324.11494602162691
 21
151.66064257049891
 31
0.0
  0
LINE
  5
1AD95
  8
OS
  6
CONTINUOUS
 62
     2
 10
-336.16106509383161
 20
129.7150285616822
 30
0.0
 11
-314.2154510850151
 21
151.66064257049891
 31
0.0
  0
LINE
  5
1AD96
  8
OS
  6
CONTINUOUS
 62
     2
 10
-328.31595614840347
 20
127.66064257049879
 30
0.0
 11
-304.31595614840347
 21
151.66064257049891
 31
0.0
  0
LINE
  5
1AD97
  8
OS
  6
CONTINUOUS
 62
     2
 10
-318.4164612117919
 20
127.66064257049899
 30
0.0
 11
-294.41646121179201
 21
151.66064257049891
 31
0.0
  0
LINE
  5
1AD98
  8
OS
  6
CONTINUOUS
 62
     2
 10
-308.51696627518021
 20
127.66064257049879
 30
0.0
 11
-284.5169662751801
 21
151.66064257049899
 31
0.0
  0
LINE
  5
1AD99
  8
OS
  6
CONTINUOUS
 62
     2
 10
-298.61747133856852
 20
127.66064257049879
 30
0.0
 11
-274.61747133856841
 21
151.66064257049891
 31
0.0
  0
LINE
  5
1AD9A
  8
OS
  6
CONTINUOUS
 62
     2
 10
-288.71797640195689
 20
127.66064257049879
 30
0.0
 11
-264.717976401957
 21
151.66064257049891
 31
0.0
  0
LINE
  5
1AD9B
  8
OS
  6
CONTINUOUS
 62
     2
 10
-278.8184814653452
 20
127.66064257049879
 30
0.0
 11
-254.8184814653452
 21
151.66064257049899
 31
0.0
  0
LINE
  5
1AD9C
  8
OS
  6
CONTINUOUS
 62
     2
 10
-268.91898652873363
 20
127.66064257049899
 30
0.0
 11
-244.9189865287336
 21
151.66064257049899
 31
0.0
  0
LINE
  5
1AD9D
  8
OS
  6
CONTINUOUS
 62
     2
 10
-254.0194915921218
 20
132.66064257049891
 30
0.0
 11
-235.0194915921218
 21
151.66064257049891
 31
0.0
  0
LINE
  5
1AD9E
  8
OS
  6
CONTINUOUS
 62
     2
 10
-245.22050488187071
 20
131.56013434413839
 30
0.0
 11
-225.11999665551011
 21
151.66064257049899
 31
0.0
  0
LINE
  5
1AD9F
  8
OS
  6
CONTINUOUS
 62
     2
 10
-219.10667765213771
 20
127.9754767640361
 30
0.0
 11
-195.42151184567521
 21
151.66064257049891
 31
0.0
  0
LINE
  5
1ADA0
  8
OS
  6
CONTINUOUS
 62
     2
 10
-209.52201690906361
 20
127.66064257049899
 30
0.0
 11
-185.52201690906341
 21
151.66064257049899
 31
0.0
  0
LINE
  5
1ADA1
  8
OS
  6
CONTINUOUS
 62
     2
 10
-199.62252197245181
 20
127.66064257049879
 30
0.0
 11
-175.62252197245181
 21
151.66064257049891
 31
0.0
  0
LINE
  5
1ADA2
  8
OS
  6
CONTINUOUS
 62
     2
 10
-189.72302703584009
 20
127.66064257049899
 30
0.0
 11
-175.6066791026478
 21
141.77699050369111
 31
0.0
  0
LINE
  5
1ADA3
  8
OS
  6
CONTINUOUS
 62
     2
 10
-179.8235320992286
 20
127.66064257049899
 30
0.0
 11
-175.606679102648
 21
131.87749556707951
 31
0.0
  0
LINE
  5
1ADA4
  8
OS
  6
CONTINUOUS
 62
     2
 10
-239.22053423956081
 20
127.66061004983651
 30
0.0
 11
-215.2205017188987
 21
151.66064257049891
 31
0.0
  0
LINE
  5
1ADA5
  8
OS
  6
CONTINUOUS
 62
     2
 10
-229.3210067822865
 20
127.66064257049899
 30
0.0
 11
-205.3210067822869
 21
151.66064257049891
 31
0.0
  0
LINE
  5
1ADA6
  8
KI
  6
CONTINUOUS
 62
     7
 10
-245.22050488187071
 20
132.66064257049891
 30
0.0
 11
-245.22050488187071
 21
127.66064257049899
 31
0.0
  0
LINE
  5
1ADA7
  8
KI
  6
CONTINUOUS
 62
     7
 10
-261.22050240747308
 20
132.66064257049891
 30
0.0
 11
-261.22050240747308
 21
127.66064257049899
 31
0.0
  0
LINE
  5
1ADA8
  8
KI
  6
CONTINUOUS
 62
     7
 10
-245.22050488187071
 20
132.66064257049891
 30
0.0
 11
-261.22050240747308
 21
132.66064257049891
 31
0.0
  0
LINE
  5
1ADA9
  8
SU
  6
CONTINUOUS
 62
     3
 10
-33.37578668100798
 20
49.50758705793519
 30
0.0
 11
-33.375786681007959
 21
62.00758705793519
 31
0.0
  0
LINE
  5
1ADAA
  8
SU
  6
CONTINUOUS
 62
     3
 10
-33.375786681007959
 20
62.00758705793519
 30
0.0
 11
-33.375786681007959
 21
86.995234118523712
 31
0.0
  0
LINE
  5
1ADAB
  8
SU
  6
CONTINUOUS
 62
     3
 10
-14.37578668099192
 20
62.007587057935183
 30
0.0
 11
-51.375786681007988
 21
62.00758705793519
 31
0.0
  0
LINE
  5
1ADAC
  8
SU
  6
CONTINUOUS
 62
     3
 10
36.624215786190689
 20
73.007587057936533
 30
0.0
 11
-51.375786681007973
 21
73.007587057936561
 31
0.0
  0
LINE
  5
1ADAD
  8
SU
  6
CONTINUOUS
 62
     3
 10
-48.375786681008002
 20
62.00758705793519
 30
0.0
 11
-48.375786681008002
 21
73.007587057936561
 31
0.0
  0
LINE
  5
1ADAE
  8
SU
  6
CONTINUOUS
 62
     3
 10
-14.37578668099988
 20
-82.992412942064789
 30
0.0
 11
-51.375786681007973
 21
-82.992412942064789
 31
0.0
  0
LINE
  5
1ADAF
  8
SU
  6
CONTINUOUS
 62
     3
 10
36.62421578619044
 20
-93.992413034355778
 30
0.0
 11
-51.375786681007973
 21
-93.992413034355778
 31
0.0
  0
LINE
  5
1ADB0
  8
SU
  6
CONTINUOUS
 62
     3
 10
-48.375786681007959
 20
-82.992412942064789
 30
0.0
 11
-48.375786681007959
 21
-93.992413034355778
 31
0.0
  0
LINE
  5
1ADB1
  8
SU
  6
CONTINUOUS
 62
     3
 10
-33.37578668100798
 20
-70.492412942064803
 30
0.0
 11
-33.37578668100798
 21
-82.992412942064789
 31
0.0
  0
LINE
  5
1ADB2
  8
SU
  6
CONTINUOUS
 62
     3
 10
-33.37578668100798
 20
-82.992412942064789
 30
0.0
 11
-33.37578668100798
 21
-105.72389772401399
 31
0.0
  0
LINE
  5
1ADB3
  8
SU
  6
CONTINUOUS
 62
     3
 10
-14.37578668099988
 20
-70.492412942064803
 30
0.0
 11
-36.375786681008002
 21
-70.492412942064803
 31
0.0
  0
LINE
  5
1ADB4
  8
SU
  6
CONTINUOUS
 62
     3
 10
-14.375786681000021
 20
49.507586965644244
 30
0.0
 11
-36.375786681007952
 21
49.507586965644244
 31
0.0
  0
LINE
  5
1ADB5
  8
SU
  6
CONTINUOUS
 62
     3
 10
-33.375786681008002
 20
-70.492412942064803
 30
0.0
 11
-33.37578668100798
 21
49.507586965644244
 31
0.0
  0
LINE
  5
1ADB6
  8
SU
  6
CONTINUOUS
 62
     3
 10
-48.375786681007959
 20
62.00758705793519
 30
0.0
 11
-48.375786681007959
 21
-82.992412942064789
 31
0.0
  0
LINE
  5
1ADB7
  8
SU
  6
CONTINUOUS
 62
     3
 10
-196.106679102648
 20
212.66064257050701
 30
0.0
 11
-183.606679102648
 21
212.66064257050701
 31
0.0
  0
LINE
  5
1ADB8
  8
SU
  6
CONTINUOUS
 62
     3
 10
-183.606679102648
 20
212.66064257050701
 30
0.0
 11
-160.8751944129896
 21
212.66064257050701
 31
0.0
  0
LINE
  5
1ADB9
  8
SU
  6
CONTINUOUS
 62
     3
 10
-183.606679102648
 20
193.66064257049879
 30
0.0
 11
-183.606679102648
 21
230.66064257050701
 31
0.0
  0
LINE
  5
1ADBA
  8
SU
  6
CONTINUOUS
 62
     3
 10
-172.606679102648
 20
152.66064257049899
 30
0.0
 11
-172.606679102648
 21
230.66064257050701
 31
0.0
  0
LINE
  5
1ADBB
  8
SU
  6
CONTINUOUS
 62
     3
 10
-183.606679102648
 20
227.66064257050681
 30
0.0
 11
-172.606679102648
 21
227.66064257050681
 31
0.0
  0
LINE
  5
1ADBC
  8
SU
  6
CONTINUOUS
 62
     3
 10
263.6242157861904
 20
74.007586965644094
 30
0.0
 11
263.6242157861904
 21
96.007586965643981
 31
0.0
  0
LINE
  5
1ADBD
  8
SU
  6
CONTINUOUS
 62
     3
 10
287.62421578619052
 20
74.007586965644194
 30
0.0
 11
287.62421578619052
 21
96.007586965643981
 31
0.0
  0
LINE
  5
1ADBE
  8
SU
  6
CONTINUOUS
 62
     3
 10
263.6242157861904
 20
93.007586965643995
 30
0.0
 11
287.62421578619052
 21
93.007586965643995
 31
0.0
  0
LINE
  5
1ADBF
  8
SU
  6
CONTINUOUS
 62
     3
 10
61.624215786190653
 20
74.007586965644094
 30
0.0
 11
61.624215786190653
 21
96.007586965643981
 31
0.0
  0
LINE
  5
1ADC0
  8
SU
  6
CONTINUOUS
 62
     3
 10
37.624215786190589
 20
74.007586965644194
 30
0.0
 11
37.624215786190589
 21
96.007586965643981
 31
0.0
  0
LINE
  5
1ADC1
  8
SU
  6
CONTINUOUS
 62
     3
 10
61.624215786190653
 20
93.007586965643995
 30
0.0
 11
37.624215786190589
 21
93.007586965643995
 31
0.0
  0
LINE
  5
1ADC2
  8
SU
  6
CONTINUOUS
 62
     3
 10
-316.106679102648
 20
212.66064257050701
 30
0.0
 11
-328.606679102648
 21
212.66064257050701
 31
0.0
  0
LINE
  5
1ADC3
  8
SU
  6
CONTINUOUS
 62
     3
 10
-328.606679102648
 20
212.66064257050701
 30
0.0
 11
-353.59432620938202
 21
212.66064257050701
 31
0.0
  0
LINE
  5
1ADC4
  8
SU
  6
CONTINUOUS
 62
     3
 10
-316.106679102648
 20
193.66064257049879
 30
0.0
 11
-316.106679102648
 21
215.66064257050701
 31
0.0
  0
LINE
  5
1ADC5
  8
SU
  6
CONTINUOUS
 62
     3
 10
-196.106679102648
 20
193.66064257049879
 30
0.0
 11
-196.106679102648
 21
215.66064257050701
 31
0.0
  0
LINE
  5
1ADC6
  8
SU
  6
CONTINUOUS
 62
     3
 10
-316.106679102648
 20
212.66064257050701
 30
0.0
 11
-196.106679102648
 21
212.66064257050701
 31
0.0
  0
LINE
  5
1ADC7
  8
SU
  6
CONTINUOUS
 62
     3
 10
-183.606679102648
 20
227.66064257050681
 30
0.0
 11
-328.606679102648
 21
227.66064257050681
 31
0.0
  0
LINE
  5
1ADC8
  8
SU
  6
CONTINUOUS
 62
     3
 10
-328.606679102648
 20
193.66064257049879
 30
0.0
 11
-328.606679102648
 21
230.66064257050701
 31
0.0
  0
LINE
  5
1ADC9
  8
SU
  6
CONTINUOUS
 62
     3
 10
-339.606679102648
 20
152.66064257049899
 30
0.0
 11
-339.606679102648
 21
230.66064257050701
 31
0.0
  0
LINE
  5
1ADCA
  8
SU
  6
CONTINUOUS
 62
     3
 10
-328.606679102648
 20
227.66064257050681
 30
0.0
 11
-339.606679102648
 21
227.66064257050681
 31
0.0
  0
LINE
  5
1ADCB
  8
SU
  6
CONTINUOUS
 62
     3
 10
-340.60667910264772
 20
151.66064257049899
 30
0.0
 11
-362.606679102648
 21
151.66064257049899
 31
0.0
  0
LINE
  5
1ADCC
  8
SU
  6
CONTINUOUS
 62
     3
 10
-359.606679102648
 20
151.66064257049899
 30
0.0
 11
-359.606679102648
 21
127.66064257049879
 31
0.0
  0
TEXT
  5
1ADCD
  8
SU
  6
CONTINUOUS
 62
     3
 10
-360.90667910264801
 20
136.4196901895464
 30
0.0
 40
4.0
  1
24
 50
90.0
 41
0.8299999999999999
  0
TEXT
  5
1ADCE
  8
SU
  6
CONTINUOUS
 62
     3
 10
-337.03144100740991
 20
228.96064257050679
 30
0.0
 40
4.0
  1
11
 41
0.8299999999999999
  0
TEXT
  5
1ADCF
  8
SU
  6
CONTINUOUS
 62
     3
 10
-261.08667910264802
 20
228.96064257050679
 30
0.0
 40
4.0
  1
145
 41
0.8299999999999999
  0
TEXT
  5
1ADD0
  8
SU
  6
CONTINUOUS
 62
     3
 10
-261.08667910264802
 20
213.96064257050679
 30
0.0
 40
4.0
  1
120
 41
0.8299999999999999
  0
TEXT
  5
1ADD1
  8
SU
  6
CONTINUOUS
 62
     3
 10
-353.24289763795321
 20
213.96064257050679
 30
0.0
 40
4.0
  1
12.5
 41
0.8299999999999999
  0
TEXT
  5
1ADD2
  8
SU
  6
CONTINUOUS
 62
     3
 10
46.383263405238239
 20
94.307586965643964
 30
0.0
 40
4.0
  1
24
 41
0.8299999999999999
  0
TEXT
  5
1ADD3
  8
SU
  6
CONTINUOUS
 62
     3
 10
272.3832634052381
 20
94.307586965643964
 30
0.0
 40
4.0
  1
24
 41
0.8299999999999999
  0
TEXT
  5
1ADD4
  8
SU
  6
CONTINUOUS
 62
     3
 10
-181.03144100740991
 20
228.96064257050679
 30
0.0
 40
4.0
  1
11
 41
0.8299999999999999
  0
TEXT
  5
1ADD5
  8
SU
  6
CONTINUOUS
 62
     3
 10
-172.76757536537059
 20
213.96064257050679
 30
0.0
 40
4.0
  1
12.5
 41
0.8299999999999999
  0
TEXT
  5
1ADD6
  8
SU
  6
CONTINUOUS
 62
     3
 10
-49.675786681007921
 20
-15.47241294206481
 30
0.0
 40
4.0
  1
145
 50
90.0
 41
0.8299999999999999
  0
TEXT
  5
1ADD7
  8
SU
  6
CONTINUOUS
 62
     3
 10
-34.67578668100797
 20
-15.47241298821028
 30
0.0
 40
4.0
  1
120
 50
90.0
 41
0.8299999999999999
  0
TEXT
  5
1ADD8
  8
SU
  6
CONTINUOUS
 62
     3
 10
-34.67578668100797
 20
-105.37246915258559
 30
0.0
 40
4.0
  1
12.5
 50
90.0
 41
0.8299999999999999
  0
TEXT
  5
1ADD9
  8
SU
  6
CONTINUOUS
 62
     3
 10
-49.67578668100797
 20
-91.417174892972184
 30
0.0
 40
4.0
  1
11
 50
90.0
 41
0.8299999999999999
  0
TEXT
  5
1ADDA
  8
SU
  6
CONTINUOUS
 62
     3
 10
-49.675786681007999
 20
64.582825153173957
 30
0.0
 40
4.0
  1
11
 50
90.0
 41
0.8299999999999999
  0
TEXT
  5
1ADDB
  8
SU
  6
CONTINUOUS
 62
     3
 10
-34.67578668100797
 20
75.102853166142737
 30
0.0
 40
4.0
  1
12.5
 50
90.0
 41
0.8299999999999999
  0
TEXT
  5
1ADDC
  8
SU
  6
CONTINUOUS
 62
     3
 10
-123.9066791026479
 20
34.67351661624523
 30
0.0
 40
4.0
  1
H
 50
90.0
 41
0.8299999999999999
  0
TEXT
  5
1ADDD
  8
SU
  6
CONTINUOUS
 62
     3
 10
-138.90667910264671
 20
11.93332755399658
 30
0.0
 40
4.0
  1
ドアH（DH）＝H－47
 50
90.0
 41
0.8299999999999999
  0
LINE
  5
1ADDE
  8
SU
  6
CONTINUOUS
 62
     3
 10
-128.52731586938839
 20
-68.967786155345934
 30
0.0
 11
-116.6860423359075
 21
-68.967786155345934
 31
0.0
  0
LINE
  5
1ADDF
  8
SU
  6
CONTINUOUS
 62
     3
 10
-128.40731586938841
 20
-69.167786155345937
 30
0.0
 11
-116.80604233590751
 21
-69.167786155345937
 31
0.0
  0
LINE
  5
1ADE0
  8
SU
  6
CONTINUOUS
 62
     3
 10
-128.28731586938841
 20
-69.367786155345925
 30
0.0
 11
-116.9260423359075
 21
-69.367786155345925
 31
0.0
  0
LINE
  5
1ADE1
  8
SU
  6
CONTINUOUS
 62
     3
 10
-128.1673158693884
 20
-69.567786155345942
 30
0.0
 11
-117.0460423359074
 21
-69.567786155345942
 31
0.0
  0
LINE
  5
1ADE2
  8
SU
  6
CONTINUOUS
 62
     3
 10
-128.04731586938851
 20
-69.767786155345931
 30
0.0
 11
-117.16604233590751
 21
-69.767786155345931
 31
0.0
  0
LINE
  5
1ADE3
  8
SU
  6
CONTINUOUS
 62
     3
 10
-127.92731586938839
 20
-69.967786155345934
 30
0.0
 11
-117.2860423359076
 21
-69.967786155345934
 31
0.0
  0
LINE
  5
1ADE4
  8
SU
  6
CONTINUOUS
 62
     3
 10
-127.8073158693885
 20
-70.167786155345937
 30
0.0
 11
-117.4060423359076
 21
-70.167786155345937
 31
0.0
  0
LINE
  5
1ADE5
  8
SU
  6
CONTINUOUS
 62
     3
 10
-127.6873158693885
 20
-70.367786155345925
 30
0.0
 11
-117.52604233590731
 21
-70.367786155345925
 31
0.0
  0
LINE
  5
1ADE6
  8
SU
  6
CONTINUOUS
 62
     3
 10
-127.56731586938839
 20
-70.567786155345942
 30
0.0
 11
-117.64604233590759
 21
-70.567786155345942
 31
0.0
  0
LINE
  5
1ADE7
  8
SU
  6
CONTINUOUS
 62
     3
 10
-127.4473158693884
 20
-70.767786155345931
 30
0.0
 11
-117.7660423359075
 21
-70.767786155345931
 31
0.0
  0
LINE
  5
1ADE8
  8
SU
  6
CONTINUOUS
 62
     3
 10
-127.3273158693884
 20
-70.967786155345934
 30
0.0
 11
-117.8860423359075
 21
-70.967786155345934
 31
0.0
  0
LINE
  5
1ADE9
  8
SU
  6
CONTINUOUS
 62
     3
 10
-127.2073158693884
 20
-71.167786155345937
 30
0.0
 11
-118.0060423359073
 21
-71.167786155345937
 31
0.0
  0
LINE
  5
1ADEA
  8
SU
  6
CONTINUOUS
 62
     3
 10
-127.08731586938841
 20
-71.367786155345939
 30
0.0
 11
-118.1260423359075
 21
-71.367786155345939
 31
0.0
  0
LINE
  5
1ADEB
  8
SU
  6
CONTINUOUS
 62
     3
 10
-126.9673158693884
 20
-71.567786155345942
 30
0.0
 11
-118.2460423359074
 21
-71.567786155345942
 31
0.0
  0
LINE
  5
1ADEC
  8
SU
  6
CONTINUOUS
 62
     3
 10
-126.8473158693884
 20
-71.767786155345931
 30
0.0
 11
-118.36604233590739
 21
-71.767786155345931
 31
0.0
  0
LINE
  5
1ADED
  8
SU
  6
CONTINUOUS
 62
     3
 10
-126.72731586938841
 20
-71.967786155345934
 30
0.0
 11
-118.4860423359076
 21
-71.967786155345934
 31
0.0
  0
LINE
  5
1ADEE
  8
SU
  6
CONTINUOUS
 62
     3
 10
-126.6073158693884
 20
-72.167786155345937
 30
0.0
 11
-118.6060423359075
 21
-72.167786155345937
 31
0.0
  0
LINE
  5
1ADEF
  8
SU
  6
CONTINUOUS
 62
     3
 10
-126.4873158693884
 20
-72.367786155345925
 30
0.0
 11
-118.72604233590759
 21
-72.367786155345925
 31
0.0
  0
LINE
  5
1ADF0
  8
SU
  6
CONTINUOUS
 62
     3
 10
-126.36731586938851
 20
-72.567786155345942
 30
0.0
 11
-118.8460423359076
 21
-72.567786155345942
 31
0.0
  0
LINE
  5
1ADF1
  8
SU
  6
CONTINUOUS
 62
     3
 10
-126.2473158693885
 20
-72.767786155345931
 30
0.0
 11
-118.9660423359075
 21
-72.767786155345931
 31
0.0
  0
LINE
  5
1ADF2
  8
SU
  6
CONTINUOUS
 62
     3
 10
-126.1273158693885
 20
-72.967786155345948
 30
0.0
 11
-119.08604233590761
 21
-72.967786155345948
 31
0.0
  0
LINE
  5
1ADF3
  8
SU
  6
CONTINUOUS
 62
     3
 10
-126.00731586938841
 20
-73.167786155345937
 30
0.0
 11
-119.2060423359075
 21
-73.167786155345937
 31
0.0
  0
LINE
  5
1ADF4
  8
SU
  6
CONTINUOUS
 62
     3
 10
-125.8873158693882
 20
-73.367786155345925
 30
0.0
 11
-119.3260423359076
 21
-73.367786155345925
 31
0.0
  0
LINE
  5
1ADF5
  8
SU
  6
CONTINUOUS
 62
     3
 10
-125.7673158693884
 20
-73.567786155345942
 30
0.0
 11
-119.44604233590751
 21
-73.567786155345942
 31
0.0
  0
LINE
  5
1ADF6
  8
SU
  6
CONTINUOUS
 62
     3
 10
-125.64731586938839
 20
-73.767786155345931
 30
0.0
 11
-119.5660423359075
 21
-73.767786155345931
 31
0.0
  0
LINE
  5
1ADF7
  8
SU
  6
CONTINUOUS
 62
     3
 10
-125.5273158693884
 20
-73.967786155345948
 30
0.0
 11
-119.6860423359074
 21
-73.967786155345948
 31
0.0
  0
LINE
  5
1ADF8
  8
SU
  6
CONTINUOUS
 62
     3
 10
-125.4073158693884
 20
-74.167786155345937
 30
0.0
 11
-119.80604233590751
 21
-74.167786155345937
 31
0.0
  0
LINE
  5
1ADF9
  8
SU
  6
CONTINUOUS
 62
     3
 10
-125.28731586938839
 20
-74.367786155345925
 30
0.0
 11
-119.9260423359076
 21
-74.367786155345925
 31
0.0
  0
LINE
  5
1ADFA
  8
SU
  6
CONTINUOUS
 62
     3
 10
-125.1673158693884
 20
-74.567786155345942
 30
0.0
 11
-120.0460423359074
 21
-74.567786155345942
 31
0.0
  0
LINE
  5
1ADFB
  8
SU
  6
CONTINUOUS
 62
     3
 10
-125.0473158693885
 20
-74.767786155345931
 30
0.0
 11
-120.16604233590751
 21
-74.767786155345931
 31
0.0
  0
LINE
  5
1ADFC
  8
SU
  6
CONTINUOUS
 62
     3
 10
-124.92731586938839
 20
-74.967786155345934
 30
0.0
 11
-120.2860423359076
 21
-74.967786155345934
 31
0.0
  0
LINE
  5
1ADFD
  8
SU
  6
CONTINUOUS
 62
     3
 10
-124.8073158693885
 20
-75.167786155345937
 30
0.0
 11
-120.4060423359075
 21
-75.167786155345937
 31
0.0
  0
LINE
  5
1ADFE
  8
SU
  6
CONTINUOUS
 62
     3
 10
-124.6873158693885
 20
-75.367786155345925
 30
0.0
 11
-120.5260423359076
 21
-75.367786155345925
 31
0.0
  0
LINE
  5
1ADFF
  8
SU
  6
CONTINUOUS
 62
     3
 10
-124.56731586938839
 20
-75.567786155345942
 30
0.0
 11
-120.6460423359073
 21
-75.567786155345942
 31
0.0
  0
LINE
  5
1AE00
  8
SU
  6
CONTINUOUS
 62
     3
 10
-124.44731586938831
 20
-75.767786155345931
 30
0.0
 11
-120.7660423359075
 21
-75.767786155345931
 31
0.0
  0
LINE
  5
1AE01
  8
SU
  6
CONTINUOUS
 62
     3
 10
-124.3273158693884
 20
-75.967786155345948
 30
0.0
 11
-120.8860423359075
 21
-75.967786155345948
 31
0.0
  0
LINE
  5
1AE02
  8
SU
  6
CONTINUOUS
 62
     3
 10
-124.2073158693884
 20
-76.167786155345937
 30
0.0
 11
-121.0060423359073
 21
-76.167786155345937
 31
0.0
  0
LINE
  5
1AE03
  8
SU
  6
CONTINUOUS
 62
     3
 10
-124.08731586938841
 20
-76.367786155345925
 30
0.0
 11
-121.1260423359076
 21
-76.367786155345925
 31
0.0
  0
LINE
  5
1AE04
  8
SU
  6
CONTINUOUS
 62
     3
 10
-123.9673158693884
 20
-76.567786155345942
 30
0.0
 11
-121.2460423359075
 21
-76.567786155345942
 31
0.0
  0
LINE
  5
1AE05
  8
SU
  6
CONTINUOUS
 62
     3
 10
-123.8473158693884
 20
-76.767786155345931
 30
0.0
 11
-121.36604233590739
 21
-76.767786155345931
 31
0.0
  0
LINE
  5
1AE06
  8
SU
  6
CONTINUOUS
 62
     3
 10
-123.72731586938841
 20
-76.967786155345934
 30
0.0
 11
-121.4860423359076
 21
-76.967786155345934
 31
0.0
  0
LINE
  5
1AE07
  8
SU
  6
CONTINUOUS
 62
     3
 10
-123.6073158693884
 20
-77.167786155345937
 30
0.0
 11
-121.6060423359075
 21
-77.167786155345937
 31
0.0
  0
LINE
  5
1AE08
  8
SU
  6
CONTINUOUS
 62
     3
 10
-123.4873158693884
 20
-77.367786155345925
 30
0.0
 11
-121.72604233590759
 21
-77.367786155345925
 31
0.0
  0
LINE
  5
1AE09
  8
SU
  6
CONTINUOUS
 62
     3
 10
-123.36731586938851
 20
-77.567786155345942
 30
0.0
 11
-121.8460423359075
 21
-77.567786155345942
 31
0.0
  0
LINE
  5
1AE0A
  8
SU
  6
CONTINUOUS
 62
     3
 10
-123.2473158693885
 20
-77.767786155345931
 30
0.0
 11
-121.9660423359075
 21
-77.767786155345931
 31
0.0
  0
LINE
  5
1AE0B
  8
SU
  6
CONTINUOUS
 62
     3
 10
-123.1273158693884
 20
-77.967786155345948
 30
0.0
 11
-122.08604233590751
 21
-77.967786155345948
 31
0.0
  0
LINE
  5
1AE0C
  8
SU
  6
CONTINUOUS
 62
     3
 10
-123.00731586938841
 20
-78.167786155345937
 30
0.0
 11
-122.2060423359075
 21
-78.167786155345937
 31
0.0
  0
LINE
  5
1AE0D
  8
SU
  6
CONTINUOUS
 62
     3
 10
-122.8873158693884
 20
-78.367786155345925
 30
0.0
 11
-122.3260423359075
 21
-78.367786155345925
 31
0.0
  0
LINE
  5
1AE0E
  8
SU
  6
CONTINUOUS
 62
     3
 10
-122.7673158693884
 20
-78.567786155345942
 30
0.0
 11
-122.44604233590751
 21
-78.567786155345942
 31
0.0
  0
LINE
  5
1AE0F
  8
SU
  6
CONTINUOUS
 62
     3
 10
-122.64731586938839
 20
-78.767786155345931
 30
0.0
 11
-122.5660423359075
 21
-78.767786155345931
 31
0.0
  0
TEXT
  5
1AE10
  8
SU
  6
CONTINUOUS
 62
     3
 10
-138.90667910264671
 20
-62.916463652982017
 30
0.0
 40
4.0
  1
5
 50
90.0
 41
0.8299999999999999
  0
TEXT
  5
1AE11
  8
SU
  6
CONTINUOUS
 62
     3
 10
-138.90667910264671
 20
-74.734560305019059
 30
0.0
 40
4.0
  1
15
 50
90.0
 41
0.8299999999999999
  0
LINE
  5
1AE12
  8
SU
  6
CONTINUOUS
 62
     3
 10
-122.64731586938839
 20
151.59291462593171
 30
0.0
 11
-122.5660423359075
 21
151.59291462593171
 31
0.0
  0
LINE
  5
1AE13
  8
SU
  6
CONTINUOUS
 62
     3
 10
-122.7673158693884
 20
151.39291462593141
 30
0.0
 11
-122.44604233590771
 21
151.39291462593141
 31
0.0
  0
LINE
  5
1AE14
  8
SU
  6
CONTINUOUS
 62
     3
 10
-122.8873158693884
 20
151.19291462593171
 30
0.0
 11
-122.3260423359075
 21
151.19291462593171
 31
0.0
  0
LINE
  5
1AE15
  8
SU
  6
CONTINUOUS
 62
     3
 10
-123.00731586938841
 20
150.99291462593169
 30
0.0
 11
-122.2060423359075
 21
150.99291462593169
 31
0.0
  0
LINE
  5
1AE16
  8
SU
  6
CONTINUOUS
 62
     3
 10
-123.1273158693884
 20
150.79291462593139
 30
0.0
 11
-122.08604233590751
 21
150.79291462593139
 31
0.0
  0
LINE
  5
1AE17
  8
SU
  6
CONTINUOUS
 62
     3
 10
-123.2473158693881
 20
150.59291462593171
 30
0.0
 11
-121.9660423359075
 21
150.59291462593171
 31
0.0
  0
LINE
  5
1AE18
  8
SU
  6
CONTINUOUS
 62
     3
 10
-123.36731586938841
 20
150.39291462593141
 30
0.0
 11
-121.8460423359075
 21
150.39291462593141
 31
0.0
  0
LINE
  5
1AE19
  8
SU
  6
CONTINUOUS
 62
     3
 10
-123.4873158693884
 20
150.19291462593171
 30
0.0
 11
-121.72604233590759
 21
150.19291462593171
 31
0.0
  0
LINE
  5
1AE1A
  8
SU
  6
CONTINUOUS
 62
     3
 10
-123.6073158693884
 20
149.99291462593141
 30
0.0
 11
-121.6060423359075
 21
149.99291462593141
 31
0.0
  0
LINE
  5
1AE1B
  8
SU
  6
CONTINUOUS
 62
     3
 10
-123.72731586938841
 20
149.79291462593139
 30
0.0
 11
-121.4860423359076
 21
149.79291462593139
 31
0.0
  0
LINE
  5
1AE1C
  8
SU
  6
CONTINUOUS
 62
     3
 10
-123.8473158693884
 20
149.59291462593171
 30
0.0
 11
-121.36604233590739
 21
149.59291462593171
 31
0.0
  0
LINE
  5
1AE1D
  8
SU
  6
CONTINUOUS
 62
     3
 10
-123.9673158693884
 20
149.39291462593141
 30
0.0
 11
-121.2460423359075
 21
149.39291462593141
 31
0.0
  0
LINE
  5
1AE1E
  8
SU
  6
CONTINUOUS
 62
     3
 10
-124.08731586938841
 20
149.19291462593171
 30
0.0
 11
-121.1260423359076
 21
149.19291462593171
 31
0.0
  0
LINE
  5
1AE1F
  8
SU
  6
CONTINUOUS
 62
     3
 10
-124.2073158693884
 20
148.99291462593141
 30
0.0
 11
-121.00604233590769
 21
148.99291462593141
 31
0.0
  0
LINE
  5
1AE20
  8
SU
  6
CONTINUOUS
 62
     3
 10
-124.3273158693884
 20
148.79291462593139
 30
0.0
 11
-120.8860423359075
 21
148.79291462593139
 31
0.0
  0
LINE
  5
1AE21
  8
SU
  6
CONTINUOUS
 62
     3
 10
-124.44731586938831
 20
148.59291462593171
 30
0.0
 11
-120.7660423359075
 21
148.59291462593171
 31
0.0
  0
LINE
  5
1AE22
  8
SU
  6
CONTINUOUS
 62
     3
 10
-124.56731586938839
 20
148.39291462593141
 30
0.0
 11
-120.6460423359073
 21
148.39291462593141
 31
0.0
  0
LINE
  5
1AE23
  8
SU
  6
CONTINUOUS
 62
     3
 10
-124.6873158693884
 20
148.19291462593171
 30
0.0
 11
-120.5260423359076
 21
148.19291462593171
 31
0.0
  0
LINE
  5
1AE24
  8
SU
  6
CONTINUOUS
 62
     3
 10
-124.8073158693884
 20
147.99291462593141
 30
0.0
 11
-120.4060423359075
 21
147.99291462593141
 31
0.0
  0
LINE
  5
1AE25
  8
SU
  6
CONTINUOUS
 62
     3
 10
-124.92731586938839
 20
147.7929146259315
 30
0.0
 11
-120.2860423359076
 21
147.7929146259315
 31
0.0
  0
LINE
  5
1AE26
  8
SU
  6
CONTINUOUS
 62
     3
 10
-125.0473158693884
 20
147.59291462593171
 30
0.0
 11
-120.16604233590751
 21
147.59291462593171
 31
0.0
  0
LINE
  5
1AE27
  8
SU
  6
CONTINUOUS
 62
     3
 10
-125.1673158693884
 20
147.39291462593141
 30
0.0
 11
-120.0460423359074
 21
147.39291462593141
 31
0.0
  0
LINE
  5
1AE28
  8
SU
  6
CONTINUOUS
 62
     3
 10
-125.28731586938839
 20
147.19291462593171
 30
0.0
 11
-119.9260423359077
 21
147.19291462593171
 31
0.0
  0
LINE
  5
1AE29
  8
SU
  6
CONTINUOUS
 62
     3
 10
-125.4073158693884
 20
146.99291462593141
 30
0.0
 11
-119.8060423359077
 21
146.99291462593141
 31
0.0
  0
LINE
  5
1AE2A
  8
SU
  6
CONTINUOUS
 62
     3
 10
-125.5273158693884
 20
146.7929146259315
 30
0.0
 11
-119.6860423359074
 21
146.7929146259315
 31
0.0
  0
LINE
  5
1AE2B
  8
SU
  6
CONTINUOUS
 62
     3
 10
-125.64731586938839
 20
146.59291462593171
 30
0.0
 11
-119.5660423359077
 21
146.59291462593171
 31
0.0
  0
LINE
  5
1AE2C
  8
SU
  6
CONTINUOUS
 62
     3
 10
-125.7673158693884
 20
146.39291462593141
 30
0.0
 11
-119.44604233590751
 21
146.39291462593141
 31
0.0
  0
LINE
  5
1AE2D
  8
SU
  6
CONTINUOUS
 62
     3
 10
-125.8873158693882
 20
146.19291462593171
 30
0.0
 11
-119.3260423359076
 21
146.19291462593171
 31
0.0
  0
LINE
  5
1AE2E
  8
SU
  6
CONTINUOUS
 62
     3
 10
-126.00731586938841
 20
145.99291462593141
 30
0.0
 11
-119.2060423359075
 21
145.99291462593141
 31
0.0
  0
LINE
  5
1AE2F
  8
SU
  6
CONTINUOUS
 62
     3
 10
-126.1273158693884
 20
145.7929146259315
 30
0.0
 11
-119.08604233590761
 21
145.7929146259315
 31
0.0
  0
LINE
  5
1AE30
  8
SU
  6
CONTINUOUS
 62
     3
 10
-126.2473158693881
 20
145.59291462593171
 30
0.0
 11
-118.9660423359075
 21
145.59291462593171
 31
0.0
  0
LINE
  5
1AE31
  8
SU
  6
CONTINUOUS
 62
     3
 10
-126.36731586938841
 20
145.39291462593141
 30
0.0
 11
-118.8460423359076
 21
145.39291462593141
 31
0.0
  0
LINE
  5
1AE32
  8
SU
  6
CONTINUOUS
 62
     3
 10
-126.4873158693884
 20
145.19291462593171
 30
0.0
 11
-118.72604233590759
 21
145.19291462593171
 31
0.0
  0
LINE
  5
1AE33
  8
SU
  6
CONTINUOUS
 62
     3
 10
-126.6073158693884
 20
144.99291462593141
 30
0.0
 11
-118.6060423359075
 21
144.99291462593141
 31
0.0
  0
LINE
  5
1AE34
  8
SU
  6
CONTINUOUS
 62
     3
 10
-126.72731586938841
 20
144.7929146259315
 30
0.0
 11
-118.4860423359076
 21
144.7929146259315
 31
0.0
  0
LINE
  5
1AE35
  8
SU
  6
CONTINUOUS
 62
     3
 10
-126.8473158693884
 20
144.59291462593171
 30
0.0
 11
-118.36604233590739
 21
144.59291462593171
 31
0.0
  0
LINE
  5
1AE36
  8
SU
  6
CONTINUOUS
 62
     3
 10
-126.9673158693884
 20
144.39291462593141
 30
0.0
 11
-118.2460423359074
 21
144.39291462593141
 31
0.0
  0
LINE
  5
1AE37
  8
SU
  6
CONTINUOUS
 62
     3
 10
-127.08731586938841
 20
144.19291462593171
 30
0.0
 11
-118.1260423359075
 21
144.19291462593171
 31
0.0
  0
LINE
  5
1AE38
  8
SU
  6
CONTINUOUS
 62
     3
 10
-127.2073158693884
 20
143.99291462593141
 30
0.0
 11
-118.00604233590769
 21
143.99291462593141
 31
0.0
  0
LINE
  5
1AE39
  8
SU
  6
CONTINUOUS
 62
     3
 10
-127.3273158693884
 20
143.79291462593159
 30
0.0
 11
-117.8860423359075
 21
143.79291462593159
 31
0.0
  0
LINE
  5
1AE3A
  8
SU
  6
CONTINUOUS
 62
     3
 10
-127.4473158693884
 20
143.59291462593171
 30
0.0
 11
-117.7660423359075
 21
143.59291462593171
 31
0.0
  0
LINE
  5
1AE3B
  8
SU
  6
CONTINUOUS
 62
     3
 10
-127.56731586938839
 20
143.39291462593141
 30
0.0
 11
-117.64604233590759
 21
143.39291462593141
 31
0.0
  0
LINE
  5
1AE3C
  8
SU
  6
CONTINUOUS
 62
     3
 10
-127.6873158693884
 20
143.19291462593171
 30
0.0
 11
-117.52604233590731
 21
143.19291462593171
 31
0.0
  0
LINE
  5
1AE3D
  8
SU
  6
CONTINUOUS
 62
     3
 10
-127.8073158693884
 20
142.99291462593141
 30
0.0
 11
-117.4060423359076
 21
142.99291462593141
 31
0.0
  0
LINE
  5
1AE3E
  8
SU
  6
CONTINUOUS
 62
     3
 10
-127.92731586938839
 20
142.7929146259315
 30
0.0
 11
-117.2860423359076
 21
142.7929146259315
 31
0.0
  0
LINE
  5
1AE3F
  8
SU
  6
CONTINUOUS
 62
     3
 10
-128.0473158693884
 20
142.59291462593171
 30
0.0
 11
-117.16604233590751
 21
142.59291462593171
 31
0.0
  0
LINE
  5
1AE40
  8
SU
  6
CONTINUOUS
 62
     3
 10
-128.1673158693884
 20
142.39291462593141
 30
0.0
 11
-117.0460423359074
 21
142.39291462593141
 31
0.0
  0
LINE
  5
1AE41
  8
SU
  6
CONTINUOUS
 62
     3
 10
-128.28731586938841
 20
142.19291462593171
 30
0.0
 11
-116.9260423359075
 21
142.19291462593171
 31
0.0
  0
LINE
  5
1AE42
  8
SU
  6
CONTINUOUS
 62
     3
 10
-128.40731586938841
 20
141.99291462593141
 30
0.0
 11
-116.8060423359077
 21
141.99291462593141
 31
0.0
  0
LINE
  5
1AE43
  8
SU
  6
CONTINUOUS
 62
     3
 10
-128.52731586938839
 20
141.7929146259315
 30
0.0
 11
-116.6860423359077
 21
141.7929146259315
 31
0.0
  0
TEXT
  5
1AE44
  8
SU
  6
CONTINUOUS
 62
     3
 10
-138.90667910264679
 20
136.4196901895464
 30
0.0
 40
4.0
  1
24
 50
90.0
 41
0.8299999999999999
  0
TEXT
  5
1AE45
  8
SU
  6
CONTINUOUS
 62
     3
 10
-153.9066791026479
 20
135.55552894146439
 30
0.0
 40
4.0
  1
3
 50
90.0
 41
0.8299999999999999
  0
TEXT
  5
1AE46
  8
SU
  6
CONTINUOUS
 62
     3
 10
-234.08667922071439
 20
-97.53551409992113
 30
0.0
 40
4.0
  1
107
 41
0.8299999999999999
  0
TEXT
  5
1AE47
  8
SU
  6
CONTINUOUS
 62
     3
 10
-375.90667910264801
 20
-64.497417447876259
 30
0.0
 40
4.0
  1
35
 50
90.0
 41
0.8299999999999999
  0
TEXT
  5
1AE48
  8
SU
  6
CONTINUOUS
 62
     3
 10
-315.4685839213052
 20
-97.535514099921286
 30
0.0
 40
4.0
  1
57
 41
0.8299999999999999
  0
LINE
  5
1AE49
  8
SU
  6
CONTINUOUS
 62
     3
 10
-282.60667921615101
 20
-98.835514099921284
 30
0.0
 11
-285.00667921615093
 21
-98.835514099921284
 31
0.0
  0
TEXT
  5
1AE4A
  8
SU
  6
CONTINUOUS
 62
     3
 10
-360.90667910264801
 20
-88.385037909437159
 30
0.0
 40
4.0
  1
15
 50
90.0
 41
0.8299999999999999
  0
TEXT
  5
1AE4B
  8
SU
  6
CONTINUOUS
 62
     3
 10
-360.90667910264801
 20
-56.9974160339344
 30
0.0
 40
4.0
  1
20
 50
90.0
 41
0.8299999999999999
  0
TEXT
  5
1AE4C
  8
SU
  6
CONTINUOUS
 62
     3
 10
-165.66572673082291
 20
-97.535514099920917
 30
0.0
 40
4.0
  1
3
 41
0.8299999999999999
  0
LINE
  5
1AE4D
  8
SU
  6
CONTINUOUS
 62
     3
 10
-175.6066792252785
 20
-98.835514099920942
 30
0.0
 11
-178.0066792252785
 21
-98.835514099920942
 31
0.0
  0
TEXT
  5
1AE4E
  8
SU
  6
CONTINUOUS
 62
     3
 10
-260.61239338836282
 20
72.460642570500184
 30
0.0
 40
4.0
  1
161
 41
0.8299999999999999
  0
TEXT
  5
1AE4F
  8
SU
  6
CONTINUOUS
 62
     3
 10
-256.34763195911512
 20
87.460642570500767
 30
0.0
 40
4.0
  1
24
 41
0.8299999999999999
  0
TEXT
  5
1AE50
  8
SU
  6
CONTINUOUS
 62
     3
 10
-345.99429815026622
 20
72.460642570500184
 30
0.0
 40
4.0
  1
3
 41
0.8299999999999999
  0
TEXT
  5
1AE51
  8
SU
  6
CONTINUOUS
 62
     3
 10
-306.39001205501421
 20
87.460642570500724
 30
0.0
 40
4.0
  1
71.5
 41
0.8299999999999999
  0
TEXT
  5
1AE52
  8
SU
  6
CONTINUOUS
 62
     3
 10
-360.90667910264801
 20
111.74786440540571
 30
0.0
 40
4.0
  1
（20）
 50
90.0
 41
0.8299999999999999
  0
TEXT
  5
1AE53
  8
SU
  6
CONTINUOUS
 62
     3
 10
-169.38096481693341
 20
72.460642570500426
 30
0.0
 40
4.0
  1
3
 41
0.8299999999999999
  0
TEXT
  5
1AE54
  8
SU
  6
CONTINUOUS
 62
     3
 10
-208.26858472275879
 20
87.460642570500511
 30
0.0
 40
4.0
  1
50
 41
0.8299999999999999
  0
TEXT
  5
1AE55
  8
SU
  6
CONTINUOUS
 62
     3
 10
-238.5314427199979
 20
87.460642570500653
 30
0.0
 40
4.0
  1
11
 41
0.8299999999999999
  0
TEXT
  5
1AE56
  8
SU
  6
CONTINUOUS
 62
     3
 10
-172.3809648169335
 20
87.460642570500511
 30
0.0
 40
4.0
  1
4.5
 41
0.8299999999999999
  0
TEXT
  5
1AE57
  8
SU
  6
CONTINUOUS
 62
     3
 10
-123.90667898914521
 20
-171.07795228590479
 30
0.0
 40
4.0
  1
H
 50
90.0
 41
0.8299999999999999
  0
TEXT
  5
1AE58
  8
SU
  6
CONTINUOUS
 62
     3
 10
-138.9066789891437
 20
-177.43319038114311
 30
0.0
 40
4.0
  1
ドアH（DH）
 50
90.0
 41
0.8299999999999999
  0
LINE
  5
1AE59
  8
SU
  6
CONTINUOUS
 62
     3
 10
-128.52731575588561
 20
-208.7952079004925
 30
0.0
 11
-116.68604222240469
 21
-208.7952079004925
 31
0.0
  0
LINE
  5
1AE5A
  8
SU
  6
CONTINUOUS
 62
     3
 10
-128.40731575588541
 20
-208.99520790049249
 30
0.0
 11
-116.8060422224047
 21
-208.99520790049249
 31
0.0
  0
LINE
  5
1AE5B
  8
SU
  6
CONTINUOUS
 62
     3
 10
-128.2873157558856
 20
-209.19520790049231
 30
0.0
 11
-116.9260422224047
 21
-209.19520790049231
 31
0.0
  0
LINE
  5
1AE5C
  8
SU
  6
CONTINUOUS
 62
     3
 10
-128.16731575588571
 20
-209.39520790049241
 30
0.0
 11
-117.04604222240479
 21
-209.39520790049241
 31
0.0
  0
LINE
  5
1AE5D
  8
SU
  6
CONTINUOUS
 62
     3
 10
-128.04731575588571
 20
-209.59520790049231
 30
0.0
 11
-117.1660422224048
 21
-209.59520790049231
 31
0.0
  0
LINE
  5
1AE5E
  8
SU
  6
CONTINUOUS
 62
     3
 10
-127.9273157558856
 20
-209.7952079004925
 30
0.0
 11
-117.2860422224047
 21
-209.7952079004925
 31
0.0
  0
LINE
  5
1AE5F
  8
SU
  6
CONTINUOUS
 62
     3
 10
-127.8073157558857
 20
-209.99520790049229
 30
0.0
 11
-117.40604222240481
 21
-209.99520790049229
 31
0.0
  0
LINE
  5
1AE60
  8
SU
  6
CONTINUOUS
 62
     3
 10
-127.68731575588561
 20
-210.19520790049231
 30
0.0
 11
-117.5260422224047
 21
-210.19520790049231
 31
0.0
  0
LINE
  5
1AE61
  8
SU
  6
CONTINUOUS
 62
     3
 10
-127.5673157558856
 20
-210.3952079004923
 30
0.0
 11
-117.6460422224048
 21
-210.3952079004923
 31
0.0
  0
LINE
  5
1AE62
  8
SU
  6
CONTINUOUS
 62
     3
 10
-127.4473157558855
 20
-210.5952079004924
 30
0.0
 11
-117.76604222240481
 21
-210.5952079004924
 31
0.0
  0
LINE
  5
1AE63
  8
SU
  6
CONTINUOUS
 62
     3
 10
-127.32731575588561
 20
-210.7952079004925
 30
0.0
 11
-117.8860422224048
 21
-210.7952079004925
 31
0.0
  0
LINE
  5
1AE64
  8
SU
  6
CONTINUOUS
 62
     3
 10
-127.2073157558855
 20
-210.99520790049249
 30
0.0
 11
-118.0060422224048
 21
-210.99520790049249
 31
0.0
  0
LINE
  5
1AE65
  8
SU
  6
CONTINUOUS
 62
     3
 10
-127.0873157558856
 20
-211.19520790049231
 30
0.0
 11
-118.12604222240481
 21
-211.19520790049231
 31
0.0
  0
LINE
  5
1AE66
  8
SU
  6
CONTINUOUS
 62
     3
 10
-126.96731575588559
 20
-211.39520790049241
 30
0.0
 11
-118.2460422224048
 21
-211.39520790049241
 31
0.0
  0
LINE
  5
1AE67
  8
SU
  6
CONTINUOUS
 62
     3
 10
-126.8473157558856
 20
-211.59520790049231
 30
0.0
 11
-118.3660422224048
 21
-211.59520790049231
 31
0.0
  0
LINE
  5
1AE68
  8
SU
  6
CONTINUOUS
 62
     3
 10
-126.7273157558856
 20
-211.7952079004925
 30
0.0
 11
-118.48604222240471
 21
-211.7952079004925
 31
0.0
  0
LINE
  5
1AE69
  8
SU
  6
CONTINUOUS
 62
     3
 10
-126.60731575588539
 20
-211.99520790049229
 30
0.0
 11
-118.6060422224048
 21
-211.99520790049229
 31
0.0
  0
LINE
  5
1AE6A
  8
SU
  6
CONTINUOUS
 62
     3
 10
-126.4873157558856
 20
-212.19520790049231
 30
0.0
 11
-118.7260422224047
 21
-212.19520790049231
 31
0.0
  0
LINE
  5
1AE6B
  8
SU
  6
CONTINUOUS
 62
     3
 10
-126.3673157558857
 20
-212.3952079004923
 30
0.0
 11
-118.8460422224048
 21
-212.3952079004923
 31
0.0
  0
LINE
  5
1AE6C
  8
SU
  6
CONTINUOUS
 62
     3
 10
-126.24731575588569
 20
-212.5952079004924
 30
0.0
 11
-118.96604222240479
 21
-212.5952079004924
 31
0.0
  0
LINE
  5
1AE6D
  8
SU
  6
CONTINUOUS
 62
     3
 10
-126.1273157558856
 20
-212.7952079004925
 30
0.0
 11
-119.0860422224047
 21
-212.7952079004925
 31
0.0
  0
LINE
  5
1AE6E
  8
SU
  6
CONTINUOUS
 62
     3
 10
-126.0073157558855
 20
-212.99520790049249
 30
0.0
 11
-119.2060422224048
 21
-212.99520790049249
 31
0.0
  0
LINE
  5
1AE6F
  8
SU
  6
CONTINUOUS
 62
     3
 10
-125.8873157558855
 20
-213.19520790049239
 30
0.0
 11
-119.32604222240479
 21
-213.19520790049239
 31
0.0
  0
LINE
  5
1AE70
  8
SU
  6
CONTINUOUS
 62
     3
 10
-125.7673157558856
 20
-213.39520790049241
 30
0.0
 11
-119.4460422224048
 21
-213.39520790049241
 31
0.0
  0
LINE
  5
1AE71
  8
SU
  6
CONTINUOUS
 62
     3
 10
-125.6473157558856
 20
-213.5952079004924
 30
0.0
 11
-119.5660422224048
 21
-213.5952079004924
 31
0.0
  0
LINE
  5
1AE72
  8
SU
  6
CONTINUOUS
 62
     3
 10
-125.5273157558856
 20
-213.7952079004925
 30
0.0
 11
-119.68604222240479
 21
-213.7952079004925
 31
0.0
  0
LINE
  5
1AE73
  8
SU
  6
CONTINUOUS
 62
     3
 10
-125.40731575588561
 20
-213.9952079004924
 30
0.0
 11
-119.8060422224047
 21
-213.9952079004924
 31
0.0
  0
LINE
  5
1AE74
  8
SU
  6
CONTINUOUS
 62
     3
 10
-125.2873157558856
 20
-214.19520790049231
 30
0.0
 11
-119.9260422224047
 21
-214.19520790049231
 31
0.0
  0
LINE
  5
1AE75
  8
SU
  6
CONTINUOUS
 62
     3
 10
-125.1673157558855
 20
-214.39520790049241
 30
0.0
 11
-120.04604222240479
 21
-214.39520790049241
 31
0.0
  0
LINE
  5
1AE76
  8
SU
  6
CONTINUOUS
 62
     3
 10
-125.04731575588571
 20
-214.5952079004924
 30
0.0
 11
-120.1660422224047
 21
-214.5952079004924
 31
0.0
  0
LINE
  5
1AE77
  8
SU
  6
CONTINUOUS
 62
     3
 10
-124.9273157558856
 20
-214.7952079004925
 30
0.0
 11
-120.2860422224047
 21
-214.7952079004925
 31
0.0
  0
LINE
  5
1AE78
  8
SU
  6
CONTINUOUS
 62
     3
 10
-124.8073157558857
 20
-214.99520790049249
 30
0.0
 11
-120.40604222240481
 21
-214.99520790049249
 31
0.0
  0
LINE
  5
1AE79
  8
SU
  6
CONTINUOUS
 62
     3
 10
-124.68731575588561
 20
-215.19520790049239
 30
0.0
 11
-120.5260422224047
 21
-215.19520790049239
 31
0.0
  0
LINE
  5
1AE7A
  8
SU
  6
CONTINUOUS
 62
     3
 10
-124.5673157558855
 20
-215.39520790049241
 30
0.0
 11
-120.6460422224048
 21
-215.39520790049241
 31
0.0
  0
LINE
  5
1AE7B
  8
SU
  6
CONTINUOUS
 62
     3
 10
-124.4473157558855
 20
-215.5952079004924
 30
0.0
 11
-120.76604222240481
 21
-215.5952079004924
 31
0.0
  0
LINE
  5
1AE7C
  8
SU
  6
CONTINUOUS
 62
     3
 10
-124.32731575588561
 20
-215.7952079004925
 30
0.0
 11
-120.8860422224048
 21
-215.7952079004925
 31
0.0
  0
LINE
  5
1AE7D
  8
SU
  6
CONTINUOUS
 62
     3
 10
-124.2073157558855
 20
-215.9952079004924
 30
0.0
 11
-121.0060422224048
 21
-215.9952079004924
 31
0.0
  0
LINE
  5
1AE7E
  8
SU
  6
CONTINUOUS
 62
     3
 10
-124.0873157558856
 20
-216.19520790049231
 30
0.0
 11
-121.12604222240481
 21
-216.19520790049231
 31
0.0
  0
LINE
  5
1AE7F
  8
SU
  6
CONTINUOUS
 62
     3
 10
-123.96731575588559
 20
-216.39520790049241
 30
0.0
 11
-121.2460422224048
 21
-216.39520790049241
 31
0.0
  0
LINE
  5
1AE80
  8
SU
  6
CONTINUOUS
 62
     3
 10
-123.8473157558856
 20
-216.59520790049231
 30
0.0
 11
-121.3660422224048
 21
-216.59520790049231
 31
0.0
  0
LINE
  5
1AE81
  8
SU
  6
CONTINUOUS
 62
     3
 10
-123.7273157558856
 20
-216.7952079004925
 30
0.0
 11
-121.48604222240471
 21
-216.7952079004925
 31
0.0
  0
LINE
  5
1AE82
  8
SU
  6
CONTINUOUS
 62
     3
 10
-123.60731575588539
 20
-216.99520790049249
 30
0.0
 11
-121.6060422224048
 21
-216.99520790049249
 31
0.0
  0
LINE
  5
1AE83
  8
SU
  6
CONTINUOUS
 62
     3
 10
-123.4873157558856
 20
-217.19520790049239
 30
0.0
 11
-121.7260422224047
 21
-217.19520790049239
 31
0.0
  0
LINE
  5
1AE84
  8
SU
  6
CONTINUOUS
 62
     3
 10
-123.3673157558857
 20
-217.39520790049241
 30
0.0
 11
-121.8460422224048
 21
-217.39520790049241
 31
0.0
  0
LINE
  5
1AE85
  8
SU
  6
CONTINUOUS
 62
     3
 10
-123.24731575588569
 20
-217.5952079004924
 30
0.0
 11
-121.96604222240479
 21
-217.5952079004924
 31
0.0
  0
LINE
  5
1AE86
  8
SU
  6
CONTINUOUS
 62
     3
 10
-123.1273157558856
 20
-217.7952079004925
 30
0.0
 11
-122.0860422224048
 21
-217.7952079004925
 31
0.0
  0
LINE
  5
1AE87
  8
SU
  6
CONTINUOUS
 62
     3
 10
-123.0073157558855
 20
-217.9952079004924
 30
0.0
 11
-122.2060422224048
 21
-217.9952079004924
 31
0.0
  0
LINE
  5
1AE88
  8
SU
  6
CONTINUOUS
 62
     3
 10
-122.8873157558856
 20
-218.19520790049231
 30
0.0
 11
-122.32604222240479
 21
-218.19520790049231
 31
0.0
  0
LINE
  5
1AE89
  8
SU
  6
CONTINUOUS
 62
     3
 10
-122.76731575588551
 20
-218.39520790049241
 30
0.0
 11
-122.4460422224048
 21
-218.39520790049241
 31
0.0
  0
LINE
  5
1AE8A
  8
SU
  6
CONTINUOUS
 62
     3
 10
-122.6473157558856
 20
-218.59520790049231
 30
0.0
 11
-122.5660422224048
 21
-218.59520790049231
 31
0.0
  0
TEXT
  5
1AE8B
  8
SU
  6
CONTINUOUS
 62
     3
 10
-123.90667898914521
 20
-228.06198346410781
 30
0.0
 40
4.0
  1
12
 50
90.0
 41
0.8299999999999999
  0
TEXT
  5
1AE8C
  8
SU
  6
CONTINUOUS
 62
     3
 10
-138.9066789891439
 20
-216.24388822601239
 30
0.0
 40
4.0
  1
8
 50
90.0
 41
0.8299999999999999
  0
TEXT
  5
1AE8D
  8
SU
  6
CONTINUOUS
 62
     3
 10
100.3242157861899
 20
-16.733364847754132
 30
0.0
 40
4.0
  1
24
 50
90.0
 41
0.8299999999999999
  0
TEXT
  5
1AE8E
  8
SU
  6
CONTINUOUS
 62
     3
 10
160.7270729290471
 20
-166.19241294205
 30
0.0
 40
4.0
  1
W
 41
0.8299999999999999
  0
TEXT
  5
1AE8F
  8
SU
  6
CONTINUOUS
 62
     3
 10
252.77850148488881
 20
-136.19241294205
 30
0.0
 40
4.0
  1
4
 41
0.8299999999999999
  0
TEXT
  5
1AE90
  8
SU
  6
CONTINUOUS
 62
     3
 10
141.10745388142811
 20
-151.19241294204991
 30
0.0
 40
4.0
  1
ドアW（DW）＝W-56
 41
0.8299999999999999
  0
TEXT
  5
1AE91
  8
SU
  6
CONTINUOUS
 62
     3
 10
69.1499300874911
 20
-136.19241294205
 30
0.0
 40
4.0
  1
4
 41
0.8299999999999999
  0
TEXT
  5
1AE92
  8
SU
  6
CONTINUOUS
 62
     3
 10
46.383263413030967
 20
-151.19241294204991
 30
0.0
 40
4.0
  1
24
 41
0.8299999999999999
  0
LINE
  5
1AE93
  8
SU
  6
CONTINUOUS
 62
     3
 10
37.691943730757252
 20
-167.5330497087902
 30
0.0
 11
37.691943730757252
 21
-167.4517761753095
 31
0.0
  0
LINE
  5
1AE94
  8
SU
  6
CONTINUOUS
 62
     3
 10
37.891943730757248
 20
-167.65304970879001
 30
0.0
 11
37.891943730757248
 21
-167.33177617530961
 31
0.0
  0
LINE
  5
1AE95
  8
SU
  6
CONTINUOUS
 62
     3
 10
38.091943730757272
 20
-167.77304970879041
 30
0.0
 11
38.091943730757272
 21
-167.21177617530961
 31
0.0
  0
LINE
  5
1AE96
  8
SU
  6
CONTINUOUS
 62
     3
 10
38.291943730757261
 20
-167.8930497087903
 30
0.0
 11
38.291943730757261
 21
-167.0917761753096
 31
0.0
  0
LINE
  5
1AE97
  8
SU
  6
CONTINUOUS
 62
     3
 10
38.491943730757249
 20
-168.01304970879031
 30
0.0
 11
38.491943730757249
 21
-166.9717761753096
 31
0.0
  0
LINE
  5
1AE98
  8
SU
  6
CONTINUOUS
 62
     3
 10
38.691943730757266
 20
-168.13304970879031
 30
0.0
 11
38.691943730757266
 21
-166.85177617530951
 31
0.0
  0
LINE
  5
1AE99
  8
SU
  6
CONTINUOUS
 62
     3
 10
38.891943730757241
 20
-168.2530497087904
 30
0.0
 11
38.891943730757241
 21
-166.73177617530951
 31
0.0
  0
LINE
  5
1AE9A
  8
SU
  6
CONTINUOUS
 62
     3
 10
39.091943730757272
 20
-168.3730497087904
 30
0.0
 11
39.091943730757272
 21
-166.61177617530959
 31
0.0
  0
LINE
  5
1AE9B
  8
SU
  6
CONTINUOUS
 62
     3
 10
39.291943730757268
 20
-168.49304970879041
 30
0.0
 11
39.291943730757268
 21
-166.49177617530961
 31
0.0
  0
LINE
  5
1AE9C
  8
SU
  6
CONTINUOUS
 62
     3
 10
39.491943730757249
 20
-168.6130497087903
 30
0.0
 11
39.491943730757249
 21
-166.37177617530961
 31
0.0
  0
LINE
  5
1AE9D
  8
SU
  6
CONTINUOUS
 62
     3
 10
39.691943730757252
 20
-168.7330497087903
 30
0.0
 11
39.691943730757252
 21
-166.25177617530929
 31
0.0
  0
LINE
  5
1AE9E
  8
SU
  6
CONTINUOUS
 62
     3
 10
39.891943730757241
 20
-168.85304970879039
 30
0.0
 11
39.891943730757241
 21
-166.1317761753096
 31
0.0
  0
LINE
  5
1AE9F
  8
SU
  6
CONTINUOUS
 62
     3
 10
40.091943730757272
 20
-168.9730497087904
 30
0.0
 11
40.091943730757272
 21
-166.01177617530951
 31
0.0
  0
LINE
  5
1AEA0
  8
SU
  6
CONTINUOUS
 62
     3
 10
40.291943730757282
 20
-169.09304970879009
 30
0.0
 11
40.291943730757282
 21
-165.8917761753095
 31
0.0
  0
LINE
  5
1AEA1
  8
SU
  6
CONTINUOUS
 62
     3
 10
40.491943730757242
 20
-169.21304970879041
 30
0.0
 11
40.491943730757242
 21
-165.77177617530961
 31
0.0
  0
LINE
  5
1AEA2
  8
SU
  6
CONTINUOUS
 62
     3
 10
40.691943730757266
 20
-169.3330497087903
 30
0.0
 11
40.691943730757266
 21
-165.65177617530961
 31
0.0
  0
LINE
  5
1AEA3
  8
SU
  6
CONTINUOUS
 62
     3
 10
40.891943730757241
 20
-169.4530497087903
 30
0.0
 11
40.891943730757241
 21
-165.5317761753096
 31
0.0
  0
LINE
  5
1AEA4
  8
SU
  6
CONTINUOUS
 62
     3
 10
41.091943730757272
 20
-169.57304970879031
 30
0.0
 11
41.091943730757272
 21
-165.41177617530951
 31
0.0
  0
LINE
  5
1AEA5
  8
SU
  6
CONTINUOUS
 62
     3
 10
41.291943730757247
 20
-169.6930497087904
 30
0.0
 11
41.291943730757247
 21
-165.29177617530951
 31
0.0
  0
LINE
  5
1AEA6
  8
SU
  6
CONTINUOUS
 62
     3
 10
41.491943730757249
 20
-169.8130497087904
 30
0.0
 11
41.491943730757249
 21
-165.1717761753095
 31
0.0
  0
LINE
  5
1AEA7
  8
SU
  6
CONTINUOUS
 62
     3
 10
41.691943730757252
 20
-169.93304970879041
 30
0.0
 11
41.691943730757252
 21
-165.05177617530961
 31
0.0
  0
LINE
  5
1AEA8
  8
SU
  6
CONTINUOUS
 62
     3
 10
41.891943730757241
 20
-170.05304970879041
 30
0.0
 11
41.891943730757241
 21
-164.93177617530961
 31
0.0
  0
LINE
  5
1AEA9
  8
SU
  6
CONTINUOUS
 62
     3
 10
42.091943730757272
 20
-170.1730497087903
 30
0.0
 11
42.091943730757272
 21
-164.8117761753096
 31
0.0
  0
LINE
  5
1AEAA
  8
SU
  6
CONTINUOUS
 62
     3
 10
42.291943730757268
 20
-170.29304970879039
 30
0.0
 11
42.291943730757268
 21
-164.6917761753096
 31
0.0
  0
LINE
  5
1AEAB
  8
SU
  6
CONTINUOUS
 62
     3
 10
42.491943730757249
 20
-170.4130497087904
 30
0.0
 11
42.491943730757249
 21
-164.57177617530959
 31
0.0
  0
LINE
  5
1AEAC
  8
SU
  6
CONTINUOUS
 62
     3
 10
42.691943730757252
 20
-170.5330497087904
 30
0.0
 11
42.691943730757252
 21
-164.4517761753095
 31
0.0
  0
LINE
  5
1AEAD
  8
SU
  6
CONTINUOUS
 62
     3
 10
42.891943730757262
 20
-170.65304970879041
 30
0.0
 11
42.891943730757262
 21
-164.33177617530961
 31
0.0
  0
LINE
  5
1AEAE
  8
SU
  6
CONTINUOUS
 62
     3
 10
43.091943730757272
 20
-170.77304970879041
 30
0.0
 11
43.091943730757272
 21
-164.21177617530961
 31
0.0
  0
LINE
  5
1AEAF
  8
SU
  6
CONTINUOUS
 62
     3
 10
43.291943730757261
 20
-170.8930497087903
 30
0.0
 11
43.291943730757261
 21
-164.0917761753096
 31
0.0
  0
LINE
  5
1AEB0
  8
SU
  6
CONTINUOUS
 62
     3
 10
43.491943730757242
 20
-171.01304970879031
 30
0.0
 11
43.491943730757242
 21
-163.9717761753096
 31
0.0
  0
LINE
  5
1AEB1
  8
SU
  6
CONTINUOUS
 62
     3
 10
43.691943730757266
 20
-171.13304970879031
 30
0.0
 11
43.691943730757266
 21
-163.85177617530951
 31
0.0
  0
LINE
  5
1AEB2
  8
SU
  6
CONTINUOUS
 62
     3
 10
43.891943730757241
 20
-171.2530497087904
 30
0.0
 11
43.891943730757241
 21
-163.73177617530951
 31
0.0
  0
LINE
  5
1AEB3
  8
SU
  6
CONTINUOUS
 62
     3
 10
44.091943730757272
 20
-171.3730497087904
 30
0.0
 11
44.091943730757272
 21
-163.61177617530959
 31
0.0
  0
LINE
  5
1AEB4
  8
SU
  6
CONTINUOUS
 62
     3
 10
44.291943730757261
 20
-171.49304970879041
 30
0.0
 11
44.291943730757261
 21
-163.49177617530961
 31
0.0
  0
LINE
  5
1AEB5
  8
SU
  6
CONTINUOUS
 62
     3
 10
44.491943730757249
 20
-171.6130497087903
 30
0.0
 11
44.491943730757249
 21
-163.37177617530961
 31
0.0
  0
LINE
  5
1AEB6
  8
SU
  6
CONTINUOUS
 62
     3
 10
44.691943730757238
 20
-171.7330497087903
 30
0.0
 11
44.691943730757238
 21
-163.2517761753096
 31
0.0
  0
LINE
  5
1AEB7
  8
SU
  6
CONTINUOUS
 62
     3
 10
44.891943730757248
 20
-171.85304970879039
 30
0.0
 11
44.891943730757248
 21
-163.1317761753096
 31
0.0
  0
LINE
  5
1AEB8
  8
SU
  6
CONTINUOUS
 62
     3
 10
45.091943730757272
 20
-171.97304970879031
 30
0.0
 11
45.091943730757272
 21
-163.01177617530951
 31
0.0
  0
LINE
  5
1AEB9
  8
SU
  6
CONTINUOUS
 62
     3
 10
45.291943730757239
 20
-172.0930497087904
 30
0.0
 11
45.291943730757239
 21
-162.89177617530939
 31
0.0
  0
LINE
  5
1AEBA
  8
SU
  6
CONTINUOUS
 62
     3
 10
45.491943730757242
 20
-172.21304970879041
 30
0.0
 11
45.491943730757242
 21
-162.77177617530961
 31
0.0
  0
LINE
  5
1AEBB
  8
SU
  6
CONTINUOUS
 62
     3
 10
45.691943730757266
 20
-172.3330497087903
 30
0.0
 11
45.691943730757266
 21
-162.65177617530961
 31
0.0
  0
LINE
  5
1AEBC
  8
SU
  6
CONTINUOUS
 62
     3
 10
45.891943730757241
 20
-172.4530497087903
 30
0.0
 11
45.891943730757241
 21
-162.5317761753096
 31
0.0
  0
LINE
  5
1AEBD
  8
SU
  6
CONTINUOUS
 62
     3
 10
46.091943730757272
 20
-172.57304970879031
 30
0.0
 11
46.091943730757272
 21
-162.4117761753096
 31
0.0
  0
LINE
  5
1AEBE
  8
SU
  6
CONTINUOUS
 62
     3
 10
46.291943730757247
 20
-172.6930497087904
 30
0.0
 11
46.291943730757247
 21
-162.29177617530951
 31
0.0
  0
LINE
  5
1AEBF
  8
SU
  6
CONTINUOUS
 62
     3
 10
46.491943730757249
 20
-172.8130497087904
 30
0.0
 11
46.491943730757249
 21
-162.17177617530959
 31
0.0
  0
LINE
  5
1AEC0
  8
SU
  6
CONTINUOUS
 62
     3
 10
46.691943730757252
 20
-172.93304970879041
 30
0.0
 11
46.691943730757252
 21
-162.05177617530961
 31
0.0
  0
LINE
  5
1AEC1
  8
SU
  6
CONTINUOUS
 62
     3
 10
46.891943730757241
 20
-173.05304970879041
 30
0.0
 11
46.891943730757241
 21
-161.93177617530961
 31
0.0
  0
LINE
  5
1AEC2
  8
SU
  6
CONTINUOUS
 62
     3
 10
47.091943730757272
 20
-173.1730497087903
 30
0.0
 11
47.091943730757272
 21
-161.8117761753094
 31
0.0
  0
LINE
  5
1AEC3
  8
SU
  6
CONTINUOUS
 62
     3
 10
47.291943730757239
 20
-173.29304970879031
 30
0.0
 11
47.291943730757239
 21
-161.6917761753096
 31
0.0
  0
LINE
  5
1AEC4
  8
SU
  6
CONTINUOUS
 62
     3
 10
47.491943730757249
 20
-173.41304970879031
 30
0.0
 11
47.491943730757249
 21
-161.57177617530959
 31
0.0
  0
TEXT
  5
1AEC5
  8
SU
  6
CONTINUOUS
 62
     3
 10
100.3242157861899
 20
-105.12288913254091
 30
0.0
 40
4.0
  1
7.5
 50
90.0
 41
0.8299999999999999
  0
TEXT
  5
1AEC6
  8
SU
  6
CONTINUOUS
 62
     3
 10
100.3242157861899
 20
-64.654316847730442
 30
0.0
 40
4.0
  1
50
 50
90.0
 41
0.8299999999999999
  0
TEXT
  5
1AEC7
  8
SU
  6
CONTINUOUS
 62
     3
 10
100.3242157861899
 20
-33.917173134364582
 30
0.0
 40
4.0
  1
11
 50
90.0
 41
0.8299999999999999
  0
TEXT
  5
1AEC8
  8
SU
  6
CONTINUOUS
 62
     3
 10
272.38326339744413
 20
-151.19241294204991
 30
0.0
 40
4.0
  1
24
 41
0.8299999999999999
  0
LINE
  5
1AEC9
  8
SU
  6
CONTINUOUS
 62
     3
 10
277.7564878416228
 20
-173.41304970879031
 30
0.0
 11
277.7564878416228
 21
-161.57177617530959
 31
0.0
  0
LINE
  5
1AECA
  8
SU
  6
CONTINUOUS
 62
     3
 10
277.95648784162267
 20
-173.29304970879031
 30
0.0
 11
277.95648784162267
 21
-161.6917761753096
 31
0.0
  0
LINE
  5
1AECB
  8
SU
  6
CONTINUOUS
 62
     3
 10
278.15648784162278
 20
-173.1730497087903
 30
0.0
 11
278.15648784162278
 21
-161.8117761753094
 31
0.0
  0
LINE
  5
1AECC
  8
SU
  6
CONTINUOUS
 62
     3
 10
278.35648784162282
 20
-173.0530497087903
 30
0.0
 11
278.35648784162282
 21
-161.93177617530961
 31
0.0
  0
LINE
  5
1AECD
  8
SU
  6
CONTINUOUS
 62
     3
 10
278.55648784162281
 20
-172.93304970879001
 30
0.0
 11
278.55648784162281
 21
-162.0517761753097
 31
0.0
  0
LINE
  5
1AECE
  8
SU
  6
CONTINUOUS
 62
     3
 10
278.75648784162269
 20
-172.81304970879029
 30
0.0
 11
278.75648784162269
 21
-162.1717761753097
 31
0.0
  0
LINE
  5
1AECF
  8
SU
  6
CONTINUOUS
 62
     3
 10
278.95648784162279
 20
-172.6930497087904
 30
0.0
 11
278.95648784162279
 21
-162.29177617530971
 31
0.0
  0
LINE
  5
1AED0
  8
SU
  6
CONTINUOUS
 62
     3
 10
279.15648784162278
 20
-172.57304970879031
 30
0.0
 11
279.15648784162278
 21
-162.4117761753096
 31
0.0
  0
LINE
  5
1AED1
  8
SU
  6
CONTINUOUS
 62
     3
 10
279.35648784162288
 20
-172.4530497087903
 30
0.0
 11
279.35648784162288
 21
-162.5317761753096
 31
0.0
  0
LINE
  5
1AED2
  8
SU
  6
CONTINUOUS
 62
     3
 10
279.55648784162281
 20
-172.3330497087903
 30
0.0
 11
279.55648784162281
 21
-162.65177617530961
 31
0.0
  0
LINE
  5
1AED3
  8
SU
  6
CONTINUOUS
 62
     3
 10
279.7564878416228
 20
-172.21304970879041
 30
0.0
 11
279.7564878416228
 21
-162.77177617530961
 31
0.0
  0
LINE
  5
1AED4
  8
SU
  6
CONTINUOUS
 62
     3
 10
279.95648784162262
 20
-172.0930497087904
 30
0.0
 11
279.95648784162262
 21
-162.89177617530939
 31
0.0
  0
LINE
  5
1AED5
  8
SU
  6
CONTINUOUS
 62
     3
 10
280.15648784162278
 20
-171.97304970879031
 30
0.0
 11
280.15648784162278
 21
-163.01177617530951
 31
0.0
  0
LINE
  5
1AED6
  8
SU
  6
CONTINUOUS
 62
     3
 10
280.35648784162282
 20
-171.85304970879039
 30
0.0
 11
280.35648784162282
 21
-163.1317761753096
 31
0.0
  0
LINE
  5
1AED7
  8
SU
  6
CONTINUOUS
 62
     3
 10
280.55648784162281
 20
-171.7330497087903
 30
0.0
 11
280.55648784162281
 21
-163.2517761753096
 31
0.0
  0
LINE
  5
1AED8
  8
SU
  6
CONTINUOUS
 62
     3
 10
280.75648784162269
 20
-171.6130497087903
 30
0.0
 11
280.75648784162269
 21
-163.37177617530961
 31
0.0
  0
LINE
  5
1AED9
  8
SU
  6
CONTINUOUS
 62
     3
 10
280.95648784162279
 20
-171.49304970879001
 30
0.0
 11
280.95648784162279
 21
-163.49177617530961
 31
0.0
  0
LINE
  5
1AEDA
  8
SU
  6
CONTINUOUS
 62
     3
 10
281.15648784162278
 20
-171.37304970879029
 30
0.0
 11
281.15648784162278
 21
-163.6117761753097
 31
0.0
  0
LINE
  5
1AEDB
  8
SU
  6
CONTINUOUS
 62
     3
 10
281.35648784162288
 20
-171.2530497087902
 30
0.0
 11
281.35648784162288
 21
-163.7317761753097
 31
0.0
  0
LINE
  5
1AEDC
  8
SU
  6
CONTINUOUS
 62
     3
 10
281.55648784162281
 20
-171.13304970879031
 30
0.0
 11
281.55648784162281
 21
-163.85177617530971
 31
0.0
  0
LINE
  5
1AEDD
  8
SU
  6
CONTINUOUS
 62
     3
 10
281.7564878416228
 20
-171.01304970879031
 30
0.0
 11
281.7564878416228
 21
-163.97177617530971
 31
0.0
  0
LINE
  5
1AEDE
  8
SU
  6
CONTINUOUS
 62
     3
 10
281.95648784162279
 20
-170.8930497087903
 30
0.0
 11
281.95648784162279
 21
-164.09177617530969
 31
0.0
  0
LINE
  5
1AEDF
  8
SU
  6
CONTINUOUS
 62
     3
 10
282.15648784162278
 20
-170.7730497087903
 30
0.0
 11
282.15648784162278
 21
-164.21177617530961
 31
0.0
  0
LINE
  5
1AEE0
  8
SU
  6
CONTINUOUS
 62
     3
 10
282.35648784162282
 20
-170.65304970879001
 30
0.0
 11
282.35648784162282
 21
-164.33177617530961
 31
0.0
  0
LINE
  5
1AEE1
  8
SU
  6
CONTINUOUS
 62
     3
 10
282.55648784162281
 20
-170.53304970879
 30
0.0
 11
282.55648784162281
 21
-164.4517761753097
 31
0.0
  0
LINE
  5
1AEE2
  8
SU
  6
CONTINUOUS
 62
     3
 10
282.75648784162269
 20
-170.4130497087904
 30
0.0
 11
282.75648784162269
 21
-164.57177617530971
 31
0.0
  0
LINE
  5
1AEE3
  8
SU
  6
CONTINUOUS
 62
     3
 10
282.95648784162262
 20
-170.29304970879039
 30
0.0
 11
282.95648784162262
 21
-164.6917761753096
 31
0.0
  0
LINE
  5
1AEE4
  8
SU
  6
CONTINUOUS
 62
     3
 10
283.15648784162278
 20
-170.1730497087903
 30
0.0
 11
283.15648784162278
 21
-164.8117761753096
 31
0.0
  0
LINE
  5
1AEE5
  8
SU
  6
CONTINUOUS
 62
     3
 10
283.35648784162288
 20
-170.0530497087903
 30
0.0
 11
283.35648784162288
 21
-164.93177617530961
 31
0.0
  0
LINE
  5
1AEE6
  8
SU
  6
CONTINUOUS
 62
     3
 10
283.55648784162281
 20
-169.93304970879029
 30
0.0
 11
283.55648784162281
 21
-165.0517761753097
 31
0.0
  0
LINE
  5
1AEE7
  8
SU
  6
CONTINUOUS
 62
     3
 10
283.7564878416228
 20
-169.81304970879029
 30
0.0
 11
283.7564878416228
 21
-165.1717761753097
 31
0.0
  0
LINE
  5
1AEE8
  8
SU
  6
CONTINUOUS
 62
     3
 10
283.95648784162262
 20
-169.6930497087904
 30
0.0
 11
283.95648784162262
 21
-165.29177617530971
 31
0.0
  0
LINE
  5
1AEE9
  8
SU
  6
CONTINUOUS
 62
     3
 10
284.15648784162278
 20
-169.57304970879031
 30
0.0
 11
284.15648784162278
 21
-165.41177617530951
 31
0.0
  0
LINE
  5
1AEEA
  8
SU
  6
CONTINUOUS
 62
     3
 10
284.35648784162282
 20
-169.4530497087903
 30
0.0
 11
284.35648784162282
 21
-165.5317761753096
 31
0.0
  0
LINE
  5
1AEEB
  8
SU
  6
CONTINUOUS
 62
     3
 10
284.55648784162281
 20
-169.3330497087903
 30
0.0
 11
284.55648784162281
 21
-165.65177617530961
 31
0.0
  0
LINE
  5
1AEEC
  8
SU
  6
CONTINUOUS
 62
     3
 10
284.75648784162269
 20
-169.21304970879041
 30
0.0
 11
284.75648784162269
 21
-165.77177617530961
 31
0.0
  0
LINE
  5
1AEED
  8
SU
  6
CONTINUOUS
 62
     3
 10
284.95648784162262
 20
-169.09304970879001
 30
0.0
 11
284.95648784162262
 21
-165.8917761753095
 31
0.0
  0
LINE
  5
1AEEE
  8
SU
  6
CONTINUOUS
 62
     3
 10
285.15648784162278
 20
-168.9730497087904
 30
0.0
 11
285.15648784162278
 21
-166.01177617530951
 31
0.0
  0
LINE
  5
1AEEF
  8
SU
  6
CONTINUOUS
 62
     3
 10
285.35648784162282
 20
-168.85304970879039
 30
0.0
 11
285.35648784162282
 21
-166.1317761753096
 31
0.0
  0
LINE
  5
1AEF0
  8
SU
  6
CONTINUOUS
 62
     3
 10
285.5564878416227
 20
-168.7330497087903
 30
0.0
 11
285.5564878416227
 21
-166.25177617530929
 31
0.0
  0
LINE
  5
1AEF1
  8
SU
  6
CONTINUOUS
 62
     3
 10
285.7564878416228
 20
-168.6130497087903
 30
0.0
 11
285.7564878416228
 21
-166.37177617530961
 31
0.0
  0
LINE
  5
1AEF2
  8
SU
  6
CONTINUOUS
 62
     3
 10
285.95648784162262
 20
-168.4930497087901
 30
0.0
 11
285.95648784162262
 21
-166.4917761753097
 31
0.0
  0
LINE
  5
1AEF3
  8
SU
  6
CONTINUOUS
 62
     3
 10
286.15648784162278
 20
-168.37304970879029
 30
0.0
 11
286.15648784162278
 21
-166.6117761753097
 31
0.0
  0
LINE
  5
1AEF4
  8
SU
  6
CONTINUOUS
 62
     3
 10
286.35648784162282
 20
-168.2530497087902
 30
0.0
 11
286.35648784162282
 21
-166.73177617530951
 31
0.0
  0
LINE
  5
1AEF5
  8
SU
  6
CONTINUOUS
 62
     3
 10
286.55648784162281
 20
-168.13304970879031
 30
0.0
 11
286.55648784162281
 21
-166.85177617530971
 31
0.0
  0
LINE
  5
1AEF6
  8
SU
  6
CONTINUOUS
 62
     3
 10
286.7564878416228
 20
-168.01304970879031
 30
0.0
 11
286.7564878416228
 21
-166.97177617530971
 31
0.0
  0
LINE
  5
1AEF7
  8
SU
  6
CONTINUOUS
 62
     3
 10
286.95648784162262
 20
-167.8930497087903
 30
0.0
 11
286.95648784162262
 21
-167.09177617530969
 31
0.0
  0
LINE
  5
1AEF8
  8
SU
  6
CONTINUOUS
 62
     3
 10
287.15648784162278
 20
-167.7730497087903
 30
0.0
 11
287.15648784162278
 21
-167.21177617530961
 31
0.0
  0
LINE
  5
1AEF9
  8
SU
  6
CONTINUOUS
 62
     3
 10
287.35648784162282
 20
-167.65304970879001
 30
0.0
 11
287.35648784162282
 21
-167.33177617530961
 31
0.0
  0
LINE
  5
1AEFA
  8
SU
  6
CONTINUOUS
 62
     3
 10
287.5564878416227
 20
-167.5330497087902
 30
0.0
 11
287.5564878416227
 21
-167.4517761753097
 31
0.0
  0
TEXT
  5
1AEFB
  8
SU
  6
CONTINUOUS
 62
     3
 10
114.3242182347195
 20
-18.19152535785086
 30
0.0
 40
4.0
  1
167
 50
90.0
 41
0.8299999999999999
  0
TEXT
  5
1AEFC
  8
SU
  6
CONTINUOUS
 62
     3
 10
247.7114538814281
 20
94.307593131811345
 30
0.0
 40
4.0
  1
（20）
 41
0.8299999999999999
  0
TEXT
  5
1AEFD
  8
SU
  6
CONTINUOUS
 62
     3
 10
65.711453881428497
 20
94.307593131811231
 30
0.0
 40
4.0
  1
（20）
 41
0.8299999999999999
  0
TEXT
  5
1AEFE
  8
SU
  6
CONTINUOUS
 62
     3
 10
100.32421578619051
 20
30.22425329748831
 30
0.0
 40
4.0
  1
74.5
 50
90.0
 41
0.8299999999999999
  0
ARC
  5
1AEFF
  8
SU
  6
CONTINUOUS
 62
     3
 10
101.6242157861904
 20
73.00758696564408
 30
0.0
 40
0.2999999999999971
 50
270.0
 51
90.0
  0
ARC
  5
1AF00
  8
SU
  6
CONTINUOUS
 62
     3
 10
101.6242157861904
 20
73.00758696564408
 30
0.0
 40
0.2999999999999971
 50
90.0
 51
270.0
  0
ARC
  5
1AF01
  8
SU
  6
CONTINUOUS
 62
     3
 10
81.624215786190078
 20
93.007593131811262
 30
0.0
 40
0.2999999999999971
 50
180.0
 51
0.0
  0
ARC
  5
1AF02
  8
SU
  6
CONTINUOUS
 62
     3
 10
81.624215786190078
 20
93.007593131811262
 30
0.0
 40
0.2999999999999971
 50
0.0
 51
180.0
  0
ARC
  5
1AF03
  8
SU
  6
CONTINUOUS
 62
     3
 10
243.62421578618989
 20
93.007593131811348
 30
0.0
 40
0.3000000000000114
 50
0.0
 51
180.0
  0
ARC
  5
1AF04
  8
SU
  6
CONTINUOUS
 62
     3
 10
243.62421578618989
 20
93.007593131811348
 30
0.0
 40
0.3000000000000114
 50
180.0
 51
0.0
  0
ARC
  5
1AF05
  8
SU
  6
CONTINUOUS
 62
     3
 10
115.62421823471961
 20
73.00758696564408
 30
0.0
 40
0.2999999999999971
 50
270.0
 51
90.0
  0
ARC
  5
1AF06
  8
SU
  6
CONTINUOUS
 62
     3
 10
115.62421823471961
 20
73.00758696564408
 30
0.0
 40
0.2999999999999971
 50
90.0
 51
270.0
  0
ARC
  5
1AF07
  8
SU
  6
CONTINUOUS
 62
     3
 10
115.62421823471961
 20
-93.992412942064831
 30
0.0
 40
0.2999999999999971
 50
90.0
 51
270.0
  0
ARC
  5
1AF08
  8
SU
  6
CONTINUOUS
 62
     3
 10
115.62421823471961
 20
-93.992412942064831
 30
0.0
 40
0.2999999999999971
 50
270.0
 51
90.0
  0
ARC
  5
1AF09
  8
SU
  6
CONTINUOUS
 62
     3
 10
287.62421578618989
 20
-152.49241294205001
 30
0.0
 40
0.3000000000000114
 50
180.0
 51
0.0
  0
ARC
  5
1AF0A
  8
SU
  6
CONTINUOUS
 62
     3
 10
287.62421578618989
 20
-152.49241294205001
 30
0.0
 40
0.3000000000000114
 50
0.0
 51
180.0
  0
ARC
  5
1AF0B
  8
SU
  6
CONTINUOUS
 62
     3
 10
101.62421578618979
 20
-36.492411229602709
 30
0.0
 40
0.2999999999999971
 50
90.0
 51
270.0
  0
ARC
  5
1AF0C
  8
SU
  6
CONTINUOUS
 62
     3
 10
101.62421578618979
 20
-36.492411229602709
 30
0.0
 40
0.2999999999999971
 50
270.0
 51
90.0
  0
ARC
  5
1AF0D
  8
SU
  6
CONTINUOUS
 62
     3
 10
101.62421578619011
 20
-25.492411229602691
 30
0.0
 40
0.3000000000000007
 50
270.0
 51
90.0
  0
ARC
  5
1AF0E
  8
SU
  6
CONTINUOUS
 62
     3
 10
101.62421578619011
 20
-25.492411229602691
 30
0.0
 40
0.3000000000000007
 50
90.0
 51
270.0
  0
ARC
  5
1AF0F
  8
SU
  6
CONTINUOUS
 62
     3
 10
101.62421578619011
 20
-86.492412942048659
 30
0.0
 40
0.2999999999999971
 50
90.0
 51
270.0
  0
ARC
  5
1AF10
  8
SU
  6
CONTINUOUS
 62
     3
 10
101.62421578619011
 20
-86.492412942048659
 30
0.0
 40
0.2999999999999971
 50
270.0
 51
90.0
  0
ARC
  5
1AF11
  8
SU
  6
CONTINUOUS
 62
     3
 10
101.62421578619011
 20
-86.492412942048659
 30
0.0
 40
0.2999999999999971
 50
270.0
 51
90.0
  0
ARC
  5
1AF12
  8
SU
  6
CONTINUOUS
 62
     3
 10
101.62421578619011
 20
-86.492412942048659
 30
0.0
 40
0.2999999999999971
 50
90.0
 51
270.0
  0
ARC
  5
1AF13
  8
SU
  6
CONTINUOUS
 62
     3
 10
101.62421578619011
 20
-93.992412942064831
 30
0.0
 40
0.2999999999999971
 50
90.0
 51
270.0
  0
ARC
  5
1AF14
  8
SU
  6
CONTINUOUS
 62
     3
 10
101.62421578619011
 20
-93.992412942064831
 30
0.0
 40
0.2999999999999971
 50
270.0
 51
90.0
  0
ARC
  5
1AF15
  8
SU
  6
CONTINUOUS
 62
     3
 10
37.624215786189879
 20
-152.49241294205001
 30
0.0
 40
0.2999999999999971
 50
0.0
 51
180.0
  0
ARC
  5
1AF16
  8
SU
  6
CONTINUOUS
 62
     3
 10
37.624215786189879
 20
-152.49241294205001
 30
0.0
 40
0.2999999999999971
 50
180.0
 51
0.0
  0
ARC
  5
1AF17
  8
SU
  6
CONTINUOUS
 62
     3
 10
65.624215801776813
 20
-152.49241294205001
 30
0.0
 40
0.2999999999999971
 50
180.0
 51
0.0
  0
ARC
  5
1AF18
  8
SU
  6
CONTINUOUS
 62
     3
 10
65.624215801776813
 20
-152.49241294205001
 30
0.0
 40
0.2999999999999971
 50
0.0
 51
180.0
  0
ARC
  5
1AF19
  8
SU
  6
CONTINUOUS
 62
     3
 10
61.624215786189922
 20
-152.49241294205001
 30
0.0
 40
0.2999999999999971
 50
0.0
 51
180.0
  0
ARC
  5
1AF1A
  8
SU
  6
CONTINUOUS
 62
     3
 10
61.624215786189922
 20
-152.49241294205001
 30
0.0
 40
0.2999999999999971
 50
180.0
 51
0.0
  0
ARC
  5
1AF1B
  8
SU
  6
CONTINUOUS
 62
     3
 10
259.62421577060309
 20
-152.49241294205001
 30
0.0
 40
0.3000000000000114
 50
180.0
 51
0.0
  0
ARC
  5
1AF1C
  8
SU
  6
CONTINUOUS
 62
     3
 10
259.62421577060309
 20
-152.49241294205001
 30
0.0
 40
0.3000000000000114
 50
0.0
 51
180.0
  0
ARC
  5
1AF1D
  8
SU
  6
CONTINUOUS
 62
     3
 10
65.624215801777041
 20
-152.49241294205001
 30
0.0
 40
0.2999999999999971
 50
0.0
 51
180.0
  0
ARC
  5
1AF1E
  8
SU
  6
CONTINUOUS
 62
     3
 10
65.624215801777041
 20
-152.49241294205001
 30
0.0
 40
0.2999999999999971
 50
180.0
 51
0.0
  0
ARC
  5
1AF1F
  8
SU
  6
CONTINUOUS
 62
     3
 10
259.62421577060309
 20
-152.49241294205001
 30
0.0
 40
0.3000000000000114
 50
0.0
 51
180.0
  0
ARC
  5
1AF20
  8
SU
  6
CONTINUOUS
 62
     3
 10
259.62421577060309
 20
-152.49241294205001
 30
0.0
 40
0.3000000000000114
 50
180.0
 51
0.0
  0
ARC
  5
1AF21
  8
SU
  6
CONTINUOUS
 62
     3
 10
263.62421578619001
 20
-152.49241294205001
 30
0.0
 40
0.3000000000000114
 50
180.0
 51
0.0
  0
ARC
  5
1AF22
  8
SU
  6
CONTINUOUS
 62
     3
 10
263.62421578619001
 20
-152.49241294205001
 30
0.0
 40
0.3000000000000114
 50
0.0
 51
180.0
  0
ARC
  5
1AF23
  8
SU
  6
CONTINUOUS
 62
     3
 10
101.62421578619011
 20
-1.4924137040008301
 30
0.0
 40
0.3
 50
270.0
 51
90.0
  0
ARC
  5
1AF24
  8
SU
  6
CONTINUOUS
 62
     3
 10
101.62421578619011
 20
-1.4924137040008301
 30
0.0
 40
0.3
 50
90.0
 51
270.0
  0
ARC
  5
1AF25
  8
SU
  6
CONTINUOUS
 62
     3
 10
-137.6066789891438
 20
-218.66293584505999
 30
0.0
 40
0.3000000000000114
 50
90.0
 51
270.0
  0
ARC
  5
1AF26
  8
SU
  6
CONTINUOUS
 62
     3
 10
-137.6066789891438
 20
-218.66293584505999
 30
0.0
 40
0.3000000000000114
 50
270.0
 51
90.0
  0
ARC
  5
1AF27
  8
SU
  6
CONTINUOUS
 62
     3
 10
-122.60667898914519
 20
-230.66293584505999
 30
0.0
 40
0.3000000000000114
 50
90.0
 51
270.0
  0
ARC
  5
1AF28
  8
SU
  6
CONTINUOUS
 62
     3
 10
-122.60667898914519
 20
-230.66293584505999
 30
0.0
 40
0.3000000000000114
 50
270.0
 51
90.0
  0
ARC
  5
1AF29
  8
SU
  6
CONTINUOUS
 62
     3
 10
-137.6066789891438
 20
-210.66293584505999
 30
0.0
 40
0.3000000000000114
 50
90.0
 51
270.0
  0
ARC
  5
1AF2A
  8
SU
  6
CONTINUOUS
 62
     3
 10
-137.6066789891438
 20
-210.66293584505999
 30
0.0
 40
0.3000000000000114
 50
270.0
 51
90.0
  0
ARC
  5
1AF2B
  8
SU
  6
CONTINUOUS
 62
     3
 10
-180.106679102648
 20
86.160642570500514
 30
0.0
 40
0.3000000000000114
 50
0.0
 51
180.0
  0
ARC
  5
1AF2C
  8
SU
  6
CONTINUOUS
 62
     3
 10
-180.106679102648
 20
86.160642570500514
 30
0.0
 40
0.3000000000000114
 50
180.0
 51
0.0
  0
ARC
  5
1AF2D
  8
SU
  6
CONTINUOUS
 62
     3
 10
-175.606679102648
 20
86.160642570500514
 30
0.0
 40
0.3000000000000114
 50
180.0
 51
0.0
  0
ARC
  5
1AF2E
  8
SU
  6
CONTINUOUS
 62
     3
 10
-175.606679102648
 20
86.160642570500514
 30
0.0
 40
0.3000000000000114
 50
0.0
 51
180.0
  0
ARC
  5
1AF2F
  8
SU
  6
CONTINUOUS
 62
     3
 10
-230.10668081511031
 20
86.160642570500656
 30
0.0
 40
0.3000000000000114
 50
180.0
 51
0.0
  0
ARC
  5
1AF30
  8
SU
  6
CONTINUOUS
 62
     3
 10
-230.10668081511031
 20
86.160642570500656
 30
0.0
 40
0.3000000000000114
 50
0.0
 51
180.0
  0
ARC
  5
1AF31
  8
SU
  6
CONTINUOUS
 62
     3
 10
-241.1066808153619
 20
86.160642570500656
 30
0.0
 40
0.3000000000000114
 50
0.0
 51
180.0
  0
ARC
  5
1AF32
  8
SU
  6
CONTINUOUS
 62
     3
 10
-241.1066808153619
 20
86.160642570500656
 30
0.0
 40
0.3000000000000114
 50
180.0
 51
0.0
  0
ARC
  5
1AF33
  8
SU
  6
CONTINUOUS
 62
     3
 10
-180.10667910659751
 20
86.160642570500514
 30
0.0
 40
0.3000000000000114
 50
180.0
 51
0.0
  0
ARC
  5
1AF34
  8
SU
  6
CONTINUOUS
 62
     3
 10
-180.10667910659751
 20
86.160642570500514
 30
0.0
 40
0.3000000000000114
 50
0.0
 51
180.0
  0
ARC
  5
1AF35
  8
SU
  6
CONTINUOUS
 62
     3
 10
-230.10668081511031
 20
86.160642570500514
 30
0.0
 40
0.3000000000000114
 50
0.0
 51
180.0
  0
ARC
  5
1AF36
  8
SU
  6
CONTINUOUS
 62
     3
 10
-230.10668081511031
 20
86.160642570500514
 30
0.0
 40
0.3000000000000114
 50
180.0
 51
0.0
  0
ARC
  5
1AF37
  8
SU
  6
CONTINUOUS
 62
     3
 10
-172.606679102648
 20
71.160642570500428
 30
0.0
 40
0.3000000000000114
 50
180.0
 51
0.0
  0
ARC
  5
1AF38
  8
SU
  6
CONTINUOUS
 62
     3
 10
-172.606679102648
 20
71.160642570500428
 30
0.0
 40
0.3000000000000114
 50
0.0
 51
180.0
  0
ARC
  5
1AF39
  8
SU
  6
CONTINUOUS
 62
     3
 10
-359.606679102648
 20
127.66064257049879
 30
0.0
 40
0.2999999999999971
 50
270.0
 51
90.0
  0
ARC
  5
1AF3A
  8
SU
  6
CONTINUOUS
 62
     3
 10
-359.606679102648
 20
127.66064257049879
 30
0.0
 40
0.2999999999999971
 50
90.0
 51
270.0
  0
ARC
  5
1AF3B
  8
SU
  6
CONTINUOUS
 62
     3
 10
-359.606679102648
 20
107.66061004983661
 30
0.0
 40
0.2999999999999971
 50
90.0
 51
270.0
  0
ARC
  5
1AF3C
  8
SU
  6
CONTINUOUS
 62
     3
 10
-359.606679102648
 20
107.66061004983661
 30
0.0
 40
0.2999999999999971
 50
270.0
 51
90.0
  0
ARC
  5
1AF3D
  8
SU
  6
CONTINUOUS
 62
     3
 10
-265.10667834071222
 20
86.160642570500684
 30
0.0
 40
0.3000000000000114
 50
180.0
 51
0.0
  0
ARC
  5
1AF3E
  8
SU
  6
CONTINUOUS
 62
     3
 10
-265.10667834071222
 20
86.160642570500684
 30
0.0
 40
0.3000000000000114
 50
0.0
 51
180.0
  0
ARC
  5
1AF3F
  8
SU
  6
CONTINUOUS
 62
     3
 10
-336.60667910264903
 20
86.160642570500684
 30
0.0
 40
0.3000000000000114
 50
0.0
 51
180.0
  0
ARC
  5
1AF40
  8
SU
  6
CONTINUOUS
 62
     3
 10
-336.60667910264903
 20
86.160642570500684
 30
0.0
 40
0.3000000000000114
 50
180.0
 51
0.0
  0
ARC
  5
1AF41
  8
SU
  6
CONTINUOUS
 62
     3
 10
-339.60667910264692
 20
71.160642570500187
 30
0.0
 40
0.3000000000000114
 50
0.0
 51
180.0
  0
ARC
  5
1AF42
  8
SU
  6
CONTINUOUS
 62
     3
 10
-339.60667910264692
 20
71.160642570500187
 30
0.0
 40
0.3000000000000114
 50
180.0
 51
0.0
  0
ARC
  5
1AF43
  8
SU
  6
CONTINUOUS
 62
     3
 10
-241.1066808153619
 20
86.160642570500798
 30
0.0
 40
0.3000000000000114
 50
180.0
 51
0.0
  0
ARC
  5
1AF44
  8
SU
  6
CONTINUOUS
 62
     3
 10
-241.1066808153619
 20
86.160642570500798
 30
0.0
 40
0.3000000000000114
 50
0.0
 51
180.0
  0
ARC
  5
1AF45
  8
SU
  6
CONTINUOUS
 62
     3
 10
-265.10667834096353
 20
86.160642570500798
 30
0.0
 40
0.3000000000000114
 50
0.0
 51
180.0
  0
ARC
  5
1AF46
  8
SU
  6
CONTINUOUS
 62
     3
 10
-265.10667834096353
 20
86.160642570500798
 30
0.0
 40
0.3000000000000114
 50
180.0
 51
0.0
  0
ARC
  5
1AF47
  8
SU
  6
CONTINUOUS
 62
     3
 10
-175.606679102648
 20
71.160642570500187
 30
0.0
 40
0.3000000000000114
 50
180.0
 51
0.0
  0
ARC
  5
1AF48
  8
SU
  6
CONTINUOUS
 62
     3
 10
-175.606679102648
 20
71.160642570500187
 30
0.0
 40
0.3000000000000114
 50
0.0
 51
180.0
  0
ARC
  5
1AF49
  8
SU
  6
CONTINUOUS
 62
     3
 10
-336.60667910264903
 20
71.160642570500187
 30
0.0
 40
0.3000000000000114
 50
0.0
 51
180.0
  0
ARC
  5
1AF4A
  8
SU
  6
CONTINUOUS
 62
     3
 10
-336.60667910264903
 20
71.160642570500187
 30
0.0
 40
0.3000000000000114
 50
180.0
 51
0.0
  0
ARC
  5
1AF4B
  8
SU
  6
CONTINUOUS
 62
     3
 10
-175.6066792252785
 20
-98.835514099920942
 30
0.0
 40
0.3000000000000114
 50
180.0
 51
0.0
  0
ARC
  5
1AF4C
  8
SU
  6
CONTINUOUS
 62
     3
 10
-175.6066792252785
 20
-98.835514099920942
 30
0.0
 40
0.3000000000000114
 50
0.0
 51
180.0
  0
ARC
  5
1AF4D
  8
SU
  6
CONTINUOUS
 62
     3
 10
-172.60667911177541
 20
-98.835514099920942
 30
0.0
 40
0.3000000000000114
 50
0.0
 51
180.0
  0
ARC
  5
1AF4E
  8
SU
  6
CONTINUOUS
 62
     3
 10
-172.60667911177541
 20
-98.835514099920942
 30
0.0
 40
0.3000000000000114
 50
180.0
 51
0.0
  0
ARC
  5
1AF4F
  8
SU
  6
CONTINUOUS
 62
     3
 10
-359.606679102648
 20
-63.835511272029592
 30
0.0
 40
0.3000000000000043
 50
90.0
 51
270.0
  0
ARC
  5
1AF50
  8
SU
  6
CONTINUOUS
 62
     3
 10
-359.606679102648
 20
-63.835511272029592
 30
0.0
 40
0.2999999999999971
 50
270.0
 51
90.0
  0
ARC
  5
1AF51
  8
SU
  6
CONTINUOUS
 62
     3
 10
-359.606679102648
 20
-43.835511272029578
 30
0.0
 40
0.2999999999999971
 50
270.0
 51
90.0
  0
ARC
  5
1AF52
  8
SU
  6
CONTINUOUS
 62
     3
 10
-359.606679102648
 20
-43.835511272029578
 30
0.0
 40
0.2999999999999971
 50
90.0
 51
270.0
  0
ARC
  5
1AF53
  8
SU
  6
CONTINUOUS
 62
     3
 10
-359.606679102648
 20
-63.835511272029592
 30
0.0
 40
0.2999999999999971
 50
270.0
 51
90.0
  0
ARC
  5
1AF54
  8
SU
  6
CONTINUOUS
 62
     3
 10
-359.606679102648
 20
-63.835511272029592
 30
0.0
 40
0.3000000000000043
 50
90.0
 51
270.0
  0
ARC
  5
1AF55
  8
SU
  6
CONTINUOUS
 62
     3
 10
-359.606679102648
 20
-78.835514099913297
 30
0.0
 40
0.2999999999999971
 50
90.0
 51
270.0
  0
ARC
  5
1AF56
  8
SU
  6
CONTINUOUS
 62
     3
 10
-359.606679102648
 20
-78.835514099913297
 30
0.0
 40
0.2999999999999971
 50
270.0
 51
90.0
  0
ARC
  5
1AF57
  8
SU
  6
CONTINUOUS
 62
     3
 10
-282.60667921615101
 20
-98.835514099921284
 30
0.0
 40
0.3000000000000114
 50
180.0
 51
0.0
  0
ARC
  5
1AF58
  8
SU
  6
CONTINUOUS
 62
     3
 10
-282.60667921615101
 20
-98.835514099921284
 30
0.0
 40
0.3000000000000114
 50
0.0
 51
180.0
  0
ARC
  5
1AF59
  8
SU
  6
CONTINUOUS
 62
     3
 10
-339.60667910264999
 20
-98.835514099921284
 30
0.0
 40
0.3000000000000114
 50
0.0
 51
180.0
  0
ARC
  5
1AF5A
  8
SU
  6
CONTINUOUS
 62
     3
 10
-339.60667910264999
 20
-98.835514099921284
 30
0.0
 40
0.3000000000000114
 50
180.0
 51
0.0
  0
ARC
  5
1AF5B
  8
SU
  6
CONTINUOUS
 62
     3
 10
-374.606679102648
 20
-78.835514099913297
 30
0.0
 40
0.2999999999999971
 50
90.0
 51
270.0
  0
ARC
  5
1AF5C
  8
SU
  6
CONTINUOUS
 62
     3
 10
-374.606679102648
 20
-78.835514099913297
 30
0.0
 40
0.2999999999999971
 50
270.0
 51
90.0
  0
ARC
  5
1AF5D
  8
SU
  6
CONTINUOUS
 62
     3
 10
-374.606679102648
 20
-43.835511272029571
 30
0.0
 40
0.2999999999999971
 50
270.0
 51
90.0
  0
ARC
  5
1AF5E
  8
SU
  6
CONTINUOUS
 62
     3
 10
-374.606679102648
 20
-43.835511272029571
 30
0.0
 40
0.2999999999999971
 50
90.0
 51
270.0
  0
ARC
  5
1AF5F
  8
SU
  6
CONTINUOUS
 62
     3
 10
-282.60667921615101
 20
-98.835514099921156
 30
0.0
 40
0.3000000000000114
 50
0.0
 51
180.0
  0
ARC
  5
1AF60
  8
SU
  6
CONTINUOUS
 62
     3
 10
-282.60667921615101
 20
-98.835514099921156
 30
0.0
 40
0.3000000000000114
 50
180.0
 51
0.0
  0
ARC
  5
1AF61
  8
SU
  6
CONTINUOUS
 62
     3
 10
-175.6066792252785
 20
-98.835514099921156
 30
0.0
 40
0.3000000000000114
 50
180.0
 51
0.0
  0
ARC
  5
1AF62
  8
SU
  6
CONTINUOUS
 62
     3
 10
-175.6066792252785
 20
-98.835514099921156
 30
0.0
 40
0.3000000000000114
 50
0.0
 51
180.0
  0
ARC
  5
1AF63
  8
SU
  6
CONTINUOUS
 62
     3
 10
-137.60667910264669
 20
124.66064257049899
 30
0.0
 40
0.2999999999999971
 50
90.0
 51
270.0
  0
ARC
  5
1AF64
  8
SU
  6
CONTINUOUS
 62
     3
 10
-137.60667910264669
 20
124.66064257049899
 30
0.0
 40
0.2999999999999971
 50
270.0
 51
90.0
  0
ARC
  5
1AF65
  8
SU
  6
CONTINUOUS
 62
     3
 10
-137.60667910264669
 20
127.66064257049899
 30
0.0
 40
0.2999999999999971
 50
270.0
 51
90.0
  0
ARC
  5
1AF66
  8
SU
  6
CONTINUOUS
 62
     3
 10
-137.60667910264669
 20
127.66064257049899
 30
0.0
 40
0.2999999999999971
 50
90.0
 51
270.0
  0
ARC
  5
1AF67
  8
SU
  6
CONTINUOUS
 62
     3
 10
-137.60667910264669
 20
127.66064257049899
 30
0.0
 40
0.2999999999999971
 50
90.0
 51
270.0
  0
ARC
  5
1AF68
  8
SU
  6
CONTINUOUS
 62
     3
 10
-137.60667910264669
 20
127.66064257049899
 30
0.0
 40
0.2999999999999971
 50
270.0
 51
90.0
  0
ARC
  5
1AF69
  8
SU
  6
CONTINUOUS
 62
     3
 10
-137.60667910264669
 20
151.66064257049899
 30
0.0
 40
0.3000000000000114
 50
270.0
 51
90.0
  0
ARC
  5
1AF6A
  8
SU
  6
CONTINUOUS
 62
     3
 10
-137.60667910264669
 20
151.66064257049899
 30
0.0
 40
0.3000000000000114
 50
90.0
 51
270.0
  0
ARC
  5
1AF6B
  8
SU
  6
CONTINUOUS
 62
     3
 10
-137.60667910264669
 20
-78.835514099913297
 30
0.0
 40
0.2999999999999971
 50
90.0
 51
270.0
  0
ARC
  5
1AF6C
  8
SU
  6
CONTINUOUS
 62
     3
 10
-137.60667910264669
 20
-78.835514099913297
 30
0.0
 40
0.2999999999999971
 50
270.0
 51
90.0
  0
ARC
  5
1AF6D
  8
SU
  6
CONTINUOUS
 62
     3
 10
-137.60667910264669
 20
-63.83551127202962
 30
0.0
 40
0.3000000000000043
 50
90.0
 51
270.0
  0
ARC
  5
1AF6E
  8
SU
  6
CONTINUOUS
 62
     3
 10
-137.60667910264669
 20
-63.83551127202962
 30
0.0
 40
0.2999999999999971
 50
270.0
 51
90.0
  0
ARC
  5
1AF6F
  8
SU
  6
CONTINUOUS
 62
     3
 10
-137.60667910264669
 20
-58.83551127202962
 30
0.0
 40
0.2999999999999971
 50
90.0
 51
270.0
  0
ARC
  5
1AF70
  8
SU
  6
CONTINUOUS
 62
     3
 10
-137.60667910264669
 20
-58.83551127202962
 30
0.0
 40
0.2999999999999971
 50
270.0
 51
90.0
  0
ARC
  5
1AF71
  8
SU
  6
CONTINUOUS
 62
     3
 10
-33.375786681007959
 20
62.00758705793519
 30
0.0
 40
0.2999999999999971
 50
270.0
 51
90.0
  0
ARC
  5
1AF72
  8
SU
  6
CONTINUOUS
 62
     3
 10
-33.375786681007959
 20
62.00758705793519
 30
0.0
 40
0.2999999999999971
 50
90.0
 51
270.0
  0
ARC
  5
1AF73
  8
SU
  6
CONTINUOUS
 62
     3
 10
-48.375786681008002
 20
62.00758705793519
 30
0.0
 40
0.2999999999999971
 50
90.0
 51
270.0
  0
ARC
  5
1AF74
  8
SU
  6
CONTINUOUS
 62
     3
 10
-48.375786681008002
 20
62.00758705793519
 30
0.0
 40
0.2999999999999971
 50
270.0
 51
90.0
  0
ARC
  5
1AF75
  8
SU
  6
CONTINUOUS
 62
     3
 10
-48.375786681008002
 20
73.007587057936561
 30
0.0
 40
0.2999999999999971
 50
270.0
 51
90.0
  0
ARC
  5
1AF76
  8
SU
  6
CONTINUOUS
 62
     3
 10
-48.375786681008002
 20
73.007587057936561
 30
0.0
 40
0.2999999999999971
 50
90.0
 51
270.0
  0
ARC
  5
1AF77
  8
SU
  6
CONTINUOUS
 62
     3
 10
-48.375786681007959
 20
-82.992412942064789
 30
0.0
 40
0.2999999999999971
 50
270.0
 51
90.0
  0
ARC
  5
1AF78
  8
SU
  6
CONTINUOUS
 62
     3
 10
-48.375786681007959
 20
-82.992412942064789
 30
0.0
 40
0.2999999999999971
 50
90.0
 51
270.0
  0
ARC
  5
1AF79
  8
SU
  6
CONTINUOUS
 62
     3
 10
-48.375786681007959
 20
-93.992413034355778
 30
0.0
 40
0.2999999999999971
 50
90.0
 51
270.0
  0
ARC
  5
1AF7A
  8
SU
  6
CONTINUOUS
 62
     3
 10
-48.375786681007959
 20
-93.992413034355778
 30
0.0
 40
0.2999999999999971
 50
270.0
 51
90.0
  0
ARC
  5
1AF7B
  8
SU
  6
CONTINUOUS
 62
     3
 10
-33.37578668100798
 20
-82.992412942064789
 30
0.0
 40
0.2999999999999971
 50
90.0
 51
270.0
  0
ARC
  5
1AF7C
  8
SU
  6
CONTINUOUS
 62
     3
 10
-33.37578668100798
 20
-82.992412942064789
 30
0.0
 40
0.2999999999999971
 50
270.0
 51
90.0
  0
ARC
  5
1AF7D
  8
SU
  6
CONTINUOUS
 62
     3
 10
-33.375786681008002
 20
-70.492412942064803
 30
0.0
 40
0.2999999999999971
 50
90.0
 51
270.0
  0
ARC
  5
1AF7E
  8
SU
  6
CONTINUOUS
 62
     3
 10
-33.375786681008002
 20
-70.492412942064803
 30
0.0
 40
0.2999999999999971
 50
270.0
 51
90.0
  0
ARC
  5
1AF7F
  8
SU
  6
CONTINUOUS
 62
     3
 10
-33.37578668100798
 20
49.507586965644244
 30
0.0
 40
0.2999999999999971
 50
270.0
 51
90.0
  0
ARC
  5
1AF80
  8
SU
  6
CONTINUOUS
 62
     3
 10
-33.37578668100798
 20
49.507586965644244
 30
0.0
 40
0.2999999999999971
 50
90.0
 51
270.0
  0
ARC
  5
1AF81
  8
SU
  6
CONTINUOUS
 62
     3
 10
-183.606679102648
 20
212.66064257050701
 30
0.0
 40
0.3000000000000114
 50
180.0
 51
0.0
  0
ARC
  5
1AF82
  8
SU
  6
CONTINUOUS
 62
     3
 10
-183.606679102648
 20
212.66064257050701
 30
0.0
 40
0.3000000000000114
 50
0.0
 51
180.0
  0
ARC
  5
1AF83
  8
SU
  6
CONTINUOUS
 62
     3
 10
-183.606679102648
 20
227.66064257050681
 30
0.0
 40
0.3000000000000114
 50
0.0
 51
180.0
  0
ARC
  5
1AF84
  8
SU
  6
CONTINUOUS
 62
     3
 10
-183.606679102648
 20
227.66064257050681
 30
0.0
 40
0.3000000000000114
 50
180.0
 51
0.0
  0
ARC
  5
1AF85
  8
SU
  6
CONTINUOUS
 62
     3
 10
-172.606679102648
 20
227.66064257050681
 30
0.0
 40
0.3000000000000114
 50
180.0
 51
0.0
  0
ARC
  5
1AF86
  8
SU
  6
CONTINUOUS
 62
     3
 10
-172.606679102648
 20
227.66064257050681
 30
0.0
 40
0.3000000000000114
 50
0.0
 51
180.0
  0
ARC
  5
1AF87
  8
SU
  6
CONTINUOUS
 62
     3
 10
263.6242157861904
 20
93.007586965643995
 30
0.0
 40
0.3000000000000114
 50
0.0
 51
180.0
  0
ARC
  5
1AF88
  8
SU
  6
CONTINUOUS
 62
     3
 10
263.6242157861904
 20
93.007586965643995
 30
0.0
 40
0.3000000000000114
 50
180.0
 51
0.0
  0
ARC
  5
1AF89
  8
SU
  6
CONTINUOUS
 62
     3
 10
287.62421578619052
 20
93.007586965643995
 30
0.0
 40
0.3000000000000114
 50
180.0
 51
0.0
  0
ARC
  5
1AF8A
  8
SU
  6
CONTINUOUS
 62
     3
 10
287.62421578619052
 20
93.007586965643995
 30
0.0
 40
0.3000000000000114
 50
0.0
 51
180.0
  0
ARC
  5
1AF8B
  8
SU
  6
CONTINUOUS
 62
     3
 10
61.624215786190653
 20
93.007586965643995
 30
0.0
 40
0.2999999999999971
 50
180.0
 51
0.0
  0
ARC
  5
1AF8C
  8
SU
  6
CONTINUOUS
 62
     3
 10
61.624215786190653
 20
93.007586965643995
 30
0.0
 40
0.2999999999999971
 50
0.0
 51
180.0
  0
ARC
  5
1AF8D
  8
SU
  6
CONTINUOUS
 62
     3
 10
37.624215786190589
 20
93.007586965643995
 30
0.0
 40
0.2999999999999971
 50
0.0
 51
180.0
  0
ARC
  5
1AF8E
  8
SU
  6
CONTINUOUS
 62
     3
 10
37.624215786190589
 20
93.007586965643995
 30
0.0
 40
0.2999999999999971
 50
180.0
 51
0.0
  0
ARC
  5
1AF8F
  8
SU
  6
CONTINUOUS
 62
     3
 10
-328.606679102648
 20
212.66064257050701
 30
0.0
 40
0.3000000000000114
 50
0.0
 51
180.0
  0
ARC
  5
1AF90
  8
SU
  6
CONTINUOUS
 62
     3
 10
-328.606679102648
 20
212.66064257050701
 30
0.0
 40
0.3000000000000114
 50
180.0
 51
0.0
  0
ARC
  5
1AF91
  8
SU
  6
CONTINUOUS
 62
     3
 10
-316.106679102648
 20
212.66064257050701
 30
0.0
 40
0.3000000000000114
 50
0.0
 51
180.0
  0
ARC
  5
1AF92
  8
SU
  6
CONTINUOUS
 62
     3
 10
-316.106679102648
 20
212.66064257050701
 30
0.0
 40
0.3000000000000114
 50
180.0
 51
0.0
  0
ARC
  5
1AF93
  8
SU
  6
CONTINUOUS
 62
     3
 10
-196.106679102648
 20
212.66064257050701
 30
0.0
 40
0.3000000000000114
 50
180.0
 51
0.0
  0
ARC
  5
1AF94
  8
SU
  6
CONTINUOUS
 62
     3
 10
-196.106679102648
 20
212.66064257050701
 30
0.0
 40
0.3000000000000114
 50
0.0
 51
180.0
  0
ARC
  5
1AF95
  8
SU
  6
CONTINUOUS
 62
     3
 10
-328.606679102648
 20
227.66064257050681
 30
0.0
 40
0.3000000000000114
 50
180.0
 51
0.0
  0
ARC
  5
1AF96
  8
SU
  6
CONTINUOUS
 62
     3
 10
-328.606679102648
 20
227.66064257050681
 30
0.0
 40
0.3000000000000114
 50
0.0
 51
180.0
  0
ARC
  5
1AF97
  8
SU
  6
CONTINUOUS
 62
     3
 10
-339.606679102648
 20
227.66064257050681
 30
0.0
 40
0.3000000000000114
 50
0.0
 51
180.0
  0
ARC
  5
1AF98
  8
SU
  6
CONTINUOUS
 62
     3
 10
-339.606679102648
 20
227.66064257050681
 30
0.0
 40
0.3000000000000114
 50
180.0
 51
0.0
  0
ARC
  5
1AF99
  8
SU
  6
CONTINUOUS
 62
     3
 10
-359.606679102648
 20
151.66064257049899
 30
0.0
 40
0.3000000000000114
 50
270.0
 51
90.0
  0
ARC
  5
1AF9A
  8
SU
  6
CONTINUOUS
 62
     3
 10
-359.606679102648
 20
151.66064257049899
 30
0.0
 40
0.3000000000000114
 50
90.0
 51
270.0
  0
ENDSEC
  0
EOF
