  0
SECTION
  2
HEADER
  9
$ACADVER
  1
AC1009
  9
$INSBASE
 10
0.0
 20
0.0
 30
0.0
  9
$EXTMIN
 10
-304.3008097376453
 20
-269.33518848444231
 30
-0.0000000000112498
  9
$EXTMAX
 10
338.66717711797349
 20
256.60208258824667
 30
0.0000000000002956
  9
$LIMMIN
 10
-410.0
 20
-286.0
  9
$LIMMAX
 10
408.99999999999989
 20
279.0
  9
$ORTHOMODE
 70
     1
  9
$REGENMODE
 70
     1
  9
$FILLMODE
 70
     1
  9
$QTEXTMODE
 70
     0
  9
$MIRRTEXT
 70
     0
  9
$DRAGMODE
 70
     2
  9
$LTSCALE
 40
1.0
  9
$OSMODE
 70
     0
  9
$ATTMODE
 70
     1
  9
$TEXTSIZE
 40
2.5
  9
$TRACEWID
 40
1.0
  9
$TEXTSTYLE
  7
STANDARD
  9
$CLAYER
  8
0
  9
$CELTYPE
  6
BYLAYER
  9
$CECOLOR
 62
   256
  9
$DIMSCALE
 40
1.0
  9
$DIMASZ
 40
1.5
  9
$DIMEXO
 40
3.0
  9
$DIMDLI
 40
7.0
  9
$DIMRND
 40
0.0
  9
$DIMDLE
 40
0.0
  9
$DIMEXE
 40
1.0
  9
$DIMTP
 40
0.1
  9
$DIMTM
 40
0.1
  9
$DIMTXT
 40
10.0
  9
$DIMCEN
 40
0.0
  9
$DIMTSZ
 40
0.0
  9
$DIMTOL
 70
     0
  9
$DIMLIM
 70
     0
  9
$DIMTIH
 70
     0
  9
$DIMTOH
 70
     0
  9
$DIMSE1
 70
     0
  9
$DIMSE2
 70
     0
  9
$DIMTAD
 70
     1
  9
$DIMZIN
 70
     0
  9
$DIMBLK
  1
DOTSMALL
  9
$DIMASO
 70
     1
  9
$DIMSHO
 70
     1
  9
$DIMPOST
  1

  9
$DIMAPOST
  1
"
  9
$DIMALT
 70
     0
  9
$DIMALTD
 70
     2
  9
$DIMALTF
 40
0.0393701
  9
$DIMLFAC
 40
1.0
  9
$DIMTOFL
 70
     1
  9
$DIMTVP
 40
0.0
  9
$DIMTIX
 70
     0
  9
$DIMSOXD
 70
     0
  9
$DIMSAH
 70
     0
  9
$DIMBLK1
  1

  9
$DIMBLK2
  1

  9
$DIMSTYLE
  2
SANKYO
  9
$DIMCLRD
 70
   256
  9
$DIMCLRE
 70
   256
  9
$DIMCLRT
 70
   256
  9
$DIMTFAC
 40
0.71
  9
$DIMGAP
 40
0.5
  9
$LUNITS
 70
     2
  9
$LUPREC
 70
     4
  9
$SKETCHINC
 40
1.0
  9
$FILLETRAD
 40
1.0
  9
$AUNITS
 70
     0
  9
$AUPREC
 70
     0
  9
$MENU
  1
.
  9
$ELEVATION
 40
0.0
  9
$PELEVATION
 40
0.0
  9
$THICKNESS
 40
0.0
  9
$LIMCHECK
 70
     0
  9
$BLIPMODE
 70
     0
  9
$CHAMFERA
 40
10.0
  9
$CHAMFERB
 40
10.0
  9
$SKPOLY
 70
     0
  9
$TDCREATE
 40
2452388.6082117362
  9
$TDUPDATE
 40
2456027.6125690392
  9
$TDINDWG
 40
1.7775812499999999
  9
$TDUSRTIMER
 40
1.7775811343000001
  9
$USRTIMER
 70
     1
  9
$ANGBASE
 50
0.0
  9
$ANGDIR
 70
     0
  9
$PDMODE
 70
     0
  9
$PDSIZE
 40
0.0
  9
$PLINEWID
 40
0.0
  9
$COORDS
 70
     1
  9
$SPLFRAME
 70
     0
  9
$SPLINETYPE
 70
     6
  9
$SPLINESEGS
 70
     8
  9
$ATTDIA
 70
     0
  9
$ATTREQ
 70
     1
  9
$HANDLING
 70
-16383
  9
$HANDSEED
  5
1A730
  9
$SURFTAB1
 70
     6
  9
$SURFTAB2
 70
     6
  9
$SURFTYPE
 70
     6
  9
$SURFU
 70
     6
  9
$SURFV
 70
     6
  9
$UCSNAME
  2

  9
$UCSORG
 10
0.0
 20
0.0
 30
0.0
  9
$UCSXDIR
 10
1.0
 20
0.0
 30
0.0
  9
$UCSYDIR
 10
0.0
 20
1.0
 30
0.0
  9
$PUCSNAME
  2

  9
$PUCSORG
 10
0.0
 20
0.0
 30
0.0
  9
$PUCSXDIR
 10
1.0
 20
0.0
 30
0.0
  9
$PUCSYDIR
 10
0.0
 20
1.0
 30
0.0
  9
$USERI1
 70
     0
  9
$USERI2
 70
     1
  9
$USERI3
 70
     0
  9
$USERI4
 70
     0
  9
$USERI5
 70
     0
  9
$USERR1
 40
0.0
  9
$USERR2
 40
0.0
  9
$USERR3
 40
0.0
  9
$USERR4
 40
0.0
  9
$USERR5
 40
0.0
  9
$WORLDVIEW
 70
     1
  9
$SHADEDGE
 70
     3
  9
$SHADEDIF
 70
    70
  9
$TILEMODE
 70
     1
  9
$MAXACTVP
 70
    48
  9
$PLIMCHECK
 70
     0
  9
$PEXTMIN
 10
1.0000000000000000E+020
 20
1.0000000000000000E+020
 30
1.0000000000000000E+020
  9
$PEXTMAX
 10
-1.0000000000000000E+020
 20
-1.0000000000000000E+020
 30
-1.0000000000000000E+020
  9
$PLIMMIN
 10
0.0
 20
0.0
  9
$PLIMMAX
 10
420.0
 20
297.0
  9
$UNITMODE
 70
     0
  9
$VISRETAIN
 70
     1
  9
$PLINEGEN
 70
     0
  9
$PSLTSCALE
 70
     1
  0
ENDSEC
  0
SECTION
  2
TABLES
  0
TABLE
  2
VPORT
 70
     2
  0
VPORT
  2
*ACTIVE
 70
     0
 10
0.0
 20
0.0
 11
1.0
 21
1.0
 12
17.18318369016411
 22
-6.3665529480978194
 13
0.0
 23
0.0
 14
2.5
 24
2.5
 15
10.0
 25
10.0
 16
0.0
 26
0.0
 36
1.0
 17
0.0
 27
0.0
 37
0.0
 40
530.23648582260205
 41
1.3969986357435189
 42
50.0
 43
0.0
 44
0.0
 50
0.0
 51
0.0
 71
    16
 72
   100
 73
     1
 74
     0
 75
     0
 76
     0
 77
     0
 78
     0
  0
ENDTAB
  0
TABLE
  2
LTYPE
 70
    17
  0
LTYPE
  2
CONTINUOUS
 70
     0
  3
Solid line
 72
    65
 73
     0
 40
0.0
  0
LTYPE
  2
CENTER2
 70
     0
  3
Center (.5x) ___ _ ___ _ ___ _ ___ _ ___ _ ___
 72
    65
 73
     4
 40
28.574999999999989
 49
19.050000000000001
 49
-3.174999999999998
 49
3.174999999999998
 49
-3.174999999999998
  0
LTYPE
  2
DASHED2
 70
     0
  3
Dashed (.5x) _ _ _ _ _ _ _ _ _ _ _ _ _ _ _ _ _
 72
    65
 73
     2
 40
9.5249999999999986
 49
6.349999999999997
 49
-3.174999999999998
  0
ENDTAB
  0
TABLE
  2
LAYER
 70
     4
  0
LAYER
  2
0
 70
     0
 62
     7
  6
CONTINUOUS
  0
LAYER
  2
SU
 70
     0
 62
     7
  6
CONTINUOUS
  0
LAYER
  2
KI
 70
     0
 62
     7
  6
CONTINUOUS
  0
LAYER
  2
OS
 70
     0
 62
     7
  6
CONTINUOUS
  0
ENDTAB
  0
TABLE
  2
STYLE
 70
     4
  0
STYLE
  2
STANDARD
 70
     0
 40
0.0
 41
0.8299999999999999
 50
0.0
 71
     0
 42
2.5
  3
txt.shx
  4
extfont.shx
  0
ENDTAB
  0
TABLE
  2
VIEW
 70
     6
  0
VIEW
  2
AM_VIEW1
 70
     0
 40
148.9999998536185
 10
126.61001776470241
 20
223.4999997804278
 41
253.2200355294051
 11
0.0
 21
0.0
 31
1.0
 12
0.0
 22
0.0
 32
0.0
 42
50.0
 43
0.0
 44
0.0
 50
0.0
 71
    16
  0
VIEW
  2
AM_VIEW2
 70
     0
 40
148.9999998536185
 10
294.38998139545481
 20
223.4999997804278
 41
253.2200355294051
 11
0.0
 21
0.0
 31
1.0
 12
0.0
 22
0.0
 32
0.0
 42
50.0
 43
0.0
 44
0.0
 50
0.0
 71
    16
  0
VIEW
  2
AM_VIEW3
 70
     0
 40
148.9999998536185
 10
126.61001776470241
 20
74.499999926809267
 41
253.2200355294051
 11
0.0
 21
0.0
 31
1.0
 12
0.0
 22
0.0
 32
0.0
 42
50.0
 43
0.0
 44
0.0
 50
0.0
 71
    16
  0
VIEW
  2
AM_VIEW4
 70
     0
 40
148.9999998536185
 10
294.38998139545481
 20
74.499999926809267
 41
253.2200355294051
 11
0.0
 21
0.0
 31
1.0
 12
0.0
 22
0.0
 32
0.0
 42
50.0
 43
0.0
 44
0.0
 50
0.0
 71
    16
  0
VIEW
  2
AM_VIEW5
 70
     0
 40
148.9999998536185
 10
210.49999958007871
 20
148.9999998536185
 41
253.2200355294051
 11
0.0
 21
0.0
 31
1.0
 12
0.0
 22
0.0
 32
0.0
 42
50.0
 43
0.0
 44
0.0
 50
0.0
 71
    16
  0
VIEW
  2
AM_VIEW6
 70
     0
 40
297.99701970723982
 10
210.49999958007871
 20
148.9999998536185
 41
506.43500665810018
 11
0.0
 21
0.0
 31
1.0
 12
0.0
 22
0.0
 32
0.0
 42
50.0
 43
0.0
 44
0.0
 50
0.0
 71
    16
  0
ENDTAB
  0
TABLE
  2
UCS
 70
     0
  0
ENDTAB
  0
TABLE
  2
APPID
 70
    23
  0
APPID
  2
ACAD
 70
     0
  0
APPID
  2
MCAD_NO_VIS
 70
     0
  0
APPID
  2
ACAD_TEMP_GRAPHIC
 70
     0
  0
APPID
  2
ACATTRIBSERVICES
 70
     0
  0
APPID
  2
GENIUS_GENDIMSH_14
 70
     0
  0
APPID
  2
GENIUS_GENOLIS_13
 70
     0
  0
APPID
  2
GENIUS_GENOENT_13
 70
     0
  0
APPID
  2
GENIUS_GENODEF_13
 70
     0
  0
APPID
  2
GENIUS_GENOBJ-N-TIT_13
 70
     0
  0
APPID
  2
GENIUS_GENTITLE_13
 70
     0
  0
APPID
  2
GENIUS_GENOREF_13
 70
     0
  0
APPID
  2
GENIUS_GENSCREG_15
 70
     0
  0
APPID
  2
GENIUS_GENOBJ-N-SDF_13
 70
     0
  0
APPID
  2
GENIUS_GENOBJ-N-FIL_13
 70
     0
  0
APPID
  2
GENIUS_GENREC_14
 70
     0
  0
APPID
  2
GENIUS_GENOBJ-N-REC_13
 70
     0
  0
APPID
  2
GENIUS_GENDTOL_13
 70
     0
  0
APPID
  2
GENIUS_GENOBJ-N-CEN_13
 70
     0
  0
APPID
  2
GENIUS_GENOBJ-N-HTC_13
 70
     0
  0
APPID
  2
GENIUS_GENHATCH_13
 70
     0
  0
APPID
  2
GENIUS_GENFIL_13
 70
     0
  0
APPID
  2
GENIUS_GENOBJ-N-CHA_13
 70
     0
  0
APPID
  2
DCO15
 70
     0
  0
ENDTAB
  0
TABLE
  2
DIMSTYLE
 70
     7
  0
DIMSTYLE
  2
SANKYO
 70
     0
  3

  4
"
  5

  6

  7

 40
1.0
 41
2.399999999999999
 42
3.0
 43
7.0
 44
3.0
 45
0.0
 46
0.0
 47
0.1
 48
0.1
140
4.0
141
0.0
142
0.0
143
0.0393701
144
1.0
145
0.0
146
0.71
147
1.3
 71
     0
 72
     0
 73
     0
 74
     0
 75
     0
 76
     0
 77
     1
 78
     8
170
     0
171
     2
172
     1
173
     0
174
     0
175
     0
176
   256
177
   256
178
   256
  0
ENDTAB
  0
ENDSEC
  0
SECTION
  2
BLOCKS
  0
BLOCK
  8
0
  2
$MODEL_SPACE
 70
     0
 10
0.0
 20
0.0
 30
0.0
  3
$MODEL_SPACE
  1

  0
ENDBLK
  5
1A18D
  8
0
  0
BLOCK
 67
     1
  8
0
  2
$PAPER_SPACE
 70
     0
 10
0.0
 20
0.0
 30
0.0
  3
$PAPER_SPACE
  1

  0
ENDBLK
  5
1A189
 67
     1
  8
0
  0
BLOCK
  8
0
  2
_DOTSMALL
 70
     0
 10
0.0
 20
0.0
 30
0.0
  3
_DOTSMALL
  1

  0
POLYLINE
  5
1A1D6
  8
0
  6
BYBLOCK
 62
     0
 66
     1
 10
0.0
 20
0.0
 30
0.0
 70
     1
 40
1.0
 41
1.0
  0
VERTEX
  5
1A1D7
  8
0
  6
BYBLOCK
 62
     0
 10
-0.125
 20
0.0
 30
0.0
 42
1.0
  0
VERTEX
  5
1A1D8
  8
0
  6
BYBLOCK
 62
     0
 10
0.125
 20
0.0
 30
0.0
 42
1.0
  0
SEQEND
  5
1A1D9
  8
0
  6
BYBLOCK
 62
     0
  0
ENDBLK
  5
1A1DA
  8
0
  0
ENDSEC
  0
SECTION
  2
ENTITIES
  0
TEXT
  5
1A1DF
  8
KI
  6
CONTINUOUS
 62
     7
 10
217.70790036644311
 20
-269.30914795167661
 30
0.0
 40
7.0
  1
dt05a006
 41
0.84552428
  0
LINE
  5
1A1E0
  8
SU
  6
CONTINUOUS
 62
     3
 10
-266.62864637671152
 20
-33.101131395107231
 30
0.0
 11
-242.8457988444336
 21
-61.444425294789639
 31
0.0
  0
LINE
  5
1A1E1
  8
OS
  6
CONTINUOUS
 62
     2
 10
-256.4469291244983
 20
145.02948869841879
 30
0.0
 11
-253.4469291244983
 21
145.02948869841879
 31
0.0
  0
LINE
  5
1A1E2
  8
KI
  6
CONTINUOUS
 62
     7
 10
-143.4469291244981
 20
145.02948869841879
 30
0.0
 11
-143.4469291244998
 21
24.781410363204131
 31
0.0
  0
LINE
  5
1A1E3
  8
KI
  6
CONTINUOUS
 62
     7
 10
-256.4469291244983
 20
24.781410363204131
 30
0.0
 11
-256.44692912449631
 21
145.02948869841879
 31
0.0
  0
LINE
  5
1A1E4
  8
KI
  6
CONTINUOUS
 62
     7
 10
-256.44692912449989
 20
22.78141036321264
 30
0.0
 11
-256.4469291244983
 21
-73.466667971994184
 31
0.0
  0
LINE
  5
1A1E5
  8
KI
  6
CONTINUOUS
 62
     7
 10
-143.4469291244998
 20
22.78141036321264
 30
0.0
 11
-143.4469291244981
 21
-73.46666797199326
 31
0.0
  0
LINE
  5
1A1E6
  8
OS
  6
CONTINUOUS
 62
     2
 10
-146.4469291244983
 20
145.02948869841879
 30
0.0
 11
-143.4469291244981
 21
145.02948869841879
 31
0.0
  0
LINE
  5
1A1E7
  8
KI
  6
DASHED2
 62
     7
 10
-143.4469291244981
 20
-73.46666797199326
 30
0.0
 11
-143.4469291244981
 21
-85.466667971985089
 31
0.0
  0
LINE
  5
1A1E8
  8
KI
  6
DASHED2
 62
     7
 10
-256.4469291244983
 20
-73.466667971994184
 30
0.0
 11
-256.4469291244983
 21
-85.466667971985999
 31
0.0
  0
LINE
  5
1A1E9
  8
SU
  6
CONTINUOUS
 62
     3
 10
-304.26453108194482
 20
-33.101131395107231
 30
0.0
 11
-266.62864637671152
 21
-33.101131395107231
 31
0.0
  0
TEXT
  5
1A1EA
  8
KI
  6
CONTINUOUS
 62
     7
 10
218.5890692609735
 20
-250.23749767033081
 30
0.0
 40
7.0
  1
集合住宅用
 41
0.84552428
  0
TEXT
  5
1A1EB
  8
KI
  6
CONTINUOUS
 62
     7
 10
218.5890692609735
 20
-260.33402903394261
 30
0.0
 40
7.0
  1
厚壁枠（ノンケーシング枠）
 41
0.84552428
  0
TEXT
  5
1A1EC
  8
KI
  6
CONTINUOUS
 62
     7
 10
218.5890692609735
 20
-232.31420520886431
 30
0.0
 40
7.0
  1
D TOS多機能商品シリーズ
 41
0.84552428
  0
TEXT
  5
1A1ED
  8
KI
  6
CONTINUOUS
 62
     7
 10
218.5890692609735
 20
-241.23749767033081
 30
0.0
 40
7.0
  1
防音ドア
 41
0.84552428
  0
TEXT
  5
1A1EE
  8
KI
  6
CONTINUOUS
 62
     7
 10
-282.39313257236591
 20
249.56756908869511
 30
0.0
 40
7.0
  1
●標準たて枠
 41
0.84552428
  0
LINE
  5
1A1EF
  8
OS
  6
CONTINUOUS
 62
     2
 10
-119.4469285522934
 20
-237.29408971714
 30
0.0
 11
-277.4469291244983
 21
-237.29408971714
 31
0.0
  0
LINE
  5
1A1F0
  8
OS
  6
CONTINUOUS
 62
     2
 10
-119.4469285522934
 20
-225.29408971714
 30
0.0
 11
-277.4469291244983
 21
-225.29408971714
 31
0.0
  0
LINE
  5
1A1F1
  8
OS
  6
CONTINUOUS
 62
     2
 10
-119.4469285522934
 20
-228.2940897171398
 30
0.0
 11
-277.4469291244983
 21
-228.2940897171398
 31
0.0
  0
LINE
  5
1A1F2
  8
OS
  6
CONTINUOUS
 62
     2
 10
-119.4469285522934
 20
-231.29408971714
 30
0.0
 11
-277.4469291244983
 21
-231.29408971714
 31
0.0
  0
LINE
  5
1A1F3
  8
OS
  6
CONTINUOUS
 62
     2
 10
-119.4469285522934
 20
-234.2940897171398
 30
0.0
 11
-277.4469291244983
 21
-234.2940897171398
 31
0.0
  0
LINE
  5
1A1F4
  8
KI
  6
CONTINUOUS
 62
     7
 10
-256.4469291244983
 20
-126.64602736073439
 30
0.0
 11
-256.4469291244983
 21
-225.2940897171398
 31
0.0
  0
LINE
  5
1A1F5
  8
KI
  6
CONTINUOUS
 62
     7
 10
-143.4469291244981
 20
-126.64602736073439
 30
0.0
 11
-143.4469291244981
 21
-225.2940897171398
 31
0.0
  0
LINE
  5
1A1F6
  8
KI
  6
DASHED2
 62
     7
 10
-143.4469291244981
 20
-225.2940897171398
 30
0.0
 11
-143.4469291244981
 21
-237.2940897171317
 31
0.0
  0
LINE
  5
1A1F7
  8
KI
  6
DASHED2
 62
     7
 10
-256.4469291244983
 20
-225.2940897171398
 30
0.0
 11
-256.4469291244983
 21
-237.2940897171317
 31
0.0
  0
LINE
  5
1A1F8
  8
KI
  6
CONTINUOUS
 62
     7
 10
-150.94692912844781
 20
118.0294561777565
 30
0.0
 11
-150.94692912844801
 21
24.78141036321135
 31
0.0
  0
LINE
  5
1A1F9
  8
KI
  6
CONTINUOUS
 62
     7
 10
-190.9469308369608
 20
118.0294561777565
 30
0.0
 11
-190.94693083696089
 21
24.78141036321135
 31
0.0
  0
LINE
  5
1A1FA
  8
KI
  6
CONTINUOUS
 62
     7
 10
-150.94692912844781
 20
118.0294561777565
 30
0.0
 11
-190.9469308369608
 21
118.0294561777565
 31
0.0
  0
LINE
  5
1A1FB
  8
KI
  6
CONTINUOUS
 62
     7
 10
-201.94693083721239
 20
24.78141036321135
 30
0.0
 11
-201.94693083721211
 21
101.0294561777566
 31
0.0
  0
LINE
  5
1A1FC
  8
KI
  6
CONTINUOUS
 62
     7
 10
-225.94692836281351
 20
101.0294561777566
 30
0.0
 11
-225.94692836281411
 21
24.78141036321135
 31
0.0
  0
LINE
  5
1A1FD
  8
KI
  6
CONTINUOUS
 62
     7
 10
-225.94692836281411
 20
22.781410363208121
 30
0.0
 11
-225.94692836281351
 21
-50.466665144109577
 31
0.0
  0
LINE
  5
1A1FE
  8
KI
  6
CONTINUOUS
 62
     7
 10
-201.94693083721211
 20
-50.466665144109577
 30
0.0
 11
-201.94693083721239
 21
22.781410363208121
 31
0.0
  0
LINE
  5
1A1FF
  8
KI
  6
CONTINUOUS
 62
     7
 10
-150.94692912844781
 20
-65.466665144109569
 30
0.0
 11
-150.94692912844801
 21
22.781410363208121
 31
0.0
  0
LINE
  5
1A200
  8
KI
  6
CONTINUOUS
 62
     7
 10
-190.9469308369608
 20
-65.466665144109569
 30
0.0
 11
-190.946930836961
 21
22.781410363208121
 31
0.0
  0
LINE
  5
1A201
  8
KI
  6
CONTINUOUS
 62
     7
 10
-190.9469308369608
 20
-65.466665144109569
 30
0.0
 11
-150.94692912844781
 21
-65.466665144109569
 31
0.0
  0
LINE
  5
1A202
  8
OS
  6
CONTINUOUS
 62
     2
 10
-119.4469285522937
 20
-85.466667971993274
 30
0.0
 11
-277.4469291244983
 21
-85.466667971993274
 31
0.0
  0
LINE
  5
1A203
  8
OS
  6
CONTINUOUS
 62
     2
 10
-253.4469291244983
 20
-79.46666797199758
 30
0.0
 11
-277.4469291244983
 21
-79.46666797199326
 31
0.0
  0
LINE
  5
1A204
  8
OS
  6
CONTINUOUS
 62
     2
 10
-253.4469291244983
 20
-76.46666797199758
 30
0.0
 11
-277.4469291244983
 21
-76.46666797199326
 31
0.0
  0
LINE
  5
1A205
  8
OS
  6
CONTINUOUS
 62
     2
 10
-253.4469291244983
 20
-82.46666797199758
 30
0.0
 11
-277.4469291244983
 21
-82.46666797199326
 31
0.0
  0
LINE
  5
1A206
  8
OS
  6
CONTINUOUS
 62
     2
 10
-253.4469291244983
 20
-73.46666797199758
 30
0.0
 11
-277.4469291244983
 21
-73.46666797199326
 31
0.0
  0
LINE
  5
1A207
  8
OS
  6
CONTINUOUS
 62
     2
 10
-253.4469291244983
 20
-85.466667971993274
 30
0.0
 11
-253.4469291244983
 21
-73.466667972001659
 31
0.0
  0
LINE
  5
1A208
  8
OS
  6
CONTINUOUS
 62
     2
 10
-146.4469291244983
 20
-85.466667971993274
 30
0.0
 11
-146.4469291244983
 21
-73.466667972001659
 31
0.0
  0
LINE
  5
1A209
  8
OS
  6
CONTINUOUS
 62
     2
 10
-119.4469285522937
 20
-76.46666797199326
 30
0.0
 11
-146.4469291244983
 21
-76.46666797199326
 31
0.0
  0
LINE
  5
1A20A
  8
OS
  6
CONTINUOUS
 62
     2
 10
-119.4469285522937
 20
-79.46666797199326
 30
0.0
 11
-146.4469291244983
 21
-79.46666797199326
 31
0.0
  0
LINE
  5
1A20B
  8
OS
  6
CONTINUOUS
 62
     2
 10
-119.4469285522937
 20
-82.46666797199326
 30
0.0
 11
-146.4469291244983
 21
-82.46666797199326
 31
0.0
  0
LINE
  5
1A20C
  8
OS
  6
CONTINUOUS
 62
     2
 10
-119.4469285522937
 20
-73.46666797199326
 30
0.0
 11
-146.4469291244983
 21
-73.46666797199326
 31
0.0
  0
LINE
  5
1A20D
  8
KI
  6
CONTINUOUS
 62
     7
 10
-150.94692912844781
 20
-217.29408971713991
 30
0.0
 11
-150.94692912844801
 21
-126.64602736073439
 31
0.0
  0
LINE
  5
1A20E
  8
KI
  6
CONTINUOUS
 62
     7
 10
-190.9469308369608
 20
-217.29408971713991
 30
0.0
 11
-190.9469308369608
 21
-126.64602736073439
 31
0.0
  0
LINE
  5
1A20F
  8
KI
  6
CONTINUOUS
 62
     7
 10
-190.9469308369608
 20
-217.29408971713991
 30
0.0
 11
-178.4469299827044
 21
-217.29408971713991
 31
0.0
  0
LINE
  5
1A210
  8
KI
  6
CONTINUOUS
 62
     7
 10
-225.94692836281411
 20
-126.64602736073439
 30
0.0
 11
-225.94692836281351
 21
-225.29408971714
 31
0.0
  0
LINE
  5
1A211
  8
KI
  6
CONTINUOUS
 62
     7
 10
-201.94693083721211
 20
-225.29408971714
 30
0.0
 11
-201.94693083721239
 21
-126.64602736073439
 31
0.0
  0
LINE
  5
1A212
  8
KI
  6
CONTINUOUS
 62
     7
 10
-163.4469299827044
 20
-217.29408971713991
 30
0.0
 11
-163.4469299827044
 21
-186.79408971714
 31
0.0
  0
LINE
  5
1A213
  8
KI
  6
CONTINUOUS
 62
     7
 10
-178.4469299827044
 20
-217.29408971713991
 30
0.0
 11
-178.4469299827044
 21
-186.79408971714
 31
0.0
  0
LINE
  5
1A214
  8
KI
  6
CONTINUOUS
 62
     7
 10
-159.6969299827044
 20
-168.54408971714
 30
0.0
 11
-159.6969299827044
 21
-217.29408971713991
 31
0.0
  0
LINE
  5
1A215
  8
KI
  6
CONTINUOUS
 62
     7
 10
-182.1969299827044
 20
-168.54408971714
 30
0.0
 11
-182.1969299827044
 21
-217.29408971713991
 31
0.0
  0
LINE
  5
1A216
  8
KI
  6
CONTINUOUS
 62
     7
 10
-163.4469299827044
 20
-186.79408971714
 30
0.0
 11
-178.4469299827044
 21
-186.79408971714
 31
0.0
  0
ARC
  5
1A217
  8
KI
  6
CONTINUOUS
 62
     7
 10
-170.94692998270409
 20
-168.54408971714
 30
0.0
 40
11.25
 50
0.0
 51
180.0
  0
LINE
  5
1A218
  8
KI
  6
CONTINUOUS
 62
     7
 10
-163.4469299827044
 20
-217.29408971713991
 30
0.0
 11
-150.94692912844781
 21
-217.29408971713991
 31
0.0
  0
LINE
  5
1A219
  8
KI
  6
CONTINUOUS
 62
     7
 10
259.62421578619012
 20
-66.773276052506716
 30
0.0
 11
163.62421578619001
 21
-66.773276052506716
 31
0.0
  0
LINE
  5
1A21A
  8
KI
  6
CONTINUOUS
 62
     7
 10
259.62421578619012
 20
-26.773274343993641
 30
0.0
 11
163.62421578619001
 21
-26.773274343993641
 31
0.0
  0
LINE
  5
1A21B
  8
KI
  6
CONTINUOUS
 62
     7
 10
163.62421578619001
 20
-15.773274343993631
 30
0.0
 11
243.62421578619009
 21
-15.773274343993631
 31
0.0
  0
LINE
  5
1A21C
  8
KI
  6
CONTINUOUS
 62
     7
 10
243.62421578619009
 20
8.2267231816082376
 30
0.0
 11
163.62421578619001
 21
8.2267231816082376
 31
0.0
  0
LINE
  5
1A21D
  8
KI
  6
CONTINUOUS
 62
     7
 10
65.624221206300874
 20
-66.773276052506716
 30
0.0
 11
161.62421578619009
 21
-66.773276052506716
 31
0.0
  0
LINE
  5
1A21E
  8
KI
  6
CONTINUOUS
 62
     7
 10
67.624223916355902
 20
-26.773274343993641
 30
0.0
 11
161.62421578619009
 21
-26.773274343993641
 31
0.0
  0
LINE
  5
1A21F
  8
KI
  6
CONTINUOUS
 62
     7
 10
161.62421578619009
 20
-15.773274343993631
 30
0.0
 11
81.624215786190405
 21
-15.773274343993631
 31
0.0
  0
LINE
  5
1A220
  8
KI
  6
CONTINUOUS
 62
     7
 10
81.624215786190405
 20
8.2267231816082411
 30
0.0
 11
161.62421578619009
 21
8.2267231816082376
 31
0.0
  0
LINE
  5
1A221
  8
KI
  6
CONTINUOUS
 62
     7
 10
65.624221206300874
 20
-66.773276052506716
 30
0.0
 11
67.624223916355902
 21
-26.773274343993641
 31
0.0
  0
LINE
  5
1A222
  8
KI
  6
CONTINUOUS
 62
     7
 10
259.62421578619012
 20
-26.773274343993641
 30
0.0
 11
259.62421578619012
 21
-66.773276052506716
 31
0.0
  0
LINE
  5
1A223
  8
SU
  6
CONTINUOUS
 62
     3
 10
-210.95805771628949
 20
-249.55521753969521
 30
0.0
 11
-182.1969299827044
 21
-220.79408971714
 31
0.0
  0
LINE
  5
1A224
  8
SU
  6
CONTINUOUS
 62
     3
 10
-265.41714880511881
 20
-249.55521753969521
 30
0.0
 11
-210.95805771628949
 21
-249.55521753969521
 31
0.0
  0
LINE
  5
1A225
  8
KI
  6
CONTINUOUS
 62
     7
 10
61.624215786190391
 20
35.726723943544251
 30
0.0
 11
161.62421578619009
 21
35.726723943544243
 31
0.0
  0
LINE
  5
1A226
  8
KI
  6
CONTINUOUS
 62
     7
 10
263.62421578619012
 20
35.726723943544243
 30
0.0
 11
163.62421578619001
 21
35.726723943544243
 31
0.0
  0
LINE
  5
1A227
  8
KI
  6
CONTINUOUS
 62
     7
 10
261.32421578619
 20
-71.273276056455771
 30
0.0
 11
259.13007649192349
 21
-71.273276056455771
 31
0.0
  0
LINE
  5
1A228
  8
KI
  6
CONTINUOUS
 62
     7
 10
61.624215786190391
 20
-71.273276056455771
 30
0.0
 11
161.62421578619009
 21
-71.273276056455771
 31
0.0
  0
LINE
  5
1A229
  8
KI
  6
CONTINUOUS
 62
     7
 10
256.81603256421721
 20
-71.273276056455771
 30
0.0
 11
163.62421578619001
 21
-71.273276056455771
 31
0.0
  0
LINE
  5
1A22A
  8
KI
  6
CONTINUOUS
 62
     7
 10
263.62421578619012
 20
12.22672394354422
 30
0.0
 11
163.62421578619001
 21
12.22672394354422
 31
0.0
  0
LINE
  5
1A22B
  8
KI
  6
CONTINUOUS
 62
     7
 10
61.624215786190391
 20
12.226723943544251
 30
0.0
 11
161.62421578619009
 21
12.22672394354422
 31
0.0
  0
LINE
  5
1A22C
  8
OS
  6
CONTINUOUS
 62
     2
 10
-253.4469291244983
 20
-73.672728732652899
 30
0.0
 11
-231.92049320914279
 21
-52.146292817298821
 31
0.0
  0
LINE
  5
1A22D
  8
OS
  6
CONTINUOUS
 62
     2
 10
-156.34642406111001
 20
-85.466667971993161
 30
0.0
 11
-146.4469291244983
 21
-75.567173035381401
 31
0.0
  0
LINE
  5
1A22E
  8
OS
  6
CONTINUOUS
 62
     2
 10
-166.2459189977217
 20
-85.466667971993274
 30
0.0
 11
-151.2459161698379
 21
-70.466665144109569
 31
0.0
  0
LINE
  5
1A22F
  8
OS
  6
CONTINUOUS
 62
     2
 10
-186.04490887094511
 20
-85.466667971993189
 30
0.0
 11
-171.0449060430615
 21
-70.466665144109569
 31
0.0
  0
LINE
  5
1A230
  8
OS
  6
CONTINUOUS
 62
     2
 10
-195.94440380755671
 20
-85.466667971993274
 30
0.0
 11
-180.94440097967279
 21
-70.466665144109569
 31
0.0
  0
LINE
  5
1A231
  8
OS
  6
CONTINUOUS
 62
     2
 10
-215.74339368078009
 20
-85.466667971993161
 30
0.0
 11
-200.7433908528964
 21
-70.466665144109569
 31
0.0
  0
LINE
  5
1A232
  8
OS
  6
CONTINUOUS
 62
     2
 10
-205.84389874416851
 20
-85.466667971993274
 30
0.0
 11
-190.84389591628471
 21
-70.466665144109569
 31
0.0
  0
LINE
  5
1A233
  8
OS
  6
CONTINUOUS
 62
     2
 10
-176.14541393433331
 20
-85.466667971993161
 30
0.0
 11
-161.1454111064495
 21
-70.466665144109569
 31
0.0
  0
LINE
  5
1A234
  8
OS
  6
CONTINUOUS
 62
     2
 10
-235.5423835540029
 20
-85.466667971993047
 30
0.0
 11
-201.9469308369608
 21
-51.87121525495062
 31
0.0
  0
LINE
  5
1A235
  8
OS
  6
CONTINUOUS
 62
     2
 10
-225.64288861739129
 20
-85.466667971993189
 30
0.0
 11
-201.9469308369608
 21
-61.770710191562451
 31
0.0
  0
LINE
  5
1A236
  8
OS
  6
CONTINUOUS
 62
     2
 10
-245.44187849061501
 20
-85.466667971993161
 30
0.0
 11
-210.44187566273141
 21
-50.466665144109577
 31
0.0
  0
LINE
  5
1A237
  8
OS
  6
CONTINUOUS
 62
     2
 10
-253.4469291244983
 20
-83.57222366926473
 30
0.0
 11
-220.34137059934301
 21
-50.466665144109577
 31
0.0
  0
LINE
  5
1A238
  8
SU
  6
CONTINUOUS
 62
     3
 10
-253.4469292380013
 20
-86.466667972001929
 30
0.0
 11
-253.4469292380013
 21
-108.46666797200101
 31
0.0
  0
LINE
  5
1A239
  8
SU
  6
CONTINUOUS
 62
     3
 10
-146.44692924712879
 20
-86.466667972001403
 30
0.0
 11
-146.44692924712879
 21
-108.46666797200101
 31
0.0
  0
LINE
  5
1A23A
  8
SU
  6
CONTINUOUS
 62
     3
 10
-253.4469292380013
 20
-105.46666797200101
 30
0.0
 11
-146.44692924712879
 21
-105.46666797200101
 31
0.0
  0
LINE
  5
1A23B
  8
SU
  6
CONTINUOUS
 62
     3
 10
-253.4469292380013
 20
-86.466667972001915
 30
0.0
 11
-253.4469292380013
 21
-108.46666797200101
 31
0.0
  0
LINE
  5
1A23C
  8
SU
  6
CONTINUOUS
 62
     3
 10
-256.4469291244983
 20
-86.466667971986013
 30
0.0
 11
-256.4469291244983
 21
-108.46666797200101
 31
0.0
  0
LINE
  5
1A23D
  8
SU
  6
CONTINUOUS
 62
     3
 10
-251.0469292380013
 20
-105.4666679720012
 30
0.0
 11
-248.64692923800129
 21
-105.4666679720012
 31
0.0
  0
LINE
  5
1A23E
  8
SU
  6
CONTINUOUS
 62
     3
 10
-256.4469291244983
 20
-105.4666679720012
 30
0.0
 11
-266.06026245783158
 21
-105.4666679720012
 31
0.0
  0
LINE
  5
1A23F
  8
SU
  6
CONTINUOUS
 62
     3
 10
-253.4469292380013
 20
-105.4666679720012
 30
0.0
 11
-256.4469291244983
 21
-105.4666679720012
 31
0.0
  0
LINE
  5
1A240
  8
SU
  6
CONTINUOUS
 62
     3
 10
-182.1969299827044
 20
-220.79408971714
 30
0.0
 11
-184.1165152957725
 21
-222.26703933358519
 31
0.0
  0
LINE
  5
1A241
  8
SU
  6
CONTINUOUS
 62
     3
 10
-182.1969299827044
 20
-220.79408971714
 30
0.0
 11
-183.6702838292984
 21
-222.71420183319421
 31
0.0
  0
TEXT
  5
1A242
  8
SU
  6
CONTINUOUS
 62
     3
 10
-265.6171270702277
 20
-248.22188420636169
 30
0.0
 40
4.0
  1
ボトムタイトナー（三方枠用）
 41
0.8299999999999999
  0
TEXT
  5
1A243
  8
SU
  6
CONTINUOUS
 62
     3
 10
-250.7087461178468
 20
-254.88855087302861
 30
0.0
 40
4.0
  1
〔オプション〕
 41
0.8299999999999999
  0
TEXT
  5
1A244
  8
SU
  6
CONTINUOUS
 62
     3
 10
-304.26453108194482
 20
-32.026209655454061
 30
0.0
 40
4.0
  1
下枠沓摺（四方枠用）
 41
0.8299999999999999
  0
LINE
  5
1A245
  8
SU
  6
CONTINUOUS
 62
     3
 10
-225.9469283625626
 20
100.0294561777566
 30
0.0
 11
-225.9469283625626
 21
76.529488698420977
 31
0.0
  0
LINE
  5
1A246
  8
SU
  6
CONTINUOUS
 62
     3
 10
-253.4469291244983
 20
120.029488698419
 30
0.0
 11
-253.4469291244983
 21
76.529488698420977
 31
0.0
  0
LINE
  5
1A247
  8
SU
  6
CONTINUOUS
 62
     3
 10
-225.9469283625626
 20
79.529488698420977
 30
0.0
 11
-253.4469291244983
 21
79.529488698420977
 31
0.0
  0
LINE
  5
1A248
  8
KI
  6
DASHED2
 62
     7
 10
243.62418079112959
 20
-4.8232673842798004
 30
0.0
 11
241.62417808107381
 21
-6.3220008458732764
 31
0.0
  0
LINE
  5
1A249
  8
KI
  6
DASHED2
 62
     7
 10
243.62418079112959
 20
-2.7232837860050272
 30
0.0
 11
241.62417808107381
 21
-1.2245503244115521
 31
0.0
  0
LINE
  5
1A24A
  8
KI
  6
DASHED2
 62
     7
 10
267.36811945810263
 20
-2.6128043756474471
 30
0.0
 11
265.55149086574761
 21
-5.0618812012347698
 31
0.0
  0
LINE
  5
1A24B
  8
KI
  6
DASHED2
 62
     7
 10
268.47826776646281
 20
-2.6128043756474471
 30
0.0
 11
266.66163917410751
 21
-5.0618812012347698
 31
0.0
  0
LINE
  5
1A24C
  8
KI
  6
DASHED2
 62
     7
 10
269.58845106988321
 20
-2.6128043756474471
 30
0.0
 11
267.77182247752842
 21
-5.0618812012347743
 31
0.0
  0
LINE
  5
1A24D
  8
KI
  6
DASHED2
 62
     7
 10
270.69859937824282
 20
-2.6128043756474471
 30
0.0
 11
268.88197078588831
 21
-5.0618812012347743
 31
0.0
  0
LINE
  5
1A24E
  8
KI
  6
DASHED2
 62
     7
 10
271.80874768660328
 20
-2.6128043756474471
 30
0.0
 11
269.99211909424861
 21
-5.0618812012347743
 31
0.0
  0
LINE
  5
1A24F
  8
KI
  6
DASHED2
 62
     7
 10
272.9189309900238
 20
-2.6128043756474471
 30
0.0
 11
271.10230239766889
 21
-5.0618812012347743
 31
0.0
  0
LINE
  5
1A250
  8
KI
  6
DASHED2
 62
     7
 10
274.02907929838369
 20
-2.6128043756474471
 30
0.0
 11
272.21245070602902
 21
-5.0618812012347743
 31
0.0
  0
LINE
  5
1A251
  8
KI
  6
DASHED2
 62
     7
 10
275.13922760674399
 20
-2.6128043756474471
 30
0.0
 11
273.32259901438903
 21
-5.0618812012347743
 31
0.0
  0
LINE
  5
1A252
  8
KI
  6
DASHED2
 62
     7
 10
276.24941091016422
 20
-2.6128043756474471
 30
0.0
 11
274.43278231780943
 21
-5.0618812012347751
 31
0.0
  0
LINE
  5
1A253
  8
KI
  6
DASHED2
 62
     7
 10
277.35955921852423
 20
-2.6128043756474471
 30
0.0
 11
275.54293062616972
 21
-5.0618812012347751
 31
0.0
  0
LINE
  5
1A254
  8
KI
  6
DASHED2
 62
     7
 10
278.46974252194502
 20
-2.6128043756474471
 30
0.0
 11
276.65311392959012
 21
-5.0618812012347751
 31
0.0
  0
LINE
  5
1A255
  8
KI
  6
DASHED2
 62
     7
 10
264.03763953796192
 20
-2.6128043756474471
 30
0.0
 11
262.22101094560719
 21
-5.0618812012347689
 31
0.0
  0
LINE
  5
1A256
  8
KI
  6
DASHED2
 62
     7
 10
265.14778784632222
 20
-2.6128043756474471
 30
0.0
 11
263.33115925396709
 21
-5.0618812012347689
 31
0.0
  0
LINE
  5
1A257
  8
KI
  6
DASHED2
 62
     7
 10
266.25793615468223
 20
-2.6128043756474471
 30
0.0
 11
264.44130756232721
 21
-5.0618812012347698
 31
0.0
  0
LINE
  5
1A258
  8
KI
  6
DASHED2
 62
     7
 10
260.707124622761
 20
-2.6128043756474462
 30
0.0
 11
258.89053102546671
 21
-5.0618812012347689
 31
0.0
  0
LINE
  5
1A259
  8
KI
  6
DASHED2
 62
     7
 10
261.8173079261818
 20
-2.6128043756474462
 30
0.0
 11
260.00067933382638
 21
-5.0618812012347689
 31
0.0
  0
LINE
  5
1A25A
  8
KI
  6
DASHED2
 62
     7
 10
262.92745623454169
 20
-2.6128043756474462
 30
0.0
 11
261.11082764218662
 21
-5.0618812012347689
 31
0.0
  0
LINE
  5
1A25B
  8
KI
  6
DASHED2
 62
     7
 10
267.36811945810263
 20
-2.612804379596473
 30
0.0
 11
265.55149086574761
 21
-5.0618812051838002
 31
0.0
  0
LINE
  5
1A25C
  8
KI
  6
DASHED2
 62
     7
 10
268.47826776646281
 20
-2.612804379596473
 30
0.0
 11
266.66163917410751
 21
-5.0618812051838002
 31
0.0
  0
LINE
  5
1A25D
  8
KI
  6
DASHED2
 62
     7
 10
269.58845106988321
 20
-2.612804379596473
 30
0.0
 11
267.77182247752842
 21
-5.0618812051838002
 31
0.0
  0
LINE
  5
1A25E
  8
KI
  6
DASHED2
 62
     7
 10
270.69859937824282
 20
-2.612804379596473
 30
0.0
 11
268.88197078588831
 21
-5.0618812051838002
 31
0.0
  0
LINE
  5
1A25F
  8
KI
  6
DASHED2
 62
     7
 10
271.80874768660328
 20
-2.612804379596473
 30
0.0
 11
269.99211909424861
 21
-5.0618812051838002
 31
0.0
  0
LINE
  5
1A260
  8
KI
  6
DASHED2
 62
     7
 10
272.9189309900238
 20
-2.612804379596473
 30
0.0
 11
271.10230239766889
 21
-5.0618812051838002
 31
0.0
  0
LINE
  5
1A261
  8
KI
  6
DASHED2
 62
     7
 10
274.02907929838369
 20
-2.612804379596473
 30
0.0
 11
272.21245070602902
 21
-5.0618812051838002
 31
0.0
  0
LINE
  5
1A262
  8
KI
  6
DASHED2
 62
     7
 10
275.13922760674399
 20
-2.612804379596473
 30
0.0
 11
273.32259901438903
 21
-5.0618812051838002
 31
0.0
  0
LINE
  5
1A263
  8
KI
  6
DASHED2
 62
     7
 10
276.24941091016422
 20
-2.612804379596473
 30
0.0
 11
274.43278231780943
 21
-5.0618812051838011
 31
0.0
  0
LINE
  5
1A264
  8
KI
  6
DASHED2
 62
     7
 10
277.35955921852423
 20
-2.612804379596473
 30
0.0
 11
275.54293062616972
 21
-5.0618812051838011
 31
0.0
  0
LINE
  5
1A265
  8
KI
  6
DASHED2
 62
     7
 10
278.46974252194502
 20
-2.612804379596473
 30
0.0
 11
276.65311392959012
 21
-5.0618812051838011
 31
0.0
  0
LINE
  5
1A266
  8
KI
  6
DASHED2
 62
     7
 10
279.57989083030532
 20
-2.612804379596473
 30
0.0
 11
277.7632622379499
 21
-5.061881205183802
 31
0.0
  0
LINE
  5
1A267
  8
KI
  6
DASHED2
 62
     7
 10
280.69003913866521
 20
-2.612804379596473
 30
0.0
 11
278.8734105463102
 21
-5.061881205183802
 31
0.0
  0
LINE
  5
1A268
  8
KI
  6
DASHED2
 62
     7
 10
281.80022244208561
 20
-2.612804379596473
 30
0.0
 11
279.98359384973071
 21
-5.061881205183802
 31
0.0
  0
LINE
  5
1A269
  8
KI
  6
DASHED2
 62
     7
 10
282.91037075044562
 20
-2.6128043795964762
 30
0.0
 11
281.09374215809061
 21
-5.061881205183802
 31
0.0
  0
LINE
  5
1A26A
  8
KI
  6
DASHED2
 62
     7
 10
243.62418079112959
 20
-2.7232837860050272
 30
0.0
 11
281.73880611067989
 21
-2.723283786005033
 31
0.0
  0
LINE
  5
1A26B
  8
KI
  6
DASHED2
 62
     7
 10
281.73880611067989
 20
-2.723283786005033
 30
0.0
 11
290.32711891514901
 21
-3.76881371491198
 31
0.0
  0
LINE
  5
1A26C
  8
KI
  6
DASHED2
 62
     7
 10
281.73880611067989
 20
-4.8232673842798084
 30
0.0
 11
290.32711891514901
 21
-3.7777374553728631
 31
0.0
  0
LINE
  5
1A26D
  8
KI
  6
DASHED2
 62
     7
 10
243.62418079112959
 20
-4.8232673842798004
 30
0.0
 11
281.73880611067989
 21
-4.8232673842798084
 31
0.0
  0
LINE
  5
1A26E
  8
KI
  6
DASHED2
 62
     7
 10
264.03763953796192
 20
-2.612804379596473
 30
0.0
 11
262.22101094560719
 21
-5.0618812051837949
 31
0.0
  0
LINE
  5
1A26F
  8
KI
  6
DASHED2
 62
     7
 10
265.14778784632222
 20
-2.612804379596473
 30
0.0
 11
263.33115925396748
 21
-5.0618812051837949
 31
0.0
  0
LINE
  5
1A270
  8
KI
  6
DASHED2
 62
     7
 10
266.25793615468223
 20
-2.612804379596473
 30
0.0
 11
264.44130756232721
 21
-5.0618812051838002
 31
0.0
  0
LINE
  5
1A271
  8
KI
  6
DASHED2
 62
     7
 10
260.707124622761
 20
-2.6128043795964722
 30
0.0
 11
258.89053102546671
 21
-5.0618812051837949
 31
0.0
  0
LINE
  5
1A272
  8
KI
  6
DASHED2
 62
     7
 10
261.8173079261818
 20
-2.6128043795964722
 30
0.0
 11
260.00067933382638
 21
-5.0618812051837949
 31
0.0
  0
LINE
  5
1A273
  8
KI
  6
DASHED2
 62
     7
 10
262.92745623454169
 20
-2.6128043795964722
 30
0.0
 11
261.11082764218662
 21
-5.0618812051837949
 31
0.0
  0
LINE
  5
1A274
  8
KI
  6
CENTER2
 62
     7
 10
237.2692177609953
 20
-3.77327558514241
 30
0.0
 11
295.73941999709763
 21
-3.7732755851424229
 31
0.0
  0
LINE
  5
1A275
  8
KI
  6
DASHED2
 62
     7
 10
81.624250781250936
 20
-4.8232673842797951
 30
0.0
 11
83.624253491306433
 21
-6.3220008458732684
 31
0.0
  0
LINE
  5
1A276
  8
KI
  6
DASHED2
 62
     7
 10
81.624250781250936
 20
-2.7232837860050192
 30
0.0
 11
83.624253491306433
 21
-1.2245503244115441
 31
0.0
  0
LINE
  5
1A277
  8
KI
  6
DASHED2
 62
     7
 10
57.880312114277963
 20
-2.612804375647428
 30
0.0
 11
59.696940706632802
 21
-5.0618812012347529
 31
0.0
  0
LINE
  5
1A278
  8
KI
  6
DASHED2
 62
     7
 10
56.770163805917662
 20
-2.612804375647428
 30
0.0
 11
58.586792398272962
 21
-5.0618812012347529
 31
0.0
  0
LINE
  5
1A279
  8
KI
  6
DASHED2
 62
     7
 10
55.659980502497248
 20
-2.612804375647428
 30
0.0
 11
57.476609094852101
 21
-5.0618812012347529
 31
0.0
  0
LINE
  5
1A27A
  8
KI
  6
DASHED2
 62
     7
 10
54.549832194137423
 20
-2.612804375647428
 30
0.0
 11
56.366460786492262
 21
-5.061881201234752
 31
0.0
  0
LINE
  5
1A27B
  8
KI
  6
DASHED2
 62
     7
 10
53.439683885777129
 20
-2.612804375647428
 30
0.0
 11
55.256312478131981
 21
-5.061881201234752
 31
0.0
  0
LINE
  5
1A27C
  8
KI
  6
DASHED2
 62
     7
 10
52.329500582356722
 20
-2.612804375647428
 30
0.0
 11
54.146129174711561
 21
-5.061881201234752
 31
0.0
  0
LINE
  5
1A27D
  8
KI
  6
DASHED2
 62
     7
 10
51.219352273996883
 20
-2.612804375647428
 30
0.0
 11
53.035980866351281
 21
-5.061881201234752
 31
0.0
  0
LINE
  5
1A27E
  8
KI
  6
DASHED2
 62
     7
 10
50.109203965636567
 20
-2.6128043756474271
 30
0.0
 11
51.925832557991441
 21
-5.061881201234752
 31
0.0
  0
LINE
  5
1A27F
  8
KI
  6
DASHED2
 62
     7
 10
48.999020662216211
 20
-2.6128043756474271
 30
0.0
 11
50.815649254571042
 21
-5.061881201234752
 31
0.0
  0
LINE
  5
1A280
  8
KI
  6
DASHED2
 62
     7
 10
47.888872353856357
 20
-2.6128043756474271
 30
0.0
 11
49.705500946210741
 21
-5.061881201234752
 31
0.0
  0
LINE
  5
1A281
  8
KI
  6
DASHED2
 62
     7
 10
46.778689050435489
 20
-2.6128043756474271
 30
0.0
 11
48.595317642790349
 21
-5.061881201234752
 31
0.0
  0
LINE
  5
1A282
  8
KI
  6
DASHED2
 62
     7
 10
61.210792034418489
 20
-2.6128043756474302
 30
0.0
 11
63.027420626773321
 21
-5.0618812012347538
 31
0.0
  0
LINE
  5
1A283
  8
KI
  6
DASHED2
 62
     7
 10
60.100643726058181
 20
-2.6128043756474302
 30
0.0
 11
61.917272318413488
 21
-5.0618812012347529
 31
0.0
  0
LINE
  5
1A284
  8
KI
  6
DASHED2
 62
     7
 10
58.990495417698341
 20
-2.6128043756474302
 30
0.0
 11
60.807124010053208
 21
-5.0618812012347529
 31
0.0
  0
LINE
  5
1A285
  8
KI
  6
DASHED2
 62
     7
 10
64.541306949619582
 20
-2.6128043756474311
 30
0.0
 11
66.357900546913868
 21
-5.0618812012347583
 31
0.0
  0
LINE
  5
1A286
  8
KI
  6
DASHED2
 62
     7
 10
63.431123646198728
 20
-2.6128043756474311
 30
0.0
 11
65.247752238554014
 21
-5.0618812012347583
 31
0.0
  0
LINE
  5
1A287
  8
KI
  6
DASHED2
 62
     7
 10
62.320975337838888
 20
-2.6128043756474311
 30
0.0
 11
64.137603930193734
 21
-5.0618812012347538
 31
0.0
  0
LINE
  5
1A288
  8
KI
  6
DASHED2
 62
     7
 10
57.880312114277963
 20
-2.612804379596454
 30
0.0
 11
59.696940706632802
 21
-5.0618812051837789
 31
0.0
  0
LINE
  5
1A289
  8
KI
  6
DASHED2
 62
     7
 10
56.770163805917662
 20
-2.612804379596454
 30
0.0
 11
58.586792398272962
 21
-5.0618812051837789
 31
0.0
  0
LINE
  5
1A28A
  8
KI
  6
DASHED2
 62
     7
 10
55.659980502497248
 20
-2.612804379596454
 30
0.0
 11
57.476609094852101
 21
-5.0618812051837789
 31
0.0
  0
LINE
  5
1A28B
  8
KI
  6
DASHED2
 62
     7
 10
54.549832194137423
 20
-2.612804379596454
 30
0.0
 11
56.366460786492262
 21
-5.061881205183778
 31
0.0
  0
LINE
  5
1A28C
  8
KI
  6
DASHED2
 62
     7
 10
53.439683885777129
 20
-2.612804379596454
 30
0.0
 11
55.256312478131981
 21
-5.061881205183778
 31
0.0
  0
LINE
  5
1A28D
  8
KI
  6
DASHED2
 62
     7
 10
52.329500582356722
 20
-2.612804379596454
 30
0.0
 11
54.146129174711561
 21
-5.061881205183778
 31
0.0
  0
LINE
  5
1A28E
  8
KI
  6
DASHED2
 62
     7
 10
51.219352273996883
 20
-2.612804379596454
 30
0.0
 11
53.035980866351281
 21
-5.061881205183778
 31
0.0
  0
LINE
  5
1A28F
  8
KI
  6
DASHED2
 62
     7
 10
50.109203965636567
 20
-2.6128043795964522
 30
0.0
 11
51.925832557991441
 21
-5.061881205183778
 31
0.0
  0
LINE
  5
1A290
  8
KI
  6
DASHED2
 62
     7
 10
48.999020662216211
 20
-2.6128043795964522
 30
0.0
 11
50.815649254571042
 21
-5.061881205183778
 31
0.0
  0
LINE
  5
1A291
  8
KI
  6
DASHED2
 62
     7
 10
47.888872353856357
 20
-2.6128043795964522
 30
0.0
 11
49.705500946210741
 21
-5.061881205183778
 31
0.0
  0
LINE
  5
1A292
  8
KI
  6
DASHED2
 62
     7
 10
46.778689050435489
 20
-2.6128043795964522
 30
0.0
 11
48.595317642790349
 21
-5.061881205183778
 31
0.0
  0
LINE
  5
1A293
  8
KI
  6
DASHED2
 62
     7
 10
45.668540742075223
 20
-2.6128043795964522
 30
0.0
 11
47.485169334430502
 21
-5.061881205183778
 31
0.0
  0
LINE
  5
1A294
  8
KI
  6
DASHED2
 62
     7
 10
44.558392433715362
 20
-2.6128043795964522
 30
0.0
 11
46.375021026070222
 21
-5.061881205183778
 31
0.0
  0
LINE
  5
1A295
  8
KI
  6
DASHED2
 62
     7
 10
43.448209130294963
 20
-2.6128043795964522
 30
0.0
 11
45.264837722649808
 21
-5.061881205183778
 31
0.0
  0
LINE
  5
1A296
  8
KI
  6
DASHED2
 62
     7
 10
42.33806082193464
 20
-2.6128043795964522
 30
0.0
 11
44.154689414289962
 21
-5.061881205183778
 31
0.0
  0
LINE
  5
1A297
  8
KI
  6
DASHED2
 62
     7
 10
81.624250781250936
 20
-2.7232837860050192
 30
0.0
 11
43.509625461700303
 21
-2.723283786005009
 31
0.0
  0
LINE
  5
1A298
  8
KI
  6
DASHED2
 62
     7
 10
43.509625461700303
 20
-2.723283786005009
 30
0.0
 11
34.921312657231447
 21
-3.7688137149119521
 31
0.0
  0
LINE
  5
1A299
  8
KI
  6
DASHED2
 62
     7
 10
43.509625461700303
 20
-4.8232673842797844
 30
0.0
 11
34.921312657231447
 21
-3.7777374553728391
 31
0.0
  0
LINE
  5
1A29A
  8
KI
  6
DASHED2
 62
     7
 10
81.624250781250936
 20
-4.8232673842797951
 30
0.0
 11
43.509625461700303
 21
-4.8232673842797844
 31
0.0
  0
LINE
  5
1A29B
  8
KI
  6
DASHED2
 62
     7
 10
61.210792034418489
 20
-2.6128043795964562
 30
0.0
 11
63.027420626773321
 21
-5.0618812051837843
 31
0.0
  0
LINE
  5
1A29C
  8
KI
  6
DASHED2
 62
     7
 10
60.100643726058181
 20
-2.6128043795964562
 30
0.0
 11
61.91727231841304
 21
-5.0618812051837789
 31
0.0
  0
LINE
  5
1A29D
  8
KI
  6
DASHED2
 62
     7
 10
58.990495417698341
 20
-2.6128043795964562
 30
0.0
 11
60.807124010053208
 21
-5.0618812051837789
 31
0.0
  0
LINE
  5
1A29E
  8
KI
  6
DASHED2
 62
     7
 10
64.541306949619582
 20
-2.6128043795964562
 30
0.0
 11
66.357900546913868
 21
-5.0618812051837843
 31
0.0
  0
LINE
  5
1A29F
  8
KI
  6
DASHED2
 62
     7
 10
63.431123646198728
 20
-2.6128043795964562
 30
0.0
 11
65.247752238554014
 21
-5.0618812051837843
 31
0.0
  0
LINE
  5
1A2A0
  8
KI
  6
DASHED2
 62
     7
 10
62.320975337838888
 20
-2.6128043795964562
 30
0.0
 11
64.137603930193734
 21
-5.0618812051837843
 31
0.0
  0
LINE
  5
1A2A1
  8
KI
  6
CENTER2
 62
     7
 10
87.979213811385023
 20
-3.7732755851424069
 30
0.0
 11
29.509011575282951
 21
-3.7732755851423918
 31
0.0
  0
LINE
  5
1A2A2
  8
KI
  6
CONTINUOUS
 62
     7
 10
60.544215786190421
 20
-72.853276056455684
 30
0.0
 11
60.54421578619047
 21
-74.263276056455979
 31
0.0
  0
LINE
  5
1A2A3
  8
KI
  6
CONTINUOUS
 62
     7
 10
61.624215786190391
 20
-35.273276056455757
 30
0.0
 11
61.624215786190391
 21
-74.263276056455979
 31
0.0
  0
ARC
  5
1A2A4
  8
KI
  6
CONTINUOUS
 62
     7
 10
60.54421578619047
 20
-74.263276056455979
 30
0.0
 40
1.0800000000000001
 50
297.90344809752992
 51
0.0
  0
LINE
  5
1A2A5
  8
KI
  6
CONTINUOUS
 62
     7
 10
58.58963742515985
 20
-76.520405028627351
 30
0.0
 11
61.049637425118519
 21
-75.21771252207499
 31
0.0
  0
LINE
  5
1A2A6
  8
KI
  6
CONTINUOUS
 62
     7
 10
58.084215786190427
 20
-75.565968563030182
 30
0.0
 11
58.58963742515985
 21
-76.520405028627351
 31
0.0
  0
LINE
  5
1A2A7
  8
KI
  6
CONTINUOUS
 62
     7
 10
58.084215786190427
 20
-75.565968563030182
 30
0.0
 11
60.54421578619047
 21
-74.263276056455979
 31
0.0
  0
LINE
  5
1A2A8
  8
KI
  6
DASHED2
 62
     7
 10
51.67421578619058
 20
-56.723276056456022
 30
0.0
 11
51.67421578619058
 21
-45.537023443410703
 31
0.0
  0
LINE
  5
1A2A9
  8
KI
  6
DASHED2
 62
     7
 10
52.67421578619058
 20
-57.723276056456022
 30
0.0
 11
61.624215786190391
 21
-57.723276056456022
 31
0.0
  0
LINE
  5
1A2AA
  8
KI
  6
DASHED2
 62
     7
 10
52.67421578619058
 20
-53.303276056455957
 30
0.0
 11
61.624215786190391
 21
-53.303276056455957
 31
0.0
  0
ARC
  5
1A2AB
  8
KI
  6
DASHED2
 62
     7
 10
52.67421578619058
 20
-56.723276056456022
 30
0.0
 40
1.0
 50
180.0
 51
270.0
  0
ARC
  5
1A2AC
  8
KI
  6
DASHED2
 62
     7
 10
52.67421578619058
 20
-52.30327605645595
 30
0.0
 40
1.0
 50
180.0
 51
270.0
  0
LINE
  5
1A2AD
  8
KI
  6
DASHED2
 62
     7
 10
60.54421578619047
 20
-35.273276056455757
 30
0.0
 11
61.624215786190391
 21
-35.273276056455757
 31
0.0
  0
LINE
  5
1A2AE
  8
KI
  6
DASHED2
 62
     7
 10
60.54421578619047
 20
-35.273276056455757
 30
0.0
 11
60.544215786190421
 21
-72.853276056455684
 31
0.0
  0
LINE
  5
1A2AF
  8
KI
  6
DASHED2
 62
     7
 10
253.62421578619009
 20
-33.773276052506731
 30
0.0
 11
253.62421578619009
 21
-66.773276052506716
 31
0.0
  0
LINE
  5
1A2B0
  8
KI
  6
DASHED2
 62
     7
 10
259.62421578619012
 20
-33.773276052506731
 30
0.0
 11
253.62421578619009
 21
-33.773276052506731
 31
0.0
  0
LINE
  5
1A2B1
  8
KI
  6
DASHED2
 62
     7
 10
247.62421578619009
 20
-64.023276052506716
 30
0.0
 11
253.62421578619009
 21
-64.023276052506716
 31
0.0
  0
LINE
  5
1A2B2
  8
KI
  6
DASHED2
 62
     7
 10
247.62421578619009
 20
-36.523276052506731
 30
0.0
 11
253.62421578619009
 21
-36.523276052506731
 31
0.0
  0
LINE
  5
1A2B3
  8
KI
  6
DASHED2
 62
     7
 10
241.62421578619009
 20
-38.273276052506731
 30
0.0
 11
247.62421578619009
 21
-38.273276052506731
 31
0.0
  0
LINE
  5
1A2B4
  8
KI
  6
DASHED2
 62
     7
 10
241.62421578619009
 20
-62.273276052506723
 30
0.0
 11
247.62421578619009
 21
-62.273276052506723
 31
0.0
  0
LINE
  5
1A2B5
  8
KI
  6
DASHED2
 62
     7
 10
247.62421578619009
 20
-36.523276052506731
 30
0.0
 11
247.62421578619009
 21
-64.023276052506716
 31
0.0
  0
LINE
  5
1A2B6
  8
KI
  6
DASHED2
 62
     7
 10
241.62421578619009
 20
-38.273276052506731
 30
0.0
 11
241.62421578619009
 21
-62.273276052506723
 31
0.0
  0
CIRCLE
  5
1A2B7
  8
KI
  6
CONTINUOUS
 62
     7
 10
260.62421578619012
 20
-84.773276052506731
 30
0.0
 40
3.1931342056999981
  0
CIRCLE
  5
1A2B8
  8
KI
  6
CONTINUOUS
 62
     7
 10
260.62421578619012
 20
-84.773276052506731
 30
0.0
 40
4.0
  0
CIRCLE
  5
1A2B9
  8
KI
  6
CONTINUOUS
 62
     7
 10
260.62421578619012
 20
-84.773276052506731
 30
0.0
 40
6.939104820999999
  0
CIRCLE
  5
1A2BA
  8
KI
  6
CONTINUOUS
 62
     7
 10
260.62421578619012
 20
-84.773276052506731
 30
0.0
 40
8.0
  0
LINE
  5
1A2BB
  8
KI
  6
CONTINUOUS
 62
     7
 10
263.62421578619012
 20
-30.27327605250672
 30
0.0
 11
263.62421578619012
 21
-77.357077565411018
 31
0.0
  0
LINE
  5
1A2BC
  8
KI
  6
CONTINUOUS
 62
     7
 10
261.32421578619
 20
-30.27327605250672
 30
0.0
 11
261.32421578619
 21
-76.803959896148029
 31
0.0
  0
LINE
  5
1A2BD
  8
KI
  6
CONTINUOUS
 62
     7
 10
259.74417349494121
 20
-76.82182803559715
 30
0.0
 11
258.63203005991829
 21
-66.773276052506759
 31
0.0
  0
LINE
  5
1A2BE
  8
KI
  6
CONTINUOUS
 62
     7
 10
257.49528701439192
 20
-77.410545258771776
 30
0.0
 11
256.31798613221241
 21
-66.773276052506759
 31
0.0
  0
LINE
  5
1A2BF
  8
KI
  6
CONTINUOUS
 62
     7
 10
263.62421578619012
 20
-30.27327605250672
 30
0.0
 11
261.32421578619
 21
-30.27327605250672
 31
0.0
  0
LINE
  5
1A2C0
  8
KI
  6
CONTINUOUS
 62
     7
 10
268.12421578619012
 20
2.2267231816082318
 30
0.0
 11
268.12421578619012
 21
-9.7732743439941032
 31
0.0
  0
LINE
  5
1A2C1
  8
KI
  6
CONTINUOUS
 62
     7
 10
268.12421578619012
 20
-9.7732743439941032
 30
0.0
 11
263.62421578619012
 21
-9.7732743439941032
 31
0.0
  0
LINE
  5
1A2C2
  8
KI
  6
CONTINUOUS
 62
     7
 10
263.62421578619012
 20
-9.7732743439936751
 30
0.0
 11
263.62421578619012
 21
-15.773274343993631
 31
0.0
  0
LINE
  5
1A2C3
  8
KI
  6
CONTINUOUS
 62
     7
 10
268.12421578619012
 20
2.2267231816082318
 30
0.0
 11
263.62421578619012
 21
2.2267231816082331
 31
0.0
  0
LINE
  5
1A2C4
  8
KI
  6
CONTINUOUS
 62
     7
 10
263.62421578619012
 20
8.2267231816082376
 30
0.0
 11
263.62421578619012
 21
2.2267231816082642
 31
0.0
  0
LINE
  5
1A2C5
  8
KI
  6
CONTINUOUS
 62
     7
 10
263.62421578619012
 20
8.2267231816082376
 30
0.0
 11
243.62421578619009
 21
8.2267231816082411
 31
0.0
  0
LINE
  5
1A2C6
  8
KI
  6
CONTINUOUS
 62
     7
 10
243.62421578619009
 20
8.2267231816082411
 30
0.0
 11
243.62421578619009
 21
-15.773274343993631
 31
0.0
  0
LINE
  5
1A2C7
  8
KI
  6
CONTINUOUS
 62
     7
 10
263.62421578619012
 20
-15.773274343993631
 30
0.0
 11
243.62421578619009
 21
-15.773274343993631
 31
0.0
  0
LINE
  5
1A2C8
  8
KI
  6
CONTINUOUS
 62
     7
 10
243.62418079112959
 20
-16.273280343994308
 30
0.0
 11
243.62418079112911
 21
-18.499373075222891
 31
0.0
  0
ARC
  5
1A2C9
  8
KI
  6
CONTINUOUS
 62
     7
 10
255.18505668127929
 20
-25.781303393649861
 30
0.0
 40
9.2190722294335075
 50
35.6258681755167
 51
87.195312659551448
  0
LINE
  5
1A2CA
  8
KI
  6
CONTINUOUS
 62
     7
 10
245.79118551653161
 20
-15.77327434399319
 30
0.0
 11
245.6241807911278
 21
-15.94027906939697
 31
0.0
  0
LINE
  5
1A2CB
  8
KI
  6
CONTINUOUS
 62
     7
 10
246.48921112863709
 20
-15.973274343993911
 30
0.0
 11
245.88920512863791
 21
-16.573280343994011
 31
0.0
  0
LINE
  5
1A2CC
  8
KI
  6
CONTINUOUS
 62
     7
 10
246.68921112863831
 20
-15.773274343993631
 30
0.0
 11
246.48921112863721
 21
-15.973274343993911
 31
0.0
  0
LINE
  5
1A2CD
  8
KI
  6
CONTINUOUS
 62
     7
 10
247.3872367407447
 20
-15.973274343993911
 30
0.0
 11
246.7872307407446
 21
-16.573280343994011
 31
0.0
  0
LINE
  5
1A2CE
  8
KI
  6
CONTINUOUS
 62
     7
 10
247.587236740745
 20
-15.77327434399319
 30
0.0
 11
247.3872367407447
 21
-15.973274343993911
 31
0.0
  0
LINE
  5
1A2CF
  8
KI
  6
CONTINUOUS
 62
     7
 10
248.2852623528513
 20
-15.973274343993911
 30
0.0
 11
247.6852563528513
 21
-16.573280343994011
 31
0.0
  0
LINE
  5
1A2D0
  8
KI
  6
CONTINUOUS
 62
     7
 10
248.48526235285149
 20
-15.77327434399319
 30
0.0
 11
248.2852623528513
 21
-15.973274343993911
 31
0.0
  0
LINE
  5
1A2D1
  8
KI
  6
CONTINUOUS
 62
     7
 10
249.1832879649584
 20
-15.973274343993911
 30
0.0
 11
248.58328196495799
 21
-16.573280343993581
 31
0.0
  0
LINE
  5
1A2D2
  8
KI
  6
CONTINUOUS
 62
     7
 10
249.3832879649589
 20
-15.77327434399319
 30
0.0
 11
249.1832879649584
 21
-15.973274343993911
 31
0.0
  0
LINE
  5
1A2D3
  8
KI
  6
CONTINUOUS
 62
     7
 10
250.0813135770652
 20
-15.97327434399482
 30
0.0
 11
249.48130757706571
 21
-16.57328034399449
 31
0.0
  0
LINE
  5
1A2D4
  8
KI
  6
CONTINUOUS
 62
     7
 10
250.28131357706599
 20
-15.7732743439941
 30
0.0
 11
250.0813135770652
 21
-15.973274343994371
 31
0.0
  0
LINE
  5
1A2D5
  8
KI
  6
CONTINUOUS
 62
     7
 10
250.97933918917209
 20
-15.97327434399482
 30
0.0
 11
250.62418079112831
 21
-16.328432742037752
 31
0.0
  0
LINE
  5
1A2D6
  8
KI
  6
CONTINUOUS
 62
     7
 10
250.62418079112831
 20
-16.328432742037752
 30
0.0
 11
250.39996865545359
 21
-16.552644877713071
 31
0.0
  0
LINE
  5
1A2D7
  8
KI
  6
CONTINUOUS
 62
     7
 10
251.17933918917231
 20
-15.773274343994551
 30
0.0
 11
250.97933918917209
 21
-15.973274343994371
 31
0.0
  0
LINE
  5
1A2D8
  8
KI
  6
CONTINUOUS
 62
     7
 10
251.8773648012789
 20
-15.973274343994371
 30
0.0
 11
251.27736480127999
 21
-16.573274343993798
 31
0.0
  0
LINE
  5
1A2D9
  8
KI
  6
CONTINUOUS
 62
     7
 10
252.07736480127909
 20
-15.773274343994551
 30
0.0
 11
251.8773648012789
 21
-15.973274343994371
 31
0.0
  0
LINE
  5
1A2DA
  8
KI
  6
CONTINUOUS
 62
     7
 10
252.77539041338639
 20
-15.973274343994371
 30
0.0
 11
252.17539041338611
 21
-16.573274343994282
 31
0.0
  0
LINE
  5
1A2DB
  8
KI
  6
CONTINUOUS
 62
     7
 10
252.97539041338601
 20
-15.7732743439941
 30
0.0
 11
252.77539041338639
 21
-15.973274343994371
 31
0.0
  0
LINE
  5
1A2DC
  8
KI
  6
CONTINUOUS
 62
     7
 10
253.62418079112871
 20
-16.022509578358381
 30
0.0
 11
253.0734160254928
 21
-16.573274343994282
 31
0.0
  0
LINE
  5
1A2DD
  8
KI
  6
CONTINUOUS
 62
     7
 10
253.62418079112871
 20
-15.7732743439941
 30
0.0
 11
253.62418079112871
 21
-16.573274343994282
 31
0.0
  0
LINE
  5
1A2DE
  8
KI
  6
CONTINUOUS
 62
     7
 10
245.62418079112959
 20
-15.773274343993631
 30
0.0
 11
245.62418079112871
 21
-16.57328034399449
 31
0.0
  0
LINE
  5
1A2DF
  8
KI
  6
CONTINUOUS
 62
     7
 10
254.63615954339829
 20
-16.57327434399474
 30
0.0
 11
250.87419079112919
 21
-16.573274343994282
 31
0.0
  0
LINE
  5
1A2E0
  8
KI
  6
CONTINUOUS
 62
     7
 10
250.6241907911288
 20
-16.373274343994002
 30
0.0
 11
250.37418079112879
 21
-16.573274343994282
 31
0.0
  0
LINE
  5
1A2E1
  8
KI
  6
CONTINUOUS
 62
     7
 10
250.6241907911288
 20
-16.373280343993748
 30
0.0
 11
250.87419079112919
 21
-16.573274343994282
 31
0.0
  0
LINE
  5
1A2E2
  8
KI
  6
CONTINUOUS
 62
     7
 10
250.37419079112891
 20
-16.57328034399449
 30
0.0
 11
244.62418079112959
 21
-16.57328034399449
 31
0.0
  0
ARC
  5
1A2E3
  8
KI
  6
CONTINUOUS
 62
     7
 10
255.33615954339879
 20
-16.273274343994089
 30
0.0
 40
0.3
 50
359.99999999991371
 51
89.999999999651507
  0
LINE
  5
1A2E4
  8
KI
  6
CONTINUOUS
 62
     7
 10
255.63615954339861
 20
-16.573274343994282
 30
0.0
 11
255.6361595433988
 21
-16.273274343994089
 31
0.0
  0
ARC
  5
1A2E5
  8
KI
  6
CONTINUOUS
 62
     7
 10
254.93615954339961
 20
-16.273274343991371
 30
0.0
 40
0.3
 50
89.999999999651507
 51
179.9999999999136
  0
LINE
  5
1A2E6
  8
KI
  6
CONTINUOUS
 62
     7
 10
255.33615954339879
 20
-15.973274343993911
 30
0.0
 11
254.93615954339961
 21
-15.97327434399164
 31
0.0
  0
ARC
  5
1A2E7
  8
KI
  6
CONTINUOUS
 62
     7
 10
244.32418079112941
 20
-16.273274343991371
 30
0.0
 40
0.3
 50
359.99999999991371
 51
89.999999999651507
  0
ARC
  5
1A2E8
  8
KI
  6
CONTINUOUS
 62
     7
 10
243.9241807911296
 20
-16.273274343989542
 30
0.0
 40
0.3
 50
89.999999999651507
 51
179.9999999999136
  0
LINE
  5
1A2E9
  8
KI
  6
CONTINUOUS
 62
     7
 10
244.32418079112941
 20
-15.973274343992079
 30
0.0
 11
243.9241807911296
 21
-15.97327434398937
 31
0.0
  0
LINE
  5
1A2EA
  8
KI
  6
CONTINUOUS
 62
     7
 10
244.62418079112959
 20
-16.57328034399449
 30
0.0
 11
244.62418079112959
 21
-16.273274343991371
 31
0.0
  0
LINE
  5
1A2EB
  8
KI
  6
CONTINUOUS
 62
     7
 10
254.636159543399
 20
-16.273274343991371
 30
0.0
 11
254.63615954339829
 21
-16.57327434399474
 31
0.0
  0
LINE
  5
1A2EC
  8
KI
  6
CONTINUOUS
 62
     7
 10
253.62418079112871
 20
-15.7732743439941
 30
0.0
 11
245.62418079112959
 21
-15.773274343993631
 31
0.0
  0
ARC
  5
1A2ED
  8
KI
  6
CONTINUOUS
 62
     7
 10
245.0650227342152
 20
-23.766673193393551
 30
0.0
 40
0.5
 50
59.296923400935583
 51
153.9809326377069
  0
ARC
  5
1A2EE
  8
KI
  6
CONTINUOUS
 62
     7
 10
238.07685638957801
 20
-20.3554374696431
 30
0.0
 40
7.2763100519022599
 50
298.11323276635818
 51
333.98093263770693
  0
ARC
  5
1A2EF
  8
KI
  6
CONTINUOUS
 62
     7
 10
257.84077196107881
 20
-2.2524908788658391
 30
0.0
 40
24.521586859558742
 50
239.29692340093581
 51
273.71118635343151
  0
ARC
  5
1A2F0
  8
KI
  6
CONTINUOUS
 62
     7
 10
238.07685638957801
 20
-20.3554374696431
 30
0.0
 40
5.776310051902259
 50
298.11323276635818
 51
343.81317179960399
  0
LINE
  5
1A2F1
  8
KI
  6
CONTINUOUS
 62
     7
 10
243.6241807911282
 20
-18.499373075222891
 30
0.0
 11
243.6241807911299
 21
-21.965701360951119
 31
0.0
  0
ARC
  5
1A2F2
  8
KI
  6
CONTINUOUS
 62
     7
 10
257.84077196107881
 20
-2.2524908788658391
 30
0.0
 40
23.321944298558741
 50
238.41089939395661
 51
273.71118635343151
  0
LINE
  5
1A2F3
  8
KI
  6
CONTINUOUS
 62
     7
 10
245.62418079112871
 20
-19.073243775310718
 30
0.0
 11
245.62418079112871
 21
-22.118743319912351
 31
0.0
  0
LINE
  5
1A2F4
  8
KI
  6
CONTINUOUS
 62
     7
 10
259.18089919744961
 20
-19.388932776849629
 30
0.0
 11
259.18089900102262
 21
-19.388932535747561
 31
0.0
  0
LINE
  5
1A2F5
  8
KI
  6
CONTINUOUS
 62
     7
 10
256.13600385718831
 20
-18.57324377531074
 30
0.0
 11
246.12418079112831
 21
-18.57324377531074
 31
0.0
  0
ARC
  5
1A2F6
  8
KI
  6
CONTINUOUS
 62
     7
 10
246.12418079112831
 20
-19.073243775310718
 30
0.0
 40
0.5
 50
90.0
 51
180.00000000000151
  0
ARC
  5
1A2F7
  8
KI
  6
CONTINUOUS
 62
     7
 10
263.12785788571358
 20
-21.690736214377321
 30
0.0
 40
0.3
 50
282.850904373123
 51
106.2830629427703
  0
ARC
  5
1A2F8
  8
KI
  6
CONTINUOUS
 62
     7
 10
261.7670271472204
 20
-20.575284863219039
 30
0.0
 40
0.5
 50
204.55739357395959
 51
220.67258802736049
  0
ARC
  5
1A2F9
  8
KI
  6
CONTINUOUS
 62
     7
 10
253.4901638856968
 20
-24.357279220190652
 30
0.0
 40
10.0
 50
17.184580096308771
 51
19.80317579416209
  0
ARC
  5
1A2FA
  8
KI
  6
CONTINUOUS
 62
     7
 10
262.79292433948001
 20
-20.688676224562041
 30
0.0
 40
0.3
 50
290.66264471901661
 51
112.3867008755925
  0
ARC
  5
1A2FB
  8
KI
  6
CONTINUOUS
 62
     7
 10
259.2641545805576
 20
-22.726012394787968
 30
0.0
 40
4.0
 50
272.34734183586102
 51
295.7018087462551
  0
ARC
  5
1A2FC
  8
KI
  6
CONTINUOUS
 62
     7
 10
253.49016388568751
 20
-24.357286257968411
 30
0.0
 40
8.7999999999999972
 50
15.77603774735198
 51
15.801913469867269
  0
ARC
  5
1A2FD
  8
KI
  6
CONTINUOUS
 62
     7
 10
261.26415458055641
 20
-26.19011400992564
 30
0.0
 40
0.3
 50
207.8509043731396
 51
32.149095626827588
  0
ARC
  5
1A2FE
  8
KI
  6
CONTINUOUS
 62
     7
 10
259.2641545805576
 20
-22.726012394787968
 30
0.0
 40
4.0
 50
304.29819125370682
 51
310.7018087462971
  0
ARC
  5
1A2FF
  8
KI
  6
CONTINUOUS
 62
     7
 10
262.09258170530478
 20
-25.55443951953281
 30
0.0
 40
0.3
 50
222.85090437314679
 51
47.14909562687604
  0
ARC
  5
1A300
  8
KI
  6
CONTINUOUS
 62
     7
 10
263.26415458055732
 20
-22.726012394789791
 30
0.0
 40
0.3
 50
267.85090437314102
 51
92.149095626780564
  0
ARC
  5
1A301
  8
KI
  6
CONTINUOUS
 62
     7
 10
263.12785788571318
 20
-23.76128857520041
 30
0.0
 40
0.3
 50
252.8509043730698
 51
77.149095626823382
  0
ARC
  5
1A302
  8
KI
  6
CONTINUOUS
 62
     7
 10
259.2641545805576
 20
-22.726012394787968
 30
0.0
 40
4.0
 50
334.29819125373632
 51
340.70180874622662
  0
ARC
  5
1A303
  8
KI
  6
CONTINUOUS
 62
     7
 10
262.72825619569562
 20
-24.726012394787041
 30
0.0
 40
0.3
 50
237.85090437311911
 51
62.149095626886712
  0
ARC
  5
1A304
  8
KI
  6
CONTINUOUS
 62
     7
 10
259.2641545805576
 20
-22.726012394787968
 30
0.0
 40
4.0
 50
319.29819125375622
 51
325.70180874627903
  0
ARC
  5
1A305
  8
KI
  6
CONTINUOUS
 62
     7
 10
259.2641545805576
 20
-22.726012394787968
 30
0.0
 40
4.0
 50
4.2981912536996081
 51
10.70180874628195
  0
ARC
  5
1A306
  8
KI
  6
CONTINUOUS
 62
     7
 10
259.2641545805804
 20
-22.726012394787968
 30
0.0
 40
4.0
 50
349.2981912536801
 51
355.70180874624123
  0
ARC
  5
1A307
  8
KI
  6
CONTINUOUS
 62
     7
 10
259.2641545805576
 20
-22.726012394787968
 30
0.0
 40
2.799999999999998
 50
272.34734183586102
 51
40.67258802735536
  0
ARC
  5
1A308
  8
KI
  6
CONTINUOUS
 62
     7
 10
256.10113389496911
 20
-25.822166856975741
 30
0.0
 40
7.2490069497939373
 50
44.038429734718562
 51
89.724388542350269
  0
ARC
  5
1A309
  8
KI
  6
CONTINUOUS
 62
     7
 10
241.24490139192261
 20
-26.06221157440574
 30
0.0
 40
0.7573354118943643
 50
126.0942255147734
 51
290.13224001794953
  0
ARC
  5
1A30A
  8
KI
  6
CONTINUOUS
 62
     7
 10
242.57376905126441
 20
-9.2737817174078074
 30
0.0
 40
2.5000001067820641
 50
191.52508544921761
 51
271.1553192138681
  0
LINE
  5
1A30B
  8
KI
  6
CONTINUOUS
 62
     7
 10
242.62419693363231
 20
-11.773268927832641
 30
0.0
 11
243.62418079112959
 21
-11.773268927832641
 31
0.0
  0
LINE
  5
1A30C
  8
KI
  6
DASHED2
 62
     7
 10
241.62417808107381
 20
-9.2732742890287874
 30
0.0
 11
242.62419693363231
 21
-10.52328035719561
 31
0.0
  0
LINE
  5
1A30D
  8
KI
  6
DASHED2
 62
     7
 10
243.62421578619009
 20
-9.2732742850797596
 30
0.0
 11
242.62419693363231
 21
-10.5232803532466
 31
0.0
  0
LINE
  5
1A30E
  8
KI
  6
DASHED2
 62
     7
 10
241.62417808107381
 20
1.7267231187448751
 30
0.0
 11
241.62417808107381
 21
-9.2732742890287874
 31
0.0
  0
LINE
  5
1A30F
  8
KI
  6
DASHED2
 62
     7
 10
242.62419693363231
 20
2.9767291869117161
 30
0.0
 11
242.62419693363231
 21
-10.52328035719561
 31
0.0
  0
LINE
  5
1A310
  8
KI
  6
DASHED2
 62
     7
 10
242.62419693363231
 20
2.9767291869117161
 30
0.0
 11
243.62418079112959
 21
1.7267231187448751
 31
0.0
  0
LINE
  5
1A311
  8
KI
  6
DASHED2
 62
     7
 10
242.62419693363231
 20
2.9767291869117161
 30
0.0
 11
241.62417808107381
 21
1.7267231187448751
 31
0.0
  0
LINE
  5
1A312
  8
KI
  6
CONTINUOUS
 62
     7
 10
240.1241847972982
 20
-9.7732837153074534
 30
0.0
 11
240.1241847972982
 21
2.226732545023542
 31
0.0
  0
ARC
  5
1A313
  8
KI
  6
CONTINUOUS
 62
     7
 10
242.57376905126441
 20
1.727230547123898
 30
0.0
 40
2.5000001067820641
 50
88.844696044923452
 51
168.47492980957091
  0
LINE
  5
1A314
  8
KI
  6
CONTINUOUS
 62
     7
 10
242.62419693363231
 20
4.2267177575482764
 30
0.0
 11
243.62418079112959
 21
4.2267177575482764
 31
0.0
  0
LINE
  5
1A315
  8
KI
  6
CONTINUOUS
 62
     7
 10
57.124215786190391
 20
2.226723181608242
 30
0.0
 11
57.124215786190391
 21
-9.7732743439940961
 31
0.0
  0
LINE
  5
1A316
  8
KI
  6
CONTINUOUS
 62
     7
 10
57.124215786190391
 20
-9.7732743439940961
 30
0.0
 11
61.624215786190391
 21
-9.7732743439940961
 31
0.0
  0
LINE
  5
1A317
  8
KI
  6
CONTINUOUS
 62
     7
 10
61.624215786190391
 20
-9.773274343993668
 30
0.0
 11
61.624215786190391
 21
-15.773274343993631
 31
0.0
  0
LINE
  5
1A318
  8
KI
  6
CONTINUOUS
 62
     7
 10
57.124215786190391
 20
2.226723181608242
 30
0.0
 11
61.624215786190391
 21
2.226723181608242
 31
0.0
  0
LINE
  5
1A319
  8
KI
  6
CONTINUOUS
 62
     7
 10
61.624215786190391
 20
8.2267231816082411
 30
0.0
 11
61.624215786190391
 21
2.2267231816082682
 31
0.0
  0
LINE
  5
1A31A
  8
KI
  6
CONTINUOUS
 62
     7
 10
61.624215786190391
 20
8.2267231816082411
 30
0.0
 11
81.624215786190405
 21
8.2267231816082376
 31
0.0
  0
LINE
  5
1A31B
  8
KI
  6
CONTINUOUS
 62
     7
 10
81.624215786190405
 20
8.2267231816082376
 30
0.0
 11
81.624215786190376
 21
-15.773274343993631
 31
0.0
  0
LINE
  5
1A31C
  8
KI
  6
CONTINUOUS
 62
     7
 10
61.624215786190391
 20
-15.773274343993631
 30
0.0
 11
81.624215786190376
 21
-15.773274343993631
 31
0.0
  0
LINE
  5
1A31D
  8
KI
  6
CONTINUOUS
 62
     7
 10
81.624250781250936
 20
-16.273280343994308
 30
0.0
 11
81.624250781251391
 21
-18.499373075222898
 31
0.0
  0
ARC
  5
1A31E
  8
KI
  6
CONTINUOUS
 62
     7
 10
70.063374891101077
 20
-25.781303393649861
 30
0.0
 40
9.2190722294335075
 50
92.804687340448481
 51
144.3741318244827
  0
LINE
  5
1A31F
  8
KI
  6
CONTINUOUS
 62
     7
 10
79.457246055848984
 20
-15.77327434399319
 30
0.0
 11
79.624250781252783
 21
-15.94027906939697
 31
0.0
  0
LINE
  5
1A320
  8
KI
  6
CONTINUOUS
 62
     7
 10
78.759220443743445
 20
-15.973274343993911
 30
0.0
 11
79.359226443742656
 21
-16.573280343994011
 31
0.0
  0
LINE
  5
1A321
  8
KI
  6
CONTINUOUS
 62
     7
 10
78.559220443742262
 20
-15.773274343993631
 30
0.0
 11
78.759220443742976
 21
-15.973274343993911
 31
0.0
  0
LINE
  5
1A322
  8
KI
  6
CONTINUOUS
 62
     7
 10
77.861194831635814
 20
-15.973274343993911
 30
0.0
 11
78.461200831635935
 21
-16.573280343994011
 31
0.0
  0
LINE
  5
1A323
  8
KI
  6
CONTINUOUS
 62
     7
 10
77.661194831635555
 20
-15.77327434399319
 30
0.0
 11
77.861194831635814
 21
-15.973274343993911
 31
0.0
  0
LINE
  5
1A324
  8
KI
  6
CONTINUOUS
 62
     7
 10
76.963169219529092
 20
-15.973274343993911
 30
0.0
 11
77.563175219529214
 21
-16.573280343994011
 31
0.0
  0
LINE
  5
1A325
  8
KI
  6
CONTINUOUS
 62
     7
 10
76.763169219528805
 20
-15.77327434399319
 30
0.0
 11
76.963169219529092
 21
-15.973274343993911
 31
0.0
  0
LINE
  5
1A326
  8
KI
  6
CONTINUOUS
 62
     7
 10
76.065143607421902
 20
-15.973274343993911
 30
0.0
 11
76.665149607422507
 21
-16.573280343993581
 31
0.0
  0
LINE
  5
1A327
  8
KI
  6
CONTINUOUS
 62
     7
 10
75.865143607421629
 20
-15.77327434399319
 30
0.0
 11
76.065143607421902
 21
-15.973274343993911
 31
0.0
  0
LINE
  5
1A328
  8
KI
  6
CONTINUOUS
 62
     7
 10
75.167117995315195
 20
-15.97327434399482
 30
0.0
 11
75.767123995314861
 21
-16.57328034399449
 31
0.0
  0
LINE
  5
1A329
  8
KI
  6
CONTINUOUS
 62
     7
 10
74.967117995314453
 20
-15.7732743439941
 30
0.0
 11
75.167117995315195
 21
-15.973274343994371
 31
0.0
  0
LINE
  5
1A32A
  8
KI
  6
CONTINUOUS
 62
     7
 10
74.269092383208445
 20
-15.97327434399482
 30
0.0
 11
74.624250781251845
 21
-16.328432742037752
 31
0.0
  0
LINE
  5
1A32B
  8
KI
  6
CONTINUOUS
 62
     7
 10
74.624250781251845
 20
-16.328432742037752
 30
0.0
 11
74.848462916926721
 21
-16.552644877713071
 31
0.0
  0
LINE
  5
1A32C
  8
KI
  6
CONTINUOUS
 62
     7
 10
74.069092383208186
 20
-15.773274343994551
 30
0.0
 11
74.269092383208445
 21
-15.973274343994371
 31
0.0
  0
LINE
  5
1A32D
  8
KI
  6
CONTINUOUS
 62
     7
 10
73.371066771101297
 20
-15.973274343994371
 30
0.0
 11
73.971066771100297
 21
-16.573274343993798
 31
0.0
  0
LINE
  5
1A32E
  8
KI
  6
CONTINUOUS
 62
     7
 10
73.171066771101479
 20
-15.773274343994551
 30
0.0
 11
73.371066771101297
 21
-15.973274343994371
 31
0.0
  0
LINE
  5
1A32F
  8
KI
  6
CONTINUOUS
 62
     7
 10
72.473041158994093
 20
-15.973274343994371
 30
0.0
 11
73.073041158994485
 21
-16.573274343994282
 31
0.0
  0
LINE
  5
1A330
  8
KI
  6
CONTINUOUS
 62
     7
 10
72.273041158994261
 20
-15.7732743439941
 30
0.0
 11
72.473041158994093
 21
-15.973274343994371
 31
0.0
  0
LINE
  5
1A331
  8
KI
  6
CONTINUOUS
 62
     7
 10
71.62425078125186
 20
-16.02250957835837
 30
0.0
 11
72.175015546887764
 21
-16.573274343994282
 31
0.0
  0
LINE
  5
1A332
  8
KI
  6
CONTINUOUS
 62
     7
 10
71.62425078125186
 20
-15.7732743439941
 30
0.0
 11
71.62425078125186
 21
-16.573274343994282
 31
0.0
  0
LINE
  5
1A333
  8
KI
  6
CONTINUOUS
 62
     7
 10
79.62425078125095
 20
-15.773274343993631
 30
0.0
 11
79.624250781251845
 21
-16.57328034399449
 31
0.0
  0
LINE
  5
1A334
  8
KI
  6
CONTINUOUS
 62
     7
 10
70.612272028981934
 20
-16.573274343994711
 30
0.0
 11
74.374240781251203
 21
-16.573274343994282
 31
0.0
  0
LINE
  5
1A335
  8
KI
  6
CONTINUOUS
 62
     7
 10
74.624240781251657
 20
-16.373274343994002
 30
0.0
 11
74.874250781251391
 21
-16.573274343994282
 31
0.0
  0
LINE
  5
1A336
  8
KI
  6
CONTINUOUS
 62
     7
 10
74.624240781251657
 20
-16.373280343993748
 30
0.0
 11
74.374240781251203
 21
-16.573274343994282
 31
0.0
  0
LINE
  5
1A337
  8
KI
  6
CONTINUOUS
 62
     7
 10
74.874240781251643
 20
-16.57328034399449
 30
0.0
 11
80.62425078125095
 21
-16.57328034399449
 31
0.0
  0
ARC
  5
1A338
  8
KI
  6
CONTINUOUS
 62
     7
 10
69.91227202898169
 20
-16.273274343994089
 30
0.0
 40
0.3
 50
90.000000000348507
 51
180.000000000086
  0
LINE
  5
1A339
  8
KI
  6
CONTINUOUS
 62
     7
 10
69.612272028981963
 20
-16.573274343994282
 30
0.0
 11
69.612272028981494
 21
-16.273274343994089
 31
0.0
  0
ARC
  5
1A33A
  8
KI
  6
CONTINUOUS
 62
     7
 10
70.312272028980871
 20
-16.273274343991371
 30
0.0
 40
0.3
 50
0.0000000000863075
 51
90.000000000348507
  0
LINE
  5
1A33B
  8
KI
  6
CONTINUOUS
 62
     7
 10
69.91227202898169
 20
-15.973274343993911
 30
0.0
 11
70.312272028980871
 21
-15.97327434399164
 31
0.0
  0
ARC
  5
1A33C
  8
KI
  6
CONTINUOUS
 62
     7
 10
80.924250781251146
 20
-16.273274343991371
 30
0.0
 40
0.3
 50
90.000000000348507
 51
180.000000000086
  0
ARC
  5
1A33D
  8
KI
  6
CONTINUOUS
 62
     7
 10
81.324250781250754
 20
-16.273274343989542
 30
0.0
 40
0.3
 50
0.0000000000863075
 51
90.000000000348507
  0
LINE
  5
1A33E
  8
KI
  6
CONTINUOUS
 62
     7
 10
80.924250781251146
 20
-15.973274343992101
 30
0.0
 11
81.324250781250754
 21
-15.97327434398937
 31
0.0
  0
LINE
  5
1A33F
  8
KI
  6
CONTINUOUS
 62
     7
 10
80.62425078125095
 20
-16.57328034399449
 30
0.0
 11
80.62425078125095
 21
-16.273274343991371
 31
0.0
  0
LINE
  5
1A340
  8
KI
  6
CONTINUOUS
 62
     7
 10
70.612272028981508
 20
-16.273274343991371
 30
0.0
 11
70.612272028981934
 21
-16.573274343994711
 31
0.0
  0
LINE
  5
1A341
  8
KI
  6
CONTINUOUS
 62
     7
 10
71.62425078125186
 20
-15.7732743439941
 30
0.0
 11
79.62425078125095
 21
-15.773274343993631
 31
0.0
  0
ARC
  5
1A342
  8
KI
  6
CONTINUOUS
 62
     7
 10
80.183408838165334
 20
-23.766673193393551
 30
0.0
 40
0.5
 50
26.019067362292681
 51
120.7030765990647
  0
ARC
  5
1A343
  8
KI
  6
CONTINUOUS
 62
     7
 10
87.171575182802513
 20
-20.3554374696431
 30
0.0
 40
7.2763100519022599
 50
206.0190673622925
 51
241.88676723364139
  0
ARC
  5
1A344
  8
KI
  6
CONTINUOUS
 62
     7
 10
67.40765961130154
 20
-2.2524908788658351
 30
0.0
 40
24.521586859558742
 50
266.28881364656843
 51
300.70307659906382
  0
ARC
  5
1A345
  8
KI
  6
CONTINUOUS
 62
     7
 10
87.171575182802513
 20
-20.3554374696431
 30
0.0
 40
5.776310051902259
 50
196.18682820039569
 51
241.88676723364139
  0
LINE
  5
1A346
  8
KI
  6
CONTINUOUS
 62
     7
 10
81.624250781252286
 20
-18.499373075222898
 30
0.0
 11
81.624250781250495
 21
-21.965701360951119
 31
0.0
  0
ARC
  5
1A347
  8
KI
  6
CONTINUOUS
 62
     7
 10
67.40765961130154
 20
-2.2524908788658351
 30
0.0
 40
23.321944298558741
 50
266.28881364656843
 51
301.58910060604359
  0
LINE
  5
1A348
  8
KI
  6
CONTINUOUS
 62
     7
 10
79.624250781251845
 20
-19.073243775310718
 30
0.0
 11
79.624250781251845
 21
-22.118743319912351
 31
0.0
  0
LINE
  5
1A349
  8
KI
  6
CONTINUOUS
 62
     7
 10
66.067532374930749
 20
-19.388932776849622
 30
0.0
 11
66.067532571357916
 21
-19.388932535747561
 31
0.0
  0
LINE
  5
1A34A
  8
KI
  6
CONTINUOUS
 62
     7
 10
69.112427715192254
 20
-18.573243775310711
 30
0.0
 11
79.12425078125186
 21
-18.57324377531074
 31
0.0
  0
ARC
  5
1A34B
  8
KI
  6
CONTINUOUS
 62
     7
 10
79.12425078125186
 20
-19.073243775310718
 30
0.0
 40
0.5
 50
359.99999999999829
 51
90.0
  0
ARC
  5
1A34C
  8
KI
  6
CONTINUOUS
 62
     7
 10
62.120573686666958
 20
-21.69073621437731
 30
0.0
 40
0.3
 50
73.7169370572296
 51
257.14909562687677
  0
ARC
  5
1A34D
  8
KI
  6
CONTINUOUS
 62
     7
 10
63.481404425159937
 20
-20.575284863219039
 30
0.0
 40
0.5
 50
319.32741197263852
 51
335.44260642604002
  0
ARC
  5
1A34E
  8
KI
  6
CONTINUOUS
 62
     7
 10
71.758267686683354
 20
-24.357279220190652
 30
0.0
 40
10.0
 50
160.1968242058378
 51
162.81541990369081
  0
ARC
  5
1A34F
  8
KI
  6
CONTINUOUS
 62
     7
 10
62.455507232900487
 20
-20.688676224562041
 30
0.0
 40
0.3
 50
67.613299124407405
 51
249.3373552809833
  0
ARC
  5
1A350
  8
KI
  6
CONTINUOUS
 62
     7
 10
65.98427699182291
 20
-22.726012394787968
 30
0.0
 40
4.0
 50
244.29819125374479
 51
267.65265816413881
  0
ARC
  5
1A351
  8
KI
  6
CONTINUOUS
 62
     7
 10
71.758267686692918
 20
-24.357286257968411
 30
0.0
 40
8.7999999999999972
 50
164.19808653013251
 51
164.22396225264819
  0
ARC
  5
1A352
  8
KI
  6
CONTINUOUS
 62
     7
 10
63.984276991823819
 20
-26.19011400992564
 30
0.0
 40
0.3
 50
147.8509043731726
 51
332.1490956268604
  0
ARC
  5
1A353
  8
KI
  6
CONTINUOUS
 62
     7
 10
65.98427699182291
 20
-22.726012394787968
 30
0.0
 40
4.0
 50
229.29819125370301
 51
235.70180874629281
  0
ARC
  5
1A354
  8
KI
  6
CONTINUOUS
 62
     7
 10
63.15584986707578
 20
-25.55443951953281
 30
0.0
 40
0.3
 50
132.85090437312351
 51
317.1490956268533
  0
ARC
  5
1A355
  8
KI
  6
CONTINUOUS
 62
     7
 10
61.98427699182291
 20
-22.72601239478978
 30
0.0
 40
0.3
 50
87.850904373219379
 51
272.14909562685881
  0
ARC
  5
1A356
  8
KI
  6
CONTINUOUS
 62
     7
 10
62.120573686667427
 20
-23.761288575200371
 30
0.0
 40
0.3
 50
102.85090437317641
 51
287.14909562692998
  0
ARC
  5
1A357
  8
KI
  6
CONTINUOUS
 62
     7
 10
65.98427699182291
 20
-22.726012394787968
 30
0.0
 40
4.0
 50
199.2981912537729
 51
205.701808746263
  0
ARC
  5
1A358
  8
KI
  6
CONTINUOUS
 62
     7
 10
62.52017537668479
 20
-24.726012394787041
 30
0.0
 40
0.3
 50
117.8509043731132
 51
302.14909562688081
  0
ARC
  5
1A359
  8
KI
  6
CONTINUOUS
 62
     7
 10
65.98427699182291
 20
-22.726012394787968
 30
0.0
 40
4.0
 50
214.29819125372151
 51
220.70180874624359
  0
ARC
  5
1A35A
  8
KI
  6
CONTINUOUS
 62
     7
 10
65.98427699182291
 20
-22.726012394787968
 30
0.0
 40
4.0
 50
169.29819125371779
 51
175.7018087463002
  0
ARC
  5
1A35B
  8
KI
  6
CONTINUOUS
 62
     7
 10
65.984276991800172
 20
-22.726012394787968
 30
0.0
 40
4.0
 50
184.2981912537584
 51
190.7018087463199
  0
ARC
  5
1A35C
  8
KI
  6
CONTINUOUS
 62
     7
 10
65.98427699182291
 20
-22.726012394787968
 30
0.0
 40
2.799999999999998
 50
139.32741197264451
 51
267.65265816413881
  0
ARC
  5
1A35D
  8
KI
  6
CONTINUOUS
 62
     7
 10
69.147297677411345
 20
-25.822166856975741
 30
0.0
 40
7.2490069497939373
 50
90.275611457649703
 51
135.96157026528141
  0
ARC
  5
1A35E
  8
KI
  6
CONTINUOUS
 62
     7
 10
84.003530180457957
 20
-26.062211574405751
 30
0.0
 40
0.7573354118943643
 50
249.86775998205039
 51
53.905774485226743
  0
ARC
  5
1A35F
  8
KI
  6
CONTINUOUS
 62
     7
 10
82.674662521115977
 20
-9.2737817174078074
 30
0.0
 40
2.5000001067820641
 50
268.84468078613151
 51
348.47491455078188
  0
LINE
  5
1A360
  8
KI
  6
CONTINUOUS
 62
     7
 10
82.624234638748192
 20
-11.773268927832641
 30
0.0
 11
81.624250781250936
 21
-11.773268927832641
 31
0.0
  0
LINE
  5
1A361
  8
KI
  6
DASHED2
 62
     7
 10
83.624253491306433
 20
-9.2732742890287874
 30
0.0
 11
82.624234638748192
 21
-10.52328035719561
 31
0.0
  0
LINE
  5
1A362
  8
KI
  6
DASHED2
 62
     7
 10
81.624215786190405
 20
-9.2732742850797631
 30
0.0
 11
82.624234638748192
 21
-10.5232803532466
 31
0.0
  0
LINE
  5
1A363
  8
KI
  6
DASHED2
 62
     7
 10
83.624253491306433
 20
1.7267231187448711
 30
0.0
 11
83.624253491306433
 21
-9.2732742890287874
 31
0.0
  0
LINE
  5
1A364
  8
KI
  6
DASHED2
 62
     7
 10
82.624234638748192
 20
2.976729186911713
 30
0.0
 11
82.624234638748192
 21
-10.52328035719561
 31
0.0
  0
LINE
  5
1A365
  8
KI
  6
DASHED2
 62
     7
 10
82.624234638748192
 20
2.976729186911713
 30
0.0
 11
81.624250781250936
 21
1.7267231187448731
 31
0.0
  0
LINE
  5
1A366
  8
KI
  6
DASHED2
 62
     7
 10
82.624234638748192
 20
2.976729186911713
 30
0.0
 11
83.624253491306433
 21
1.7267231187448711
 31
0.0
  0
LINE
  5
1A367
  8
KI
  6
CONTINUOUS
 62
     7
 10
85.124246775082298
 20
-9.7732837153074552
 30
0.0
 11
85.124246775082298
 21
2.226732545023538
 31
0.0
  0
ARC
  5
1A368
  8
KI
  6
CONTINUOUS
 62
     7
 10
82.674662521115977
 20
1.727230547123894
 30
0.0
 40
2.5000001067820641
 50
11.525070190429
 51
91.155303955076519
  0
LINE
  5
1A369
  8
KI
  6
CONTINUOUS
 62
     7
 10
82.624234638748192
 20
4.2267177575482711
 30
0.0
 11
81.624250781250936
 21
4.2267177575482711
 31
0.0
  0
ARC
  5
1A36A
  8
KI
  6
CONTINUOUS
 62
     7
 10
68.676439935845053
 20
-55.94294058940239
 30
0.0
 40
16.06232918379629
 50
100.95417067659579
 51
116.0435154452657
  0
LINE
  5
1A36B
  8
KI
  6
CONTINUOUS
 62
     7
 10
65.624215786190405
 20
-40.173275198250273
 30
0.0
 11
66.95422299439241
 21
-40.173275198250273
 31
0.0
  0
LINE
  5
1A36C
  8
KI
  6
DASHED2
 62
     7
 10
52.624215786190398
 20
-55.373275198250553
 30
0.0
 11
61.624215786190391
 21
-55.373275198250553
 31
0.0
  0
ARC
  5
1A36D
  8
KI
  6
DASHED2
 62
     7
 10
68.676439935845053
 20
-55.94294058940239
 30
0.0
 40
16.06232918379629
 50
116.0435154452657
 51
177.96752584043799
  0
LINE
  5
1A36E
  8
KI
  6
CONTINUOUS
 62
     7
 10
61.624215786190391
 20
-55.373275198250553
 30
0.0
 11
66.19422199703304
 21
-55.373275198250553
 31
0.0
  0
ARC
  5
1A36F
  8
KI
  6
CONTINUOUS
 62
     7
 10
-160.64367592154591
 20
-224.3459257807834
 30
0.0
 40
0.9481639363564127
 50
176.8660808498669
 51
3.133919150132968
  0
LINE
  5
1A370
  8
KI
  6
CONTINUOUS
 62
     7
 10
-180.19692998270421
 20
-219.29408971713991
 30
0.0
 11
-180.19692998270421
 21
-224.29408971714
 31
0.0
  0
LINE
  5
1A371
  8
KI
  6
CONTINUOUS
 62
     7
 10
-161.59042186038729
 20
-219.29408971713991
 30
0.0
 11
-161.59042186038729
 21
-224.29408971714
 31
0.0
  0
LINE
  5
1A372
  8
KI
  6
CONTINUOUS
 62
     7
 10
-159.6969299827044
 20
-217.29408971713991
 30
0.0
 11
-159.6969299827044
 21
-224.29408971714
 31
0.0
  0
LINE
  5
1A373
  8
KI
  6
CONTINUOUS
 62
     7
 10
-182.1969299827044
 20
-217.29408971713991
 30
0.0
 11
-182.1969299827044
 21
-224.29408971714
 31
0.0
  0
ARC
  5
1A374
  8
KI
  6
CONTINUOUS
 62
     7
 10
-181.1969299827044
 20
-224.29408971714
 30
0.0
 40
1.0
 50
180.0
 51
0.0
  0
LINE
  5
1A375
  8
KI
  6
CONTINUOUS
 62
     7
 10
-182.1969299827044
 20
-217.29408971713991
 30
0.0
 11
-159.6969299827044
 21
-217.29408971713991
 31
0.0
  0
LINE
  5
1A376
  8
KI
  6
CONTINUOUS
 62
     7
 10
-161.59042186038729
 20
-219.29408971713991
 30
0.0
 11
-180.19692998270421
 21
-219.29408971713991
 31
0.0
  0
LINE
  5
1A377
  8
SU
  6
CONTINUOUS
 62
     3
 10
-201.94693083721211
 20
100.0294561777566
 30
0.0
 11
-201.94693083721211
 21
76.529488698420806
 31
0.0
  0
LINE
  5
1A378
  8
SU
  6
CONTINUOUS
 62
     3
 10
-225.94692836281351
 20
100.0294561777567
 30
0.0
 11
-225.94692836281351
 21
76.529488698420806
 31
0.0
  0
LINE
  5
1A379
  8
SU
  6
CONTINUOUS
 62
     3
 10
-201.94693083721211
 20
79.529488698420806
 30
0.0
 11
-225.94692836281351
 21
79.529488698420806
 31
0.0
  0
LINE
  5
1A37A
  8
SU
  6
CONTINUOUS
 62
     3
 10
-190.9469308369608
 20
117.0294561777567
 30
0.0
 11
-190.9469308369608
 21
76.529488698420664
 31
0.0
  0
LINE
  5
1A37B
  8
SU
  6
CONTINUOUS
 62
     3
 10
-201.94693083721211
 20
100.0294561777566
 30
0.0
 11
-201.94693083721211
 21
76.529488698420664
 31
0.0
  0
LINE
  5
1A37C
  8
SU
  6
CONTINUOUS
 62
     3
 10
-190.9469308369608
 20
79.529488698420664
 30
0.0
 11
-201.94693083721211
 21
79.529488698420664
 31
0.0
  0
LINE
  5
1A37D
  8
SU
  6
CONTINUOUS
 62
     3
 10
-150.94692912844781
 20
117.0294561777565
 30
0.0
 11
-150.94692912844781
 21
76.529488698420536
 31
0.0
  0
LINE
  5
1A37E
  8
SU
  6
CONTINUOUS
 62
     3
 10
-190.9469308369608
 20
117.0294561777567
 30
0.0
 11
-190.9469308369608
 21
76.529488698420536
 31
0.0
  0
LINE
  5
1A37F
  8
SU
  6
CONTINUOUS
 62
     3
 10
-150.94692912844781
 20
79.529488698420536
 30
0.0
 11
-190.9469308369608
 21
79.529488698420536
 31
0.0
  0
LINE
  5
1A380
  8
SU
  6
CONTINUOUS
 62
     3
 10
-278.44692912449813
 20
-85.466667971993274
 30
0.0
 11
-294.44692912449631
 21
-85.466667971993274
 31
0.0
  0
LINE
  5
1A381
  8
SU
  6
CONTINUOUS
 62
     3
 10
-230.94693083696041
 20
-50.466665144109577
 30
0.0
 11
-294.44692912449631
 21
-50.466665144109562
 31
0.0
  0
LINE
  5
1A382
  8
SU
  6
CONTINUOUS
 62
     3
 10
-291.44692912449631
 20
-85.466667971993274
 30
0.0
 11
-291.44692912449631
 21
-50.466665144109562
 31
0.0
  0
LINE
  5
1A383
  8
SU
  6
CONTINUOUS
 62
     3
 10
-254.4469291244983
 20
-70.466665144109569
 30
0.0
 11
-279.44692912449631
 21
-70.466665144109569
 31
0.0
  0
LINE
  5
1A384
  8
SU
  6
CONTINUOUS
 62
     3
 10
-230.94693083696041
 20
-50.466665144109577
 30
0.0
 11
-279.44692912449631
 21
-50.466665144109577
 31
0.0
  0
LINE
  5
1A385
  8
SU
  6
CONTINUOUS
 62
     3
 10
-276.44692912449631
 20
-70.466665144109569
 30
0.0
 11
-276.44692912449631
 21
-50.466665144109577
 31
0.0
  0
LINE
  5
1A386
  8
SU
  6
CONTINUOUS
 62
     3
 10
-276.44692912449813
 20
-85.466667971993274
 30
0.0
 11
-273.44692912449631
 21
-85.466667971993274
 31
0.0
  0
LINE
  5
1A387
  8
SU
  6
CONTINUOUS
 62
     3
 10
-254.4469291244983
 20
-70.466665144109569
 30
0.0
 11
-279.44692912449631
 21
-70.466665144109569
 31
0.0
  0
LINE
  5
1A388
  8
SU
  6
CONTINUOUS
 62
     3
 10
-276.44692912449631
 20
-70.466665144109569
 30
0.0
 11
-276.44692912449631
 21
-85.466667971993274
 31
0.0
  0
LINE
  5
1A389
  8
SU
  6
CONTINUOUS
 62
     3
 10
-276.44692912449631
 20
-85.466667971993274
 30
0.0
 11
-276.44692912449631
 21
-95.367620352945636
 31
0.0
  0
LINE
  5
1A38A
  8
KI
  6
CONTINUOUS
 62
     7
 10
-229.94693083696041
 20
-50.466665144109577
 30
0.0
 11
-201.9469308369608
 21
-50.466665144109577
 31
0.0
  0
LINE
  5
1A38B
  8
KI
  6
CONTINUOUS
 62
     7
 10
-253.4469291244983
 20
-70.466665144109569
 30
0.0
 11
-229.94693083696041
 21
-50.466665144109577
 31
0.0
  0
LINE
  5
1A38C
  8
KI
  6
CONTINUOUS
 62
     7
 10
-253.4469291244983
 20
-70.466665144109569
 30
0.0
 11
-253.4469291244983
 21
-85.466667971993274
 31
0.0
  0
LINE
  5
1A38D
  8
KI
  6
CONTINUOUS
 62
     7
 10
-201.9469308369608
 20
-70.466665144109569
 30
0.0
 11
-146.4469291244983
 21
-70.466665144109569
 31
0.0
  0
LINE
  5
1A38E
  8
KI
  6
CONTINUOUS
 62
     7
 10
-201.9469308369608
 20
-70.466665144109569
 30
0.0
 11
-201.9469308369608
 21
-50.466665144109577
 31
0.0
  0
LINE
  5
1A38F
  8
KI
  6
CONTINUOUS
 62
     7
 10
-146.4469291244983
 20
-70.466665144109569
 30
0.0
 11
-146.4469291244983
 21
-85.466667971993274
 31
0.0
  0
LINE
  5
1A390
  8
KI
  6
CONTINUOUS
 62
     7
 10
-253.4469291244983
 20
-85.466667971993274
 30
0.0
 11
-146.4469291244983
 21
-85.466667971993274
 31
0.0
  0
LINE
  5
1A391
  8
KI
  6
CONTINUOUS
 62
     7
 10
-201.4469248367086
 20
-50.466630149049017
 30
0.0
 11
-199.22083210548001
 21
-50.466630149048569
 31
0.0
  0
ARC
  5
1A392
  8
KI
  6
CONTINUOUS
 62
     7
 10
-191.9389017870532
 20
-62.027506039198897
 30
0.0
 40
9.2190722294335075
 50
182.8046873404474
 51
234.37413182448239
  0
LINE
  5
1A393
  8
KI
  6
CONTINUOUS
 62
     7
 10
-201.74693083670911
 20
-55.127711710770882
 30
0.0
 11
-201.14692483670871
 21
-54.527705710770761
 31
0.0
  0
LINE
  5
1A394
  8
KI
  6
CONTINUOUS
 62
     7
 10
-201.14692483670839
 20
-57.21664014904831
 30
0.0
 11
-201.14692483670839
 21
-51.466630149049017
 31
0.0
  0
LINE
  5
1A395
  8
KI
  6
CONTINUOUS
 62
     7
 10
-201.9469308367089
 20
-60.466630149048122
 30
0.0
 11
-201.94693083670941
 21
-52.466630149049017
 31
0.0
  0
LINE
  5
1A396
  8
KI
  6
CONTINUOUS
 62
     7
 10
-201.94693083670981
 20
-55.32771171077114
 30
0.0
 11
-201.74693083670911
 21
-55.127711710770882
 31
0.0
  0
LINE
  5
1A397
  8
KI
  6
CONTINUOUS
 62
     7
 10
-201.74693083670911
 20
-56.025737322877589
 30
0.0
 11
-201.1469248367093
 21
-55.425731322877461
 31
0.0
  0
LINE
  5
1A398
  8
KI
  6
CONTINUOUS
 62
     7
 10
-201.94693083670981
 20
-56.225737322878331
 30
0.0
 11
-201.74693083670911
 21
-56.025737322877589
 31
0.0
  0
LINE
  5
1A399
  8
KI
  6
CONTINUOUS
 62
     7
 10
-201.74693083670809
 20
-56.923762934984779
 30
0.0
 11
-201.14692483670839
 21
-56.323756934984658
 31
0.0
  0
LINE
  5
1A39A
  8
KI
  6
CONTINUOUS
 62
     7
 10
-201.9469308367089
 20
-57.123762934985038
 30
0.0
 11
-201.7469308367084
 21
-56.923762934984779
 31
0.0
  0
LINE
  5
1A39B
  8
KI
  6
CONTINUOUS
 62
     7
 10
-201.74693083670809
 20
-57.821788547091053
 30
0.0
 11
-201.3917724386653
 21
-57.4666301490481
 31
0.0
  0
LINE
  5
1A39C
  8
KI
  6
CONTINUOUS
 62
     7
 10
-201.3917724386653
 20
-57.4666301490481
 30
0.0
 11
-201.1675603029899
 21
-57.242418013372792
 31
0.0
  0
LINE
  5
1A39D
  8
KI
  6
CONTINUOUS
 62
     7
 10
-201.94693083670839
 20
-58.021788547091766
 30
0.0
 11
-201.7469308367084
 21
-57.821788547091501
 31
0.0
  0
LINE
  5
1A39E
  8
KI
  6
CONTINUOUS
 62
     7
 10
-201.7469308367084
 20
-58.719814159198677
 30
0.0
 11
-201.14693083670889
 21
-58.119814159199208
 31
0.0
  0
LINE
  5
1A39F
  8
KI
  6
CONTINUOUS
 62
     7
 10
-201.94693083670839
 20
-58.919814159198502
 30
0.0
 11
-201.7469308367084
 21
-58.719814159198677
 31
0.0
  0
LINE
  5
1A3A0
  8
KI
  6
CONTINUOUS
 62
     7
 10
-201.7469308367084
 20
-59.617839771305398
 30
0.0
 11
-201.14693083670861
 21
-59.017839771305482
 31
0.0
  0
LINE
  5
1A3A1
  8
KI
  6
CONTINUOUS
 62
     7
 10
-201.9469308367089
 20
-59.817839771305678
 30
0.0
 11
-201.7469308367084
 21
-59.617839771305398
 31
0.0
  0
LINE
  5
1A3A2
  8
KI
  6
CONTINUOUS
 62
     7
 10
-201.6976956023444
 20
-60.466630149047653
 30
0.0
 11
-201.14693083670861
 21
-59.915865383412211
 31
0.0
  0
LINE
  5
1A3A3
  8
KI
  6
CONTINUOUS
 62
     7
 10
-201.9469308367089
 20
-60.466630149048122
 30
0.0
 11
-201.14693083670861
 21
-60.466630149048122
 31
0.0
  0
LINE
  5
1A3A4
  8
KI
  6
CONTINUOUS
 62
     7
 10
-201.14693083670821
 20
-61.47860890131799
 30
0.0
 11
-201.14693083670861
 21
-57.716640149048779
 31
0.0
  0
LINE
  5
1A3A5
  8
KI
  6
CONTINUOUS
 62
     7
 10
-201.34693083670879
 20
-57.466640149048317
 30
0.0
 11
-201.14693083670861
 21
-57.216630149048569
 31
0.0
  0
LINE
  5
1A3A6
  8
KI
  6
CONTINUOUS
 62
     7
 10
-201.34692483670909
 20
-57.466640149048317
 30
0.0
 11
-201.14693083670861
 21
-57.716640149048779
 31
0.0
  0
ARC
  5
1A3A7
  8
KI
  6
CONTINUOUS
 62
     7
 10
-201.4469308367089
 20
-62.178608901318277
 30
0.0
 40
0.3
 50
180.00000000034751
 51
270.00000000008629
  0
LINE
  5
1A3A8
  8
KI
  6
CONTINUOUS
 62
     7
 10
-201.14693083670861
 20
-62.478608901317997
 30
0.0
 11
-201.4469308367089
 21
-62.478608901318459
 31
0.0
  0
ARC
  5
1A3A9
  8
KI
  6
CONTINUOUS
 62
     7
 10
-201.44693083671129
 20
-61.778608901318648
 30
0.0
 40
0.3
 50
90.000000000086288
 51
180.00000000034751
  0
LINE
  5
1A3AA
  8
KI
  6
CONTINUOUS
 62
     7
 10
-201.74693083670911
 20
-62.178608901318277
 30
0.0
 11
-201.74693083671119
 21
-61.778608901318648
 31
0.0
  0
LINE
  5
1A3AB
  8
KI
  6
CONTINUOUS
 62
     7
 10
-201.44693083671129
 20
-61.478608901318466
 30
0.0
 11
-201.14693083670821
 21
-61.47860890131799
 31
0.0
  0
LINE
  5
1A3AC
  8
KI
  6
CONTINUOUS
 62
     7
 10
-201.94693083670981
 20
-52.633634874450991
 30
0.0
 11
-201.77992611130611
 21
-52.466630149047198
 31
0.0
  0
LINE
  5
1A3AD
  8
KI
  6
CONTINUOUS
 62
     7
 10
-201.74693083670911
 20
-53.33166048655653
 30
0.0
 11
-201.14692483670871
 21
-52.731654486556863
 31
0.0
  0
LINE
  5
1A3AE
  8
KI
  6
CONTINUOUS
 62
     7
 10
-201.94693083670941
 20
-53.531660486557257
 30
0.0
 11
-201.74693083670911
 21
-53.331660486556977
 31
0.0
  0
LINE
  5
1A3AF
  8
KI
  6
CONTINUOUS
 62
     7
 10
-201.74693083670911
 20
-54.22968609866416
 30
0.0
 11
-201.14692483670871
 21
-53.629680098664039
 31
0.0
  0
LINE
  5
1A3B0
  8
KI
  6
CONTINUOUS
 62
     7
 10
-201.94693083670981
 20
-54.42968609866444
 30
0.0
 11
-201.74693083670911
 21
-54.22968609866416
 31
0.0
  0
LINE
  5
1A3B1
  8
KI
  6
CONTINUOUS
 62
     7
 10
-201.94693083670941
 20
-52.466630149049017
 30
0.0
 11
-201.14692483670839
 21
-52.46663014904766
 31
0.0
  0
ARC
  5
1A3B2
  8
KI
  6
CONTINUOUS
 62
     7
 10
-201.44693083671129
 20
-51.166630149048842
 30
0.0
 40
0.3
 50
180.00000000034751
 51
270.00000000008629
  0
ARC
  5
1A3B3
  8
KI
  6
CONTINUOUS
 62
     7
 10
-201.44693083671351
 20
-50.766630149049199
 30
0.0
 40
0.3
 50
90.000000000086288
 51
180.00000000034751
  0
LINE
  5
1A3B4
  8
KI
  6
CONTINUOUS
 62
     7
 10
-201.74693083671079
 20
-51.166630149048842
 30
0.0
 11
-201.7469308367136
 21
-50.766630149049199
 31
0.0
  0
LINE
  5
1A3B5
  8
KI
  6
CONTINUOUS
 62
     7
 10
-201.14692483670839
 20
-51.466630149049017
 30
0.0
 11
-201.44693083671129
 21
-51.466630149049017
 31
0.0
  0
ARC
  5
1A3B6
  8
KI
  6
CONTINUOUS
 62
     7
 10
-215.46771430183711
 20
-64.683221318998449
 30
0.0
 40
24.521586859558742
 50
356.28881364656849
 51
30.703076599063209
  0
ARC
  5
1A3B7
  8
KI
  6
CONTINUOUS
 62
     7
 10
-215.46771430183711
 20
-64.683221318998449
 30
0.0
 40
23.321944298558741
 50
356.28881364656849
 51
31.589100606043619
  0
LINE
  5
1A3B8
  8
KI
  6
CONTINUOUS
 62
     7
 10
-199.14696140539209
 20
-62.97845321510772
 30
0.0
 11
-199.14696140539209
 21
-52.966630149048122
 31
0.0
  0
LINE
  5
1A3B9
  8
KI
  6
CONTINUOUS
 62
     7
 10
-198.33127240385309
 20
-66.023348555369211
 30
0.0
 11
-198.33127264495531
 21
-66.023348358941575
 31
0.0
  0
ARC
  5
1A3BA
  8
KI
  6
CONTINUOUS
 62
     7
 10
-196.02946896632571
 20
-69.970307243632959
 30
0.0
 40
0.3
 50
163.71693705722851
 51
347.14909562687671
  0
ARC
  5
1A3BB
  8
KI
  6
CONTINUOUS
 62
     7
 10
-197.14492031748401
 20
-68.609476505140023
 30
0.0
 40
0.5
 50
49.327411972637599
 51
65.442606426039717
  0
ARC
  5
1A3BC
  8
KI
  6
CONTINUOUS
 62
     7
 10
-193.3629259605124
 20
-60.332613243616599
 30
0.0
 40
10.0
 50
250.1968242058378
 51
252.81541990369061
  0
ARC
  5
1A3BD
  8
KI
  6
CONTINUOUS
 62
     7
 10
-197.0315289561409
 20
-69.635373697399473
 30
0.0
 40
0.3
 50
157.61329912440891
 51
339.33735528098401
  0
ARC
  5
1A3BE
  8
KI
  6
CONTINUOUS
 62
     7
 10
-194.99419278591509
 20
-66.106603938477065
 30
0.0
 40
4.0
 50
334.29819125374422
 51
357.65265816413881
  0
ARC
  5
1A3BF
  8
KI
  6
CONTINUOUS
 62
     7
 10
-193.36291892273439
 20
-60.332613243607042
 30
0.0
 40
8.7999999999999972
 50
254.19808653013209
 51
254.22396225264839
  0
ARC
  5
1A3C0
  8
KI
  6
CONTINUOUS
 62
     7
 10
-191.53009117077741
 20
-68.106603938476155
 30
0.0
 40
0.3
 50
237.85090437317311
 51
62.149095626860827
  0
ARC
  5
1A3C1
  8
KI
  6
CONTINUOUS
 62
     7
 10
-194.99419278591509
 20
-66.106603938477065
 30
0.0
 40
4.0
 50
319.29819125370432
 51
325.70180874629273
  0
ARC
  5
1A3C2
  8
KI
  6
CONTINUOUS
 62
     7
 10
-192.16576566117001
 20
-68.935031063224187
 30
0.0
 40
0.3
 50
222.8509043731234
 51
47.149095626853317
  0
ARC
  5
1A3C3
  8
KI
  6
CONTINUOUS
 62
     7
 10
-194.99419278591321
 20
-70.106603938477065
 30
0.0
 40
0.3
 50
177.85090437321941
 51
2.1490956268587862
  0
ARC
  5
1A3C4
  8
KI
  6
CONTINUOUS
 62
     7
 10
-193.95891660550231
 20
-69.970307243632533
 30
0.0
 40
0.3
 50
192.85090437317641
 51
17.149095626929501
  0
ARC
  5
1A3C5
  8
KI
  6
CONTINUOUS
 62
     7
 10
-194.99419278591509
 20
-66.106603938477065
 30
0.0
 40
4.0
 50
289.29819125377247
 51
295.70180874626232
  0
ARC
  5
1A3C6
  8
KI
  6
CONTINUOUS
 62
     7
 10
-192.99419278591591
 20
-69.570705553615213
 30
0.0
 40
0.3
 50
207.85090437311109
 51
32.149095626882911
  0
ARC
  5
1A3C7
  8
KI
  6
CONTINUOUS
 62
     7
 10
-194.99419278591509
 20
-66.106603938477065
 30
0.0
 40
4.0
 50
304.29819125372239
 51
310.70180874624413
  0
ARC
  5
1A3C8
  8
KI
  6
CONTINUOUS
 62
     7
 10
-194.99419278591509
 20
-66.106603938477065
 30
0.0
 40
4.0
 50
259.29819125371802
 51
265.7018087463
  0
ARC
  5
1A3C9
  8
KI
  6
CONTINUOUS
 62
     7
 10
-194.99419278591509
 20
-66.106603938499362
 30
0.0
 40
4.0
 50
274.29819125375832
 51
280.7018087463199
  0
ARC
  5
1A3CA
  8
KI
  6
CONTINUOUS
 62
     7
 10
-194.99419278591509
 20
-66.106603938477065
 30
0.0
 40
2.799999999999998
 50
229.327411972644
 51
357.65265816413881
  0
ARC
  5
1A3CB
  8
KI
  6
CONTINUOUS
 62
     7
 10
-191.89803832372709
 20
-62.943583252888629
 30
0.0
 40
7.2490069497939373
 50
180.2756114576494
 51
225.96157026528149
  0
ARC
  5
1A3CC
  8
KI
  6
CONTINUOUS
 62
     7
 10
-193.9535319873095
 20
-51.90747209213464
 30
0.0
 40
0.5
 50
116.01906736229191
 51
210.70307659906439
  0
ARC
  5
1A3CD
  8
KI
  6
CONTINUOUS
 62
     7
 10
-197.3647677110599
 20
-44.919305747497418
 30
0.0
 40
7.2763100519022599
 50
296.01906736229182
 51
331.88676723363989
  0
ARC
  5
1A3CE
  8
KI
  6
CONTINUOUS
 62
     7
 10
-197.3647677110599
 20
-44.919305747497418
 30
0.0
 40
5.776310051902259
 50
286.18682820039572
 51
331.88676723363989
  0
LINE
  5
1A3CF
  8
KI
  6
CONTINUOUS
 62
     7
 10
-199.22083210548001
 20
-50.466630149047653
 30
0.0
 11
-195.7545038197519
 21
-50.466630149049472
 31
0.0
  0
LINE
  5
1A3D0
  8
KI
  6
CONTINUOUS
 62
     7
 10
-198.64696140539209
 20
-52.4666301490481
 30
0.0
 11
-195.60146186079061
 21
-52.4666301490481
 31
0.0
  0
ARC
  5
1A3D1
  8
KI
  6
CONTINUOUS
 62
     7
 10
-198.64696140539209
 20
-52.966630149048122
 30
0.0
 40
0.5
 50
89.99999999999838
 51
180.0
  0
ARC
  5
1A3D2
  8
KI
  6
CONTINUOUS
 62
     7
 10
-191.65799360629711
 20
-48.087350749841569
 30
0.0
 40
0.7573354118943643
 50
339.86775998205133
 51
143.90577448522751
  0
LINE
  5
1A3D3
  8
KI
  6
CONTINUOUS
 62
     7
 10
-219.94692836256269
 20
125.5294561777565
 30
0.0
 11
-207.94693083696041
 21
125.5294561777565
 31
0.0
  0
LINE
  5
1A3D4
  8
KI
  6
CONTINUOUS
 62
     7
 10
-207.94693083696041
 20
125.5294561777565
 30
0.0
 11
-207.94693083696041
 21
121.0294561777566
 31
0.0
  0
LINE
  5
1A3D5
  8
KI
  6
CONTINUOUS
 62
     7
 10
-207.9469308369608
 20
121.0294561777566
 30
0.0
 11
-201.9469308369608
 21
121.0294561777566
 31
0.0
  0
LINE
  5
1A3D6
  8
KI
  6
CONTINUOUS
 62
     7
 10
-219.94692836256269
 20
125.5294561777565
 30
0.0
 11
-219.94692836256269
 21
121.0294561777566
 31
0.0
  0
LINE
  5
1A3D7
  8
KI
  6
CONTINUOUS
 62
     7
 10
-225.9469283625626
 20
121.0294561777566
 30
0.0
 11
-219.94692836256269
 21
121.0294561777566
 31
0.0
  0
LINE
  5
1A3D8
  8
KI
  6
CONTINUOUS
 62
     7
 10
-225.9469283625626
 20
121.0294561777566
 30
0.0
 11
-225.9469283625626
 21
101.0294561777566
 31
0.0
  0
LINE
  5
1A3D9
  8
KI
  6
CONTINUOUS
 62
     7
 10
-225.9469283625626
 20
101.0294561777566
 30
0.0
 11
-201.9469308369608
 21
101.0294561777566
 31
0.0
  0
LINE
  5
1A3DA
  8
KI
  6
CONTINUOUS
 62
     7
 10
-201.9469308369608
 20
121.0294561777566
 30
0.0
 11
-201.9469308369608
 21
101.0294561777566
 31
0.0
  0
LINE
  5
1A3DB
  8
KI
  6
CONTINUOUS
 62
     7
 10
-201.44692483695999
 20
101.0294211826959
 30
0.0
 11
-199.2208321057314
 21
101.0294211826956
 31
0.0
  0
ARC
  5
1A3DC
  8
KI
  6
CONTINUOUS
 62
     7
 10
-191.9389017873045
 20
112.5902970728459
 30
0.0
 40
9.2190722294335075
 50
125.6258681755175
 51
177.1953126595514
  0
LINE
  5
1A3DD
  8
KI
  6
CONTINUOUS
 62
     7
 10
-201.946930836961
 20
103.19642590809779
 30
0.0
 11
-201.7799261115575
 21
103.02942118269419
 31
0.0
  0
LINE
  5
1A3DE
  8
KI
  6
CONTINUOUS
 62
     7
 10
-201.74693083696039
 20
103.8944515202034
 30
0.0
 11
-201.1469248369603
 21
103.29444552020431
 31
0.0
  0
LINE
  5
1A3DF
  8
KI
  6
CONTINUOUS
 62
     7
 10
-201.9469308369608
 20
104.0944515202047
 30
0.0
 11
-201.74693083696039
 21
103.8944515202039
 31
0.0
  0
LINE
  5
1A3E0
  8
KI
  6
CONTINUOUS
 62
     7
 10
-201.74693083696039
 20
104.79247713231121
 30
0.0
 11
-201.1469248369603
 21
104.192471132311
 31
0.0
  0
LINE
  5
1A3E1
  8
KI
  6
CONTINUOUS
 62
     7
 10
-201.946930836961
 20
104.99247713231139
 30
0.0
 11
-201.74693083696039
 21
104.79247713231121
 31
0.0
  0
LINE
  5
1A3E2
  8
KI
  6
CONTINUOUS
 62
     7
 10
-201.74693083696039
 20
105.6905027444179
 30
0.0
 11
-201.1469248369603
 21
105.09049674441781
 31
0.0
  0
LINE
  5
1A3E3
  8
KI
  6
CONTINUOUS
 62
     7
 10
-201.946930836961
 20
105.8905027444182
 30
0.0
 11
-201.74693083696039
 21
105.6905027444179
 31
0.0
  0
LINE
  5
1A3E4
  8
KI
  6
CONTINUOUS
 62
     7
 10
-201.74693083696039
 20
106.5885283565251
 30
0.0
 11
-201.14692483696081
 21
105.9885223565245
 31
0.0
  0
LINE
  5
1A3E5
  8
KI
  6
CONTINUOUS
 62
     7
 10
-201.946930836961
 20
106.7885283565253
 30
0.0
 11
-201.74693083696039
 21
106.5885283565251
 31
0.0
  0
LINE
  5
1A3E6
  8
KI
  6
CONTINUOUS
 62
     7
 10
-201.74693083695959
 20
107.4865539686318
 30
0.0
 11
-201.1469248369599
 21
106.8865479686319
 31
0.0
  0
LINE
  5
1A3E7
  8
KI
  6
CONTINUOUS
 62
     7
 10
-201.94693083696041
 20
107.6865539686325
 30
0.0
 11
-201.7469308369601
 21
107.4865539686318
 31
0.0
  0
LINE
  5
1A3E8
  8
KI
  6
CONTINUOUS
 62
     7
 10
-201.74693083695959
 20
108.3845795807385
 30
0.0
 11
-201.39177243891669
 21
108.029421182695
 31
0.0
  0
LINE
  5
1A3E9
  8
KI
  6
CONTINUOUS
 62
     7
 10
-201.39177243891669
 20
108.029421182695
 30
0.0
 11
-201.1675603032414
 21
107.8052090470203
 31
0.0
  0
LINE
  5
1A3EA
  8
KI
  6
CONTINUOUS
 62
     7
 10
-201.94693083696001
 20
108.58457958073861
 30
0.0
 11
-201.7469308369601
 21
108.3845795807385
 31
0.0
  0
LINE
  5
1A3EB
  8
KI
  6
CONTINUOUS
 62
     7
 10
-201.7469308369601
 20
109.28260519284559
 30
0.0
 11
-201.14693083696071
 21
108.6826051928464
 31
0.0
  0
LINE
  5
1A3EC
  8
KI
  6
CONTINUOUS
 62
     7
 10
-201.94693083696001
 20
109.4826051928454
 30
0.0
 11
-201.7469308369601
 21
109.28260519284559
 31
0.0
  0
LINE
  5
1A3ED
  8
KI
  6
CONTINUOUS
 62
     7
 10
-201.7469308369601
 20
110.1806308049529
 30
0.0
 11
-201.14693083696
 21
109.58063080495251
 31
0.0
  0
LINE
  5
1A3EE
  8
KI
  6
CONTINUOUS
 62
     7
 10
-201.94693083696041
 20
110.3806308049527
 30
0.0
 11
-201.7469308369601
 21
110.1806308049529
 31
0.0
  0
LINE
  5
1A3EF
  8
KI
  6
CONTINUOUS
 62
     7
 10
-201.6976956025961
 20
111.029421182695
 30
0.0
 11
-201.14693083696
 21
110.4786564170592
 31
0.0
  0
LINE
  5
1A3F0
  8
KI
  6
CONTINUOUS
 62
     7
 10
-201.94693083696041
 20
111.029421182695
 30
0.0
 11
-201.14693083696
 21
111.029421182695
 31
0.0
  0
LINE
  5
1A3F1
  8
KI
  6
CONTINUOUS
 62
     7
 10
-201.9469308369608
 20
103.029421182696
 30
0.0
 11
-201.1469248369599
 21
103.0294211826951
 31
0.0
  0
LINE
  5
1A3F2
  8
KI
  6
CONTINUOUS
 62
     7
 10
-201.1469308369596
 20
112.041399934965
 30
0.0
 11
-201.14693083696
 21
108.2794311826956
 31
0.0
  0
LINE
  5
1A3F3
  8
KI
  6
CONTINUOUS
 62
     7
 10
-201.3469308369605
 20
108.0294311826953
 30
0.0
 11
-201.14693083696
 21
107.7794211826956
 31
0.0
  0
LINE
  5
1A3F4
  8
KI
  6
CONTINUOUS
 62
     7
 10
-201.34692483696071
 20
108.0294311826953
 30
0.0
 11
-201.14693083696
 21
108.2794311826956
 31
0.0
  0
LINE
  5
1A3F5
  8
KI
  6
CONTINUOUS
 62
     7
 10
-201.1469248369599
 20
107.77943118269511
 30
0.0
 11
-201.1469248369599
 21
102.029421182696
 31
0.0
  0
ARC
  5
1A3F6
  8
KI
  6
CONTINUOUS
 62
     7
 10
-201.44693083696041
 20
112.7413999349653
 30
0.0
 40
0.3
 50
89.999999999913726
 51
179.99999999965141
  0
LINE
  5
1A3F7
  8
KI
  6
CONTINUOUS
 62
     7
 10
-201.14693083696
 20
113.041399934965
 30
0.0
 11
-201.44693083696041
 21
113.0413999349654
 31
0.0
  0
ARC
  5
1A3F8
  8
KI
  6
CONTINUOUS
 62
     7
 10
-201.44693083696311
 20
112.34139993496611
 30
0.0
 40
0.3
 50
179.99999999965141
 51
269.99999999991348
  0
LINE
  5
1A3F9
  8
KI
  6
CONTINUOUS
 62
     7
 10
-201.74693083696039
 20
112.7413999349653
 30
0.0
 11
-201.74693083696289
 21
112.34139993496611
 31
0.0
  0
ARC
  5
1A3FA
  8
KI
  6
CONTINUOUS
 62
     7
 10
-201.44693083696311
 20
101.7294211826957
 30
0.0
 40
0.3
 50
89.999999999913726
 51
179.99999999965141
  0
ARC
  5
1A3FB
  8
KI
  6
CONTINUOUS
 62
     7
 10
-201.4469308369649
 20
101.32942118269619
 30
0.0
 40
0.3
 50
179.99999999965141
 51
269.99999999991348
  0
LINE
  5
1A3FC
  8
KI
  6
CONTINUOUS
 62
     7
 10
-201.74693083696241
 20
101.7294211826957
 30
0.0
 11
-201.74693083696511
 21
101.32942118269619
 31
0.0
  0
LINE
  5
1A3FD
  8
KI
  6
CONTINUOUS
 62
     7
 10
-201.1469248369599
 20
102.029421182696
 30
0.0
 11
-201.44693083696311
 21
102.029421182696
 31
0.0
  0
LINE
  5
1A3FE
  8
KI
  6
CONTINUOUS
 62
     7
 10
-201.44693083696311
 20
112.0413999349654
 30
0.0
 11
-201.1469308369596
 21
112.041399934965
 31
0.0
  0
LINE
  5
1A3FF
  8
KI
  6
CONTINUOUS
 62
     7
 10
-201.94693083696041
 20
111.029421182695
 30
0.0
 11
-201.9469308369608
 21
103.029421182696
 31
0.0
  0
ARC
  5
1A400
  8
KI
  6
CONTINUOUS
 62
     7
 10
-193.95353198756081
 20
102.4702631257816
 30
0.0
 40
0.5
 50
149.29692340093499
 51
243.9809326377075
  0
ARC
  5
1A401
  8
KI
  6
CONTINUOUS
 62
     7
 10
-197.3647677113114
 20
95.482096781144492
 30
0.0
 40
7.2763100519022599
 50
28.113232766358639
 51
63.98093263770771
  0
ARC
  5
1A402
  8
KI
  6
CONTINUOUS
 62
     7
 10
-215.46771430208869
 20
115.2460123526452
 30
0.0
 40
24.521586859558742
 50
329.29692340093601
 51
3.711186353431466
  0
ARC
  5
1A403
  8
KI
  6
CONTINUOUS
 62
     7
 10
-197.3647677113114
 20
95.482096781144492
 30
0.0
 40
5.776310051902259
 50
28.113232766358639
 51
73.813171799604191
  0
LINE
  5
1A404
  8
KI
  6
CONTINUOUS
 62
     7
 10
-199.2208321057314
 20
101.0294211826947
 30
0.0
 11
-195.75450382000341
 21
101.0294211826963
 31
0.0
  0
ARC
  5
1A405
  8
KI
  6
CONTINUOUS
 62
     7
 10
-215.46771430208869
 20
115.2460123526452
 30
0.0
 40
23.321944298558741
 50
328.41089939395619
 51
3.711186353431466
  0
LINE
  5
1A406
  8
KI
  6
CONTINUOUS
 62
     7
 10
-198.64696140564351
 20
103.0294211826951
 30
0.0
 11
-195.60146186104211
 21
103.0294211826951
 31
0.0
  0
LINE
  5
1A407
  8
KI
  6
CONTINUOUS
 62
     7
 10
-198.33127240410479
 20
116.5861395890162
 30
0.0
 11
-198.33127264520661
 21
116.5861393925889
 31
0.0
  0
LINE
  5
1A408
  8
KI
  6
CONTINUOUS
 62
     7
 10
-199.14696140564351
 20
113.54124424875459
 30
0.0
 11
-199.14696140564351
 21
103.5294211826951
 31
0.0
  0
ARC
  5
1A409
  8
KI
  6
CONTINUOUS
 62
     7
 10
-198.64696140564351
 20
103.5294211826951
 30
0.0
 40
0.5
 50
180.0
 51
270.00000000000159
  0
ARC
  5
1A40A
  8
KI
  6
CONTINUOUS
 62
     7
 10
-196.0294689665771
 20
120.53309827728
 30
0.0
 40
0.3
 50
12.850904373123271
 51
196.2830629427705
  0
ARC
  5
1A40B
  8
KI
  6
CONTINUOUS
 62
     7
 10
-197.1449203177354
 20
119.172267538787
 30
0.0
 40
0.5
 50
294.55739357396021
 51
310.6725880273616
  0
ARC
  5
1A40C
  8
KI
  6
CONTINUOUS
 62
     7
 10
-193.3629259607635
 20
110.89540427726359
 30
0.0
 40
10.0
 50
107.1845800963092
 51
109.803175794162
  0
ARC
  5
1A40D
  8
KI
  6
CONTINUOUS
 62
     7
 10
-197.03152895639241
 20
120.1981647310464
 30
0.0
 40
0.3
 50
20.662644719016761
 51
202.3867008755924
  0
ARC
  5
1A40E
  8
KI
  6
CONTINUOUS
 62
     7
 10
-194.99419278616639
 20
116.669394972124
 30
0.0
 40
4.0
 50
2.3473418358611311
 51
25.701808746255011
  0
ARC
  5
1A40F
  8
KI
  6
CONTINUOUS
 62
     7
 10
-193.3629189229859
 20
110.895404277254
 30
0.0
 40
8.7999999999999972
 50
105.7760377473514
 51
105.8019134698674
  0
ARC
  5
1A410
  8
KI
  6
CONTINUOUS
 62
     7
 10
-191.5300911710288
 20
118.6693949721232
 30
0.0
 40
0.3
 50
297.8509043731392
 51
122.14909562682681
  0
ARC
  5
1A411
  8
KI
  6
CONTINUOUS
 62
     7
 10
-194.99419278616639
 20
116.669394972124
 30
0.0
 40
4.0
 50
34.29819125370711
 51
40.701808746296223
  0
ARC
  5
1A412
  8
KI
  6
CONTINUOUS
 62
     7
 10
-192.1657656614214
 20
119.4978220968712
 30
0.0
 40
0.3
 50
312.8509043731467
 51
137.1490956268762
  0
ARC
  5
1A413
  8
KI
  6
CONTINUOUS
 62
     7
 10
-194.99419278616469
 20
120.669394972124
 30
0.0
 40
0.3
 50
357.85090437314102
 51
182.14909562678051
  0
ARC
  5
1A414
  8
KI
  6
CONTINUOUS
 62
     7
 10
-193.9589166057541
 20
120.53309827727951
 30
0.0
 40
0.3
 50
342.85090437306962
 51
167.14909562682331
  0
ARC
  5
1A415
  8
KI
  6
CONTINUOUS
 62
     7
 10
-194.99419278616639
 20
116.669394972124
 30
0.0
 40
4.0
 50
64.298191253737713
 51
70.701808746227343
  0
ARC
  5
1A416
  8
KI
  6
CONTINUOUS
 62
     7
 10
-192.9941927861673
 20
120.1334965872622
 30
0.0
 40
0.3
 50
327.85090437311919
 51
152.14909562688661
  0
ARC
  5
1A417
  8
KI
  6
CONTINUOUS
 62
     7
 10
-194.99419278616639
 20
116.669394972124
 30
0.0
 40
4.0
 50
49.298191253756329
 51
55.701808746277983
  0
ARC
  5
1A418
  8
KI
  6
CONTINUOUS
 62
     7
 10
-194.99419278616639
 20
116.669394972124
 30
0.0
 40
4.0
 50
94.298191253699741
 51
100.7018087462819
  0
ARC
  5
1A419
  8
KI
  6
CONTINUOUS
 62
     7
 10
-194.99419278616639
 20
116.6693949721467
 30
0.0
 40
4.0
 50
79.298191253680031
 51
85.701808746241468
  0
ARC
  5
1A41A
  8
KI
  6
CONTINUOUS
 62
     7
 10
-194.99419278616639
 20
116.669394972124
 30
0.0
 40
2.799999999999998
 50
2.3473418358611311
 51
130.67258802735509
  0
ARC
  5
1A41B
  8
KI
  6
CONTINUOUS
 62
     7
 10
-191.89803832397871
 20
113.5063742865354
 30
0.0
 40
7.2490069497939373
 50
134.03842973471851
 51
179.72438854235031
  0
ARC
  5
1A41C
  8
KI
  6
CONTINUOUS
 62
     7
 10
-191.6579936065485
 20
98.650141783489076
 30
0.0
 40
0.7573354118943643
 50
216.09422551477209
 51
20.132240017949432
  0
ARC
  5
1A41D
  8
KI
  6
CONTINUOUS
 62
     7
 10
-208.44642346354661
 20
99.979009442831043
 30
0.0
 40
2.5000001067820641
 50
281.5250854492183
 51
1.155319213868458
  0
LINE
  5
1A41E
  8
KI
  6
CONTINUOUS
 62
     7
 10
-205.94693625312169
 20
100.0294373251988
 30
0.0
 11
-205.94693625312169
 21
101.0294211826959
 31
0.0
  0
LINE
  5
1A41F
  8
KI
  6
DASHED2
 62
     7
 10
-208.4469308919254
 20
99.0294184726406
 30
0.0
 11
-207.19692482375879
 21
100.0294373251988
 31
0.0
  0
LINE
  5
1A420
  8
KI
  6
DASHED2
 62
     7
 10
-208.4469308958746
 20
101.0294561777566
 30
0.0
 11
-207.1969248277079
 21
100.0294373251988
 31
0.0
  0
LINE
  5
1A421
  8
KI
  6
DASHED2
 62
     7
 10
-219.44692829969941
 20
99.0294184726406
 30
0.0
 11
-208.4469308919254
 21
99.0294184726406
 31
0.0
  0
LINE
  5
1A422
  8
KI
  6
DASHED2
 62
     7
 10
-220.69693436786611
 20
100.0294373251988
 30
0.0
 11
-207.19692482375879
 21
100.0294373251988
 31
0.0
  0
LINE
  5
1A423
  8
KI
  6
DASHED2
 62
     7
 10
-220.69693436786611
 20
100.0294373251988
 30
0.0
 11
-219.44692829969941
 21
101.0294211826959
 31
0.0
  0
LINE
  5
1A424
  8
KI
  6
DASHED2
 62
     7
 10
-220.69693436786611
 20
100.0294373251988
 30
0.0
 11
-219.44692829969941
 21
99.0294184726406
 31
0.0
  0
LINE
  5
1A425
  8
KI
  6
CONTINUOUS
 62
     7
 10
-207.9469214656468
 20
97.529425188864707
 30
0.0
 11
-219.94693772597799
 21
97.529425188864707
 31
0.0
  0
ARC
  5
1A426
  8
KI
  6
CONTINUOUS
 62
     7
 10
-219.4474357280784
 20
99.979009442831043
 30
0.0
 40
2.5000001067820641
 50
178.84469604492341
 51
258.47492980957111
  0
LINE
  5
1A427
  8
KI
  6
CONTINUOUS
 62
     7
 10
-221.94692293850269
 20
100.0294373251988
 30
0.0
 11
-221.94692293850269
 21
101.0294211826959
 31
0.0
  0
LINE
  5
1A428
  8
KI
  6
DASHED2
 62
     7
 10
-212.89693779667471
 20
101.0294211826959
 30
0.0
 11
-211.39820433508089
 21
99.0294184726406
 31
0.0
  0
LINE
  5
1A429
  8
KI
  6
DASHED2
 62
     7
 10
-214.99692139494951
 20
101.0294211826959
 30
0.0
 11
-216.49565485654301
 21
99.0294184726406
 31
0.0
  0
LINE
  5
1A42A
  8
KI
  6
DASHED2
 62
     7
 10
-215.10740080530709
 20
124.77335984966891
 30
0.0
 11
-212.65832397971951
 21
122.9567312573142
 31
0.0
  0
LINE
  5
1A42B
  8
KI
  6
DASHED2
 62
     7
 10
-215.10740080530709
 20
125.8835081580292
 30
0.0
 11
-212.65832397971951
 21
124.0668795656739
 31
0.0
  0
LINE
  5
1A42C
  8
KI
  6
DASHED2
 62
     7
 10
-215.10740080530709
 20
126.9936914614495
 30
0.0
 11
-212.65832397971951
 21
125.1770628690949
 31
0.0
  0
LINE
  5
1A42D
  8
KI
  6
DASHED2
 62
     7
 10
-215.10740080530709
 20
128.1038397698095
 30
0.0
 11
-212.65832397971951
 21
126.2872111774544
 31
0.0
  0
LINE
  5
1A42E
  8
KI
  6
DASHED2
 62
     7
 10
-215.10740080530709
 20
129.2139880781699
 30
0.0
 11
-212.65832397971951
 21
127.3973594858149
 31
0.0
  0
LINE
  5
1A42F
  8
KI
  6
DASHED2
 62
     7
 10
-215.10740080530709
 20
130.3241713815903
 30
0.0
 11
-212.65832397971951
 21
128.50754278923509
 31
0.0
  0
LINE
  5
1A430
  8
KI
  6
DASHED2
 62
     7
 10
-215.10740080530709
 20
131.43431968995
 30
0.0
 11
-212.65832397971951
 21
129.6176910975957
 31
0.0
  0
LINE
  5
1A431
  8
KI
  6
DASHED2
 62
     7
 10
-215.10740080530709
 20
132.54446799831041
 30
0.0
 11
-212.65832397971951
 21
130.72783940595559
 31
0.0
  0
LINE
  5
1A432
  8
KI
  6
DASHED2
 62
     7
 10
-215.10740080530709
 20
133.65465130173081
 30
0.0
 11
-212.65832397971951
 21
131.83802270937591
 31
0.0
  0
LINE
  5
1A433
  8
KI
  6
DASHED2
 62
     7
 10
-215.10740080530709
 20
134.76479961009059
 30
0.0
 11
-212.65832397971951
 21
132.94817101773589
 31
0.0
  0
LINE
  5
1A434
  8
KI
  6
DASHED2
 62
     7
 10
-215.10740080530709
 20
135.87498291351139
 30
0.0
 11
-212.65832397971951
 21
134.0583543211566
 31
0.0
  0
LINE
  5
1A435
  8
KI
  6
DASHED2
 62
     7
 10
-215.10740080530709
 20
121.4428799295285
 30
0.0
 11
-212.65832397971951
 21
119.6262513371737
 31
0.0
  0
LINE
  5
1A436
  8
KI
  6
DASHED2
 62
     7
 10
-215.10740080530709
 20
122.5530282378888
 30
0.0
 11
-212.65832397971951
 21
120.7363996455335
 31
0.0
  0
LINE
  5
1A437
  8
KI
  6
DASHED2
 62
     7
 10
-215.10740080530709
 20
123.66317654624829
 30
0.0
 11
-212.65832397971951
 21
121.8465479538938
 31
0.0
  0
LINE
  5
1A438
  8
KI
  6
DASHED2
 62
     7
 10
-215.10740080530709
 20
118.11236501432739
 30
0.0
 11
-212.65832397971951
 21
116.295771417033
 31
0.0
  0
LINE
  5
1A439
  8
KI
  6
DASHED2
 62
     7
 10
-215.10740080530709
 20
119.22254831774831
 30
0.0
 11
-212.65832397971951
 21
117.40591972539301
 31
0.0
  0
LINE
  5
1A43A
  8
KI
  6
DASHED2
 62
     7
 10
-215.10740080530709
 20
120.332696626108
 30
0.0
 11
-212.65832397971951
 21
118.5160680337532
 31
0.0
  0
LINE
  5
1A43B
  8
KI
  6
DASHED2
 62
     7
 10
-215.1074008013579
 20
124.77335984966891
 30
0.0
 11
-212.65832397577071
 21
122.9567312573142
 31
0.0
  0
LINE
  5
1A43C
  8
KI
  6
DASHED2
 62
     7
 10
-215.1074008013579
 20
125.8835081580292
 30
0.0
 11
-212.65832397577071
 21
124.0668795656739
 31
0.0
  0
LINE
  5
1A43D
  8
KI
  6
DASHED2
 62
     7
 10
-215.1074008013579
 20
126.9936914614495
 30
0.0
 11
-212.65832397577071
 21
125.1770628690949
 31
0.0
  0
LINE
  5
1A43E
  8
KI
  6
DASHED2
 62
     7
 10
-215.1074008013579
 20
128.1038397698095
 30
0.0
 11
-212.65832397577071
 21
126.2872111774544
 31
0.0
  0
LINE
  5
1A43F
  8
KI
  6
DASHED2
 62
     7
 10
-215.1074008013579
 20
129.2139880781699
 30
0.0
 11
-212.65832397577071
 21
127.3973594858149
 31
0.0
  0
LINE
  5
1A440
  8
KI
  6
DASHED2
 62
     7
 10
-215.1074008013579
 20
130.3241713815903
 30
0.0
 11
-212.65832397577071
 21
128.50754278923509
 31
0.0
  0
LINE
  5
1A441
  8
KI
  6
DASHED2
 62
     7
 10
-215.1074008013579
 20
131.43431968995
 30
0.0
 11
-212.65832397577071
 21
129.6176910975957
 31
0.0
  0
LINE
  5
1A442
  8
KI
  6
DASHED2
 62
     7
 10
-215.1074008013579
 20
132.54446799831041
 30
0.0
 11
-212.65832397577071
 21
130.72783940595559
 31
0.0
  0
LINE
  5
1A443
  8
KI
  6
DASHED2
 62
     7
 10
-215.1074008013579
 20
133.65465130173081
 30
0.0
 11
-212.65832397577071
 21
131.83802270937591
 31
0.0
  0
LINE
  5
1A444
  8
KI
  6
DASHED2
 62
     7
 10
-215.1074008013579
 20
134.76479961009059
 30
0.0
 11
-212.65832397577071
 21
132.94817101773589
 31
0.0
  0
LINE
  5
1A445
  8
KI
  6
DASHED2
 62
     7
 10
-215.1074008013579
 20
135.87498291351139
 30
0.0
 11
-212.65832397577071
 21
134.0583543211566
 31
0.0
  0
LINE
  5
1A446
  8
KI
  6
DASHED2
 62
     7
 10
-215.1074008013579
 20
136.98513122187171
 30
0.0
 11
-212.65832397577071
 21
135.16850262951641
 31
0.0
  0
LINE
  5
1A447
  8
KI
  6
DASHED2
 62
     7
 10
-215.1074008013579
 20
138.09527953023141
 30
0.0
 11
-212.65832397577071
 21
136.27865093787671
 31
0.0
  0
LINE
  5
1A448
  8
KI
  6
DASHED2
 62
     7
 10
-215.1074008013579
 20
139.20546283365201
 30
0.0
 11
-212.65832397577071
 21
137.38883424129719
 31
0.0
  0
LINE
  5
1A449
  8
KI
  6
DASHED2
 62
     7
 10
-215.1074008013579
 20
140.3156111420121
 30
0.0
 11
-212.65832397577071
 21
138.498982549657
 31
0.0
  0
LINE
  5
1A44A
  8
KI
  6
DASHED2
 62
     7
 10
-214.99692139494951
 20
101.0294211826959
 30
0.0
 11
-214.99692139494951
 21
139.14404650224671
 31
0.0
  0
LINE
  5
1A44B
  8
KI
  6
DASHED2
 62
     7
 10
-214.99692139494951
 20
139.14404650224671
 30
0.0
 11
-213.95139146604231
 21
147.73235930671541
 31
0.0
  0
LINE
  5
1A44C
  8
KI
  6
DASHED2
 62
     7
 10
-212.89693779667471
 20
139.14404650224671
 30
0.0
 11
-213.94246772558131
 21
147.73235930671541
 31
0.0
  0
LINE
  5
1A44D
  8
KI
  6
DASHED2
 62
     7
 10
-212.89693779667471
 20
101.0294211826959
 30
0.0
 11
-212.89693779667471
 21
139.14404650224671
 31
0.0
  0
LINE
  5
1A44E
  8
KI
  6
DASHED2
 62
     7
 10
-215.1074008013579
 20
121.4428799295285
 30
0.0
 11
-212.65832397577071
 21
119.6262513371737
 31
0.0
  0
LINE
  5
1A44F
  8
KI
  6
DASHED2
 62
     7
 10
-215.1074008013579
 20
122.5530282378888
 30
0.0
 11
-212.65832397577071
 21
120.7363996455336
 31
0.0
  0
LINE
  5
1A450
  8
KI
  6
DASHED2
 62
     7
 10
-215.1074008013579
 20
123.66317654624829
 30
0.0
 11
-212.65832397577071
 21
121.8465479538938
 31
0.0
  0
LINE
  5
1A451
  8
KI
  6
DASHED2
 62
     7
 10
-215.1074008013579
 20
118.11236501432739
 30
0.0
 11
-212.65832397577071
 21
116.295771417033
 31
0.0
  0
LINE
  5
1A452
  8
KI
  6
DASHED2
 62
     7
 10
-215.1074008013579
 20
119.22254831774831
 30
0.0
 11
-212.65832397577071
 21
117.40591972539301
 31
0.0
  0
LINE
  5
1A453
  8
KI
  6
DASHED2
 62
     7
 10
-215.1074008013579
 20
120.332696626108
 30
0.0
 11
-212.65832397577071
 21
118.5160680337532
 31
0.0
  0
LINE
  5
1A454
  8
KI
  6
CENTER2
 62
     7
 10
-213.94692959581209
 20
94.674458152562011
 30
0.0
 11
-213.94692959581209
 21
153.14466038866391
 31
0.0
  0
LINE
  5
1A455
  8
KI
  6
CONTINUOUS
 62
     7
 10
266.12421578619012
 20
38.726723943544243
 30
0.0
 11
287.62421578618989
 21
38.726723943544243
 31
0.0
  0
LINE
  5
1A456
  8
KI
  6
CONTINUOUS
 62
     7
 10
266.12421578619012
 20
38.726723943544243
 30
0.0
 11
263.62421578619012
 21
36.226723943544243
 31
0.0
1001
GENIUS_GENFIL_13
1070
     0
1040
2.5
1040
2.5
1040
20.0
1040
0.0
1002
{
1002
}
1001
GENIUS_GENOBJ-N-CHA_13
1002
{
1000
OWNER
1000
GEN
1002
}
1001
GENIUS_GENODEF_13
1002
{
1000
HIER
1070
     0
1002
}
1002
{
1000
MANEDIT
1070
     0
1002
}
1002
{
1000
NOSEL
1070
     0
1002
}
1002
{
1000
BEHIND
1070
     0
1002
}
1002
{
1000
OTHER
1070
     0
1002
}
1002
{
1000
REACTOR
1002
}
  0
LINE
  5
1A457
  8
KI
  6
CONTINUOUS
 62
     7
 10
287.62421578618989
 20
38.726723943545608
 30
0.0
 11
287.62421578618989
 21
-74.273276056455742
 31
0.0
  0
LINE
  5
1A458
  8
KI
  6
CONTINUOUS
 62
     7
 10
287.62421578618989
 20
-74.273276056455742
 30
0.0
 11
266.12421578619012
 21
-74.273276056455742
 31
0.0
  0
LINE
  5
1A459
  8
KI
  6
CONTINUOUS
 62
     7
 10
266.12421578619012
 20
-74.273276056455742
 30
0.0
 11
263.62421578619012
 21
-71.773276056455771
 31
0.0
1001
GENIUS_GENFIL_13
1070
     0
1040
2.5
1040
2.5
1040
20.0
1040
0.0
1002
{
1002
}
1001
GENIUS_GENOBJ-N-CHA_13
1002
{
1000
OWNER
1000
GEN
1002
}
1001
GENIUS_GENODEF_13
1002
{
1000
HIER
1070
     0
1002
}
1002
{
1000
MANEDIT
1070
     0
1002
}
1002
{
1000
NOSEL
1070
     0
1002
}
1002
{
1000
BEHIND
1070
     0
1002
}
1002
{
1000
OTHER
1070
     0
1002
}
1002
{
1000
REACTOR
1002
}
  0
LINE
  5
1A45A
  8
OS
  6
CONTINUOUS
 62
     2
 10
287.62421578618989
 20
36.688243639166409
 30
0.0
 11
285.58573548181232
 21
38.726723943544243
 31
0.0
  0
LINE
  5
1A45B
  8
OS
  6
CONTINUOUS
 62
     2
 10
287.62421578618989
 20
26.788748702554781
 30
0.0
 11
275.68624054520069
 21
38.7267239435443
 31
0.0
  0
LINE
  5
1A45C
  8
OS
  6
CONTINUOUS
 62
     2
 10
287.62421578618989
 20
16.889253765943121
 30
0.0
 11
265.9554806973897
 21
38.557988854743648
 31
0.0
  0
LINE
  5
1A45D
  8
OS
  6
CONTINUOUS
 62
     2
 10
287.62421578618989
 20
6.9897588293314641
 30
0.0
 11
263.62421578619012
 21
30.989758829331429
 31
0.0
  0
LINE
  5
1A45E
  8
OS
  6
CONTINUOUS
 62
     2
 10
287.62421578618989
 20
-2.9097361072802239
 30
0.0
 11
263.62421578619012
 21
21.090263892719801
 31
0.0
  0
LINE
  5
1A45F
  8
OS
  6
CONTINUOUS
 62
     2
 10
287.62421578618989
 20
-12.809231043891931
 30
0.0
 11
263.62421578619012
 21
11.19076895610805
 31
0.0
  0
LINE
  5
1A460
  8
OS
  6
CONTINUOUS
 62
     2
 10
287.62421578618989
 20
-22.708725980503541
 30
0.0
 11
268.6242050637976
 21
-3.7087152581112148
 31
0.0
  0
LINE
  5
1A461
  8
OS
  6
CONTINUOUS
 62
     2
 10
287.62421578618989
 20
-32.608220917115169
 30
0.0
 11
266.78927045026791
 21
-11.77327558119293
 31
0.0
  0
LINE
  5
1A462
  8
OS
  6
CONTINUOUS
 62
     2
 10
287.62421578618989
 20
-42.507715853726808
 30
0.0
 11
263.62421578619012
 21
-18.507715853726801
 31
0.0
  0
LINE
  5
1A463
  8
OS
  6
CONTINUOUS
 62
     2
 10
287.62421578618989
 20
-52.407210790338532
 30
0.0
 11
263.62421578619012
 21
-28.407210790338571
 31
0.0
  0
LINE
  5
1A464
  8
OS
  6
CONTINUOUS
 62
     2
 10
287.62421578618989
 20
-62.306705726950177
 30
0.0
 11
263.62421578619012
 21
-38.30670572695017
 31
0.0
  0
LINE
  5
1A465
  8
OS
  6
CONTINUOUS
 62
     2
 10
287.62421578618989
 20
-72.206200663561845
 30
0.0
 11
263.62421578619012
 21
-48.206200663561837
 31
0.0
  0
LINE
  5
1A466
  8
OS
  6
CONTINUOUS
 62
     2
 10
279.79179624247229
 20
-74.273276056455714
 30
0.0
 11
263.62421578619012
 21
-58.105695600173533
 31
0.0
  0
LINE
  5
1A467
  8
OS
  6
CONTINUOUS
 62
     2
 10
269.89230130586071
 20
-74.273276056455742
 30
0.0
 11
263.62421578619012
 21
-68.00519053678525
 31
0.0
  0
LINE
  5
1A468
  8
KI
  6
CONTINUOUS
 62
     7
 10
263.62421578619012
 20
4.2267244188070654
 30
0.0
 11
263.62421578619012
 21
36.226723943544243
 31
0.0
  0
LINE
  5
1A469
  8
KI
  6
CONTINUOUS
 62
     7
 10
263.62421578619012
 20
-71.773276056455771
 30
0.0
 11
263.62421578619012
 21
-11.77327558119293
 31
0.0
  0
LINE
  5
1A46A
  8
KI
  6
CONTINUOUS
 62
     7
 10
263.62421578619012
 20
4.2267244188070654
 30
0.0
 11
268.6242050637976
 21
4.2267244188070654
 31
0.0
  0
LINE
  5
1A46B
  8
KI
  6
CONTINUOUS
 62
     7
 10
268.6242050637976
 20
-11.77327558119293
 30
0.0
 11
268.6242050637976
 21
4.2267244188070654
 31
0.0
  0
LINE
  5
1A46C
  8
KI
  6
CONTINUOUS
 62
     7
 10
263.62421578619012
 20
-11.77327558119293
 30
0.0
 11
268.6242050637976
 21
-11.77327558119293
 31
0.0
  0
LINE
  5
1A46D
  8
SU
  6
CONTINUOUS
 62
     3
 10
-118.4469291244981
 20
-237.29408971714
 30
0.0
 11
-90.446929010995504
 21
-237.29408971714
 31
0.0
  0
LINE
  5
1A46E
  8
SU
  6
CONTINUOUS
 62
     3
 10
-93.446929010995547
 20
-225.2940897171402
 30
0.0
 11
-93.446929010995547
 21
-237.29408971714
 31
0.0
  0
LINE
  5
1A46F
  8
SU
  6
CONTINUOUS
 62
     3
 10
-149.94692912844741
 20
-217.29408971713991
 30
0.0
 11
-105.4469290109942
 21
-217.29408971713991
 31
0.0
  0
LINE
  5
1A470
  8
SU
  6
CONTINUOUS
 62
     3
 10
-108.4469290109942
 20
-217.29408971713991
 30
0.0
 11
-108.4469290109942
 21
-225.29408971714
 31
0.0
  0
LINE
  5
1A471
  8
SU
  6
CONTINUOUS
 62
     3
 10
-99.446929010995518
 20
-215.29408971713991
 30
0.0
 11
-93.446929010995518
 21
-225.2940897171398
 31
0.0
  0
LINE
  5
1A472
  8
SU
  6
CONTINUOUS
 62
     3
 10
-87.446929010995518
 20
-215.29408971713991
 30
0.0
 11
-93.446929010995518
 21
-225.2940897171398
 31
0.0
  0
LINE
  5
1A473
  8
SU
  6
CONTINUOUS
 62
     3
 10
-99.446929010995518
 20
-215.29408971713991
 30
0.0
 11
-87.446929010995518
 21
-215.29408971713991
 31
0.0
  0
LINE
  5
1A474
  8
SU
  6
CONTINUOUS
 62
     3
 10
-149.9469291244983
 20
-217.29408971713991
 30
0.0
 11
-105.4469290109941
 21
-217.29408971713991
 31
0.0
  0
LINE
  5
1A475
  8
SU
  6
CONTINUOUS
 62
     3
 10
-108.4469290109941
 20
-126.64602736073471
 30
0.0
 11
-108.4469290109941
 21
-217.29408971713991
 31
0.0
  0
LINE
  5
1A476
  8
SU
  6
CONTINUOUS
 62
     3
 10
-118.4469285522934
 20
-225.29408971714
 30
0.0
 11
-90.446929010995504
 21
-225.29408971714
 31
0.0
  0
LINE
  5
1A477
  8
SU
  6
CONTINUOUS
 62
     3
 10
-93.446929010995476
 20
-126.64602736073471
 30
0.0
 11
-93.446929010995518
 21
-225.29408971714
 31
0.0
  0
LINE
  5
1A478
  8
SU
  6
CONTINUOUS
 62
     3
 10
-145.4469291244983
 20
-70.466665144109569
 30
0.0
 11
-105.4469291244969
 21
-70.466665144109569
 31
0.0
  0
LINE
  5
1A479
  8
SU
  6
CONTINUOUS
 62
     3
 10
-108.4469291244969
 20
-70.466665144109569
 30
0.0
 11
-108.4469291244969
 21
-85.466667971993274
 31
0.0
  0
LINE
  5
1A47A
  8
SU
  6
CONTINUOUS
 62
     3
 10
-108.4469291244969
 20
-65.466665144109569
 30
0.0
 11
-108.4469291244969
 21
-70.466665144109569
 31
0.0
  0
TEXT
  5
1A47B
  8
SU
  6
CONTINUOUS
 62
     3
 10
-236.82460115057009
 20
-103.5099620634394
 30
0.0
 40
4.0
  1
 
 41
0.8299999999999999
  0
LINE
  5
1A47C
  8
SU
  6
CONTINUOUS
 62
     3
 10
101.62421578619031
 20
8.226723181608234
 30
0.0
 11
101.6242157861904
 21
38.726723943544222
 31
0.0
  0
LINE
  5
1A47D
  8
OS
  6
CONTINUOUS
 62
     2
 10
336.6242157840602
 20
-48.273269890282222
 30
0.0
 11
294.6242157840602
 21
-48.273269890282222
 31
0.0
  0
LINE
  5
1A47E
  8
OS
  6
CONTINUOUS
 62
     2
 10
338.62421578406031
 20
-50.273269890282222
 30
0.0
 11
292.62421578406031
 21
-50.273269890282222
 31
0.0
  0
LINE
  5
1A47F
  8
OS
  6
CONTINUOUS
 62
     2
 10
338.62421578406622
 20
-62.773269890282222
 30
0.0
 11
287.62421578406031
 21
-62.773269890282222
 31
0.0
  0
LINE
  5
1A480
  8
OS
  6
CONTINUOUS
 62
     2
 10
337.62421578406031
 20
-50.273269890282222
 30
0.0
 11
287.62421578406031
 21
-50.273269890282222
 31
0.0
  0
LINE
  5
1A481
  8
OS
  6
CONTINUOUS
 62
     2
 10
338.62421578406622
 20
-60.773269890282222
 30
0.0
 11
287.62421578406031
 21
-60.773269890282222
 31
0.0
  0
LINE
  5
1A482
  8
OS
  6
CONTINUOUS
 62
     2
 10
338.62421578406622
 20
-52.273269890282222
 30
0.0
 11
287.62421578406031
 21
-52.273269890282222
 31
0.0
  0
LINE
  5
1A483
  8
OS
  6
CONTINUOUS
 62
     2
 10
336.6242157840602
 20
12.72673010970777
 30
0.0
 11
294.6242157840602
 21
12.72673010970777
 31
0.0
  0
LINE
  5
1A484
  8
OS
  6
CONTINUOUS
 62
     2
 10
338.62421578406031
 20
14.72673010970777
 30
0.0
 11
292.62421578406031
 21
14.72673010970777
 31
0.0
  0
LINE
  5
1A485
  8
OS
  6
CONTINUOUS
 62
     2
 10
338.62421578406622
 20
27.22673010970777
 30
0.0
 11
287.62421578406031
 21
27.22673010970777
 31
0.0
  0
LINE
  5
1A486
  8
OS
  6
CONTINUOUS
 62
     2
 10
337.62421578406031
 20
14.72673010970777
 30
0.0
 11
287.62421578406031
 21
14.72673010970777
 31
0.0
  0
LINE
  5
1A487
  8
OS
  6
CONTINUOUS
 62
     2
 10
338.62421578406622
 20
25.22673010970777
 30
0.0
 11
287.62421578406031
 21
25.22673010970777
 31
0.0
  0
LINE
  5
1A488
  8
OS
  6
CONTINUOUS
 62
     2
 10
338.62421578406622
 20
16.726730109707749
 30
0.0
 11
287.62421578406031
 21
16.726730109707749
 31
0.0
  0
LINE
  5
1A489
  8
OS
  6
CONTINUOUS
 62
     2
 10
292.62421578406031
 20
14.72673010970777
 30
0.0
 11
292.62421578406031
 21
-50.273269890282222
 31
0.0
  0
LINE
  5
1A48A
  8
OS
  6
CONTINUOUS
 62
     2
 10
294.6242157840602
 20
12.72673010970777
 30
0.0
 11
294.6242157840602
 21
-48.273269890282222
 31
0.0
  0
LINE
  5
1A48B
  8
OS
  6
CONTINUOUS
 62
     2
 10
292.62421578406031
 20
14.72673010970777
 30
0.0
 11
287.62421578406031
 21
-50.273269890282222
 31
0.0
  0
LINE
  5
1A48C
  8
OS
  6
CONTINUOUS
 62
     2
 10
338.62421578406031
 20
14.72673010971277
 30
0.0
 11
338.62421578406031
 21
2.7267301097127752
 31
0.0
  0
LINE
  5
1A48D
  8
OS
  6
CONTINUOUS
 62
     2
 10
336.6242157840602
 20
12.72673010971277
 30
0.0
 11
336.6242157840602
 21
2.7267301097127752
 31
0.0
  0
LINE
  5
1A48E
  8
OS
  6
CONTINUOUS
 62
     2
 10
336.6242157840602
 20
-38.27326989028721
 30
0.0
 11
336.6242157840602
 21
-48.273269890287231
 31
0.0
  0
LINE
  5
1A48F
  8
OS
  6
CONTINUOUS
 62
     2
 10
338.62421578406031
 20
-38.27326989028721
 30
0.0
 11
338.62421578406031
 21
-50.273269890287217
 31
0.0
  0
LINE
  5
1A490
  8
OS
  6
CONTINUOUS
 62
     2
 10
338.62421578406031
 20
-38.27326989028721
 30
0.0
 11
336.6242157840602
 21
-38.27326989028721
 31
0.0
  0
LINE
  5
1A491
  8
OS
  6
CONTINUOUS
 62
     2
 10
338.62421578406031
 20
2.7267301097127752
 30
0.0
 11
336.6242157840602
 21
2.7267301097127752
 31
0.0
  0
LINE
  5
1A492
  8
OS
  6
CONTINUOUS
 62
     2
 10
32.624215786190391
 20
-50.273276056454392
 30
0.0
 11
37.624215786190391
 21
14.726723943545579
 31
0.0
  0
LINE
  5
1A493
  8
OS
  6
CONTINUOUS
 62
     2
 10
-13.375784213809601
 20
14.726723943545579
 30
0.0
 11
-13.375784213809601
 21
2.7267239435456072
 31
0.0
  0
LINE
  5
1A494
  8
OS
  6
CONTINUOUS
 62
     2
 10
-11.375784213809601
 20
12.72672394354559
 30
0.0
 11
-11.375784213809601
 21
2.7267239435456072
 31
0.0
  0
LINE
  5
1A495
  8
OS
  6
CONTINUOUS
 62
     2
 10
30.624215786190391
 20
12.72672394354559
 30
0.0
 11
30.624215786190391
 21
-48.273276056454392
 31
0.0
  0
LINE
  5
1A496
  8
OS
  6
CONTINUOUS
 62
     2
 10
32.624215786190391
 20
14.726723943545579
 30
0.0
 11
32.624215786190391
 21
-50.273276056454392
 31
0.0
  0
LINE
  5
1A497
  8
OS
  6
CONTINUOUS
 62
     2
 10
-13.375784213809601
 20
-52.273276056454392
 30
0.0
 11
37.624215786190391
 21
-52.273276056454392
 31
0.0
  0
LINE
  5
1A498
  8
OS
  6
CONTINUOUS
 62
     2
 10
-13.375784213809601
 20
-60.773276056454392
 30
0.0
 11
37.624215786190391
 21
-60.773276056454392
 31
0.0
  0
LINE
  5
1A499
  8
OS
  6
CONTINUOUS
 62
     2
 10
-13.375784213809601
 20
-62.773276056454392
 30
0.0
 11
37.624215786190391
 21
-62.773276056454392
 31
0.0
  0
LINE
  5
1A49A
  8
OS
  6
CONTINUOUS
 62
     2
 10
-13.375784213809601
 20
-50.273276056454392
 30
0.0
 11
37.624215786190391
 21
-50.273276056454392
 31
0.0
  0
LINE
  5
1A49B
  8
OS
  6
CONTINUOUS
 62
     2
 10
-11.375784213809601
 20
-48.273276056454392
 30
0.0
 11
30.624215786190391
 21
-48.273276056454392
 31
0.0
  0
LINE
  5
1A49C
  8
OS
  6
CONTINUOUS
 62
     2
 10
-13.375784213809601
 20
-50.273276056454392
 30
0.0
 11
32.624215786190391
 21
-50.273276056454392
 31
0.0
  0
LINE
  5
1A49D
  8
OS
  6
CONTINUOUS
 62
     2
 10
-13.375784213809601
 20
-38.273276056454392
 30
0.0
 11
-13.375784213809601
 21
-50.273276056454392
 31
0.0
  0
LINE
  5
1A49E
  8
OS
  6
CONTINUOUS
 62
     2
 10
-11.375784213809601
 20
-38.273276056454392
 30
0.0
 11
-11.375784213809601
 21
-48.273276056454392
 31
0.0
  0
LINE
  5
1A49F
  8
OS
  6
CONTINUOUS
 62
     2
 10
-13.375784213809601
 20
-38.273276056454392
 30
0.0
 11
-11.375784213809601
 21
-38.273276056454392
 31
0.0
  0
LINE
  5
1A4A0
  8
OS
  6
CONTINUOUS
 62
     2
 10
-13.375784213809601
 20
2.7267239435456072
 30
0.0
 11
-11.375784213809601
 21
2.7267239435456072
 31
0.0
  0
LINE
  5
1A4A1
  8
OS
  6
CONTINUOUS
 62
     2
 10
-13.375784213809601
 20
25.226723943545611
 30
0.0
 11
37.624215786190391
 21
25.226723943545611
 31
0.0
  0
LINE
  5
1A4A2
  8
OS
  6
CONTINUOUS
 62
     2
 10
-13.375784213809601
 20
16.726723943545601
 30
0.0
 11
37.624215786190391
 21
16.726723943545601
 31
0.0
  0
LINE
  5
1A4A3
  8
OS
  6
CONTINUOUS
 62
     2
 10
-13.375784213809601
 20
27.226723943545601
 30
0.0
 11
37.624215786190391
 21
27.226723943545601
 31
0.0
  0
LINE
  5
1A4A4
  8
OS
  6
CONTINUOUS
 62
     2
 10
-13.375784213809601
 20
14.726723943545579
 30
0.0
 11
37.624215786190391
 21
14.726723943545579
 31
0.0
  0
LINE
  5
1A4A5
  8
OS
  6
CONTINUOUS
 62
     2
 10
-11.375784213809601
 20
12.72672394354559
 30
0.0
 11
30.624215786190391
 21
12.72672394354559
 31
0.0
  0
LINE
  5
1A4A6
  8
OS
  6
CONTINUOUS
 62
     2
 10
-13.375784213809601
 20
14.726723943545579
 30
0.0
 11
32.624215786190391
 21
14.726723943545579
 31
0.0
  0
LINE
  5
1A4A7
  8
OS
  6
CONTINUOUS
 62
     2
 10
-167.4469291244983
 20
196.0294886984189
 30
0.0
 11
-167.4469291244983
 21
145.02948869841879
 31
0.0
  0
LINE
  5
1A4A8
  8
OS
  6
CONTINUOUS
 62
     2
 10
-154.9469291244983
 20
196.0294886984189
 30
0.0
 11
-154.9469291244983
 21
145.02948869841879
 31
0.0
  0
LINE
  5
1A4A9
  8
OS
  6
CONTINUOUS
 62
     2
 10
-165.44692912449801
 20
196.0294886984189
 30
0.0
 11
-165.44692912449801
 21
145.02948869841879
 31
0.0
  0
LINE
  5
1A4AA
  8
OS
  6
CONTINUOUS
 62
     2
 10
-156.9469291244983
 20
196.0294886984189
 30
0.0
 11
-156.9469291244983
 21
145.02948869841879
 31
0.0
  0
LINE
  5
1A4AB
  8
OS
  6
CONTINUOUS
 62
     2
 10
-167.4469291244983
 20
196.0294886984189
 30
0.0
 11
-167.4469291244983
 21
150.0294886984189
 31
0.0
  0
LINE
  5
1A4AC
  8
OS
  6
CONTINUOUS
 62
     2
 10
-169.4469291244983
 20
194.0294886984189
 30
0.0
 11
-169.4469291244983
 21
152.0294886984189
 31
0.0
  0
LINE
  5
1A4AD
  8
OS
  6
CONTINUOUS
 62
     2
 10
-232.4469291244983
 20
196.0294886984189
 30
0.0
 11
-232.4469291244983
 21
145.02948869841879
 31
0.0
  0
LINE
  5
1A4AE
  8
OS
  6
CONTINUOUS
 62
     2
 10
-244.9469291244983
 20
196.0294886984189
 30
0.0
 11
-244.9469291244983
 21
145.02948869841879
 31
0.0
  0
LINE
  5
1A4AF
  8
OS
  6
CONTINUOUS
 62
     2
 10
-242.9469291244983
 20
196.0294886984189
 30
0.0
 11
-242.9469291244983
 21
145.02948869841879
 31
0.0
  0
LINE
  5
1A4B0
  8
OS
  6
CONTINUOUS
 62
     2
 10
-234.4469291244983
 20
196.0294886984189
 30
0.0
 11
-234.4469291244983
 21
145.02948869841879
 31
0.0
  0
LINE
  5
1A4B1
  8
OS
  6
CONTINUOUS
 62
     2
 10
-232.4469291244983
 20
196.0294886984189
 30
0.0
 11
-232.4469291244983
 21
150.0294886984189
 31
0.0
  0
LINE
  5
1A4B2
  8
OS
  6
CONTINUOUS
 62
     2
 10
-230.4469291244983
 20
194.0294886984189
 30
0.0
 11
-230.4469291244983
 21
152.0294886984189
 31
0.0
  0
LINE
  5
1A4B3
  8
OS
  6
CONTINUOUS
 62
     2
 10
-167.4469291244983
 20
150.0294886984189
 30
0.0
 11
-232.4469291244983
 21
150.0294886984189
 31
0.0
  0
LINE
  5
1A4B4
  8
OS
  6
CONTINUOUS
 62
     2
 10
-169.4469291244983
 20
152.0294886984189
 30
0.0
 11
-230.4469291244983
 21
152.0294886984189
 31
0.0
  0
LINE
  5
1A4B5
  8
OS
  6
CONTINUOUS
 62
     2
 10
-232.4469291244983
 20
150.0294886984189
 30
0.0
 11
-167.4469291244983
 21
145.02948869841879
 31
0.0
  0
LINE
  5
1A4B6
  8
OS
  6
CONTINUOUS
 62
     2
 10
-220.4469291244983
 20
196.0294886984189
 30
0.0
 11
-232.4469291244983
 21
196.0294886984189
 31
0.0
  0
LINE
  5
1A4B7
  8
OS
  6
CONTINUOUS
 62
     2
 10
-220.4469291244983
 20
194.0294886984189
 30
0.0
 11
-230.4469291244983
 21
194.0294886984189
 31
0.0
  0
LINE
  5
1A4B8
  8
OS
  6
CONTINUOUS
 62
     2
 10
-220.4469291244983
 20
196.0294886984189
 30
0.0
 11
-220.4469291244983
 21
194.0294886984189
 31
0.0
  0
LINE
  5
1A4B9
  8
OS
  6
CONTINUOUS
 62
     2
 10
-167.4469291244983
 20
196.0294886984189
 30
0.0
 11
-179.4469291244983
 21
196.0294886984189
 31
0.0
  0
LINE
  5
1A4BA
  8
OS
  6
CONTINUOUS
 62
     2
 10
-169.4469291244983
 20
194.0294886984189
 30
0.0
 11
-179.4469291244983
 21
194.0294886984189
 31
0.0
  0
LINE
  5
1A4BB
  8
OS
  6
CONTINUOUS
 62
     2
 10
-179.4469291244983
 20
196.0294886984189
 30
0.0
 11
-179.4469291244983
 21
194.0294886984189
 31
0.0
  0
LINE
  5
1A4BC
  8
KI
  6
CONTINUOUS
 62
     7
 10
59.124215786190391
 20
38.726723943544243
 30
0.0
 11
37.624215786190391
 21
38.726723943544243
 31
0.0
  0
LINE
  5
1A4BD
  8
KI
  6
CONTINUOUS
 62
     7
 10
59.124215786190391
 20
38.726723943544243
 30
0.0
 11
61.624215786190391
 21
36.226723943544243
 31
0.0
1001
GENIUS_GENFIL_13
1070
     0
1040
2.5
1040
2.5
1040
20.0
1040
0.0
1002
{
1002
}
1001
GENIUS_GENOBJ-N-CHA_13
1002
{
1000
OWNER
1000
GEN
1002
}
1001
GENIUS_GENODEF_13
1002
{
1000
HIER
1070
     0
1002
}
1002
{
1000
MANEDIT
1070
     0
1002
}
1002
{
1000
NOSEL
1070
     0
1002
}
1002
{
1000
BEHIND
1070
     0
1002
}
1002
{
1000
OTHER
1070
     0
1002
}
1002
{
1000
REACTOR
1002
}
  0
LINE
  5
1A4BE
  8
KI
  6
CONTINUOUS
 62
     7
 10
37.624215786190391
 20
38.726723943545608
 30
0.0
 11
37.624215786190391
 21
-74.273276056455742
 31
0.0
  0
LINE
  5
1A4BF
  8
KI
  6
CONTINUOUS
 62
     7
 10
37.624215786190391
 20
-74.273276056455742
 30
0.0
 11
59.124215786190391
 21
-74.273276056455742
 31
0.0
  0
LINE
  5
1A4C0
  8
KI
  6
CONTINUOUS
 62
     7
 10
59.124215786190391
 20
-74.273276056455742
 30
0.0
 11
61.624215786190391
 21
-71.773276056455771
 31
0.0
1001
GENIUS_GENFIL_13
1070
     0
1040
2.5
1040
2.5
1040
20.0
1040
0.0
1002
{
1002
}
1001
GENIUS_GENOBJ-N-CHA_13
1002
{
1000
OWNER
1000
GEN
1002
}
1001
GENIUS_GENODEF_13
1002
{
1000
HIER
1070
     0
1002
}
1002
{
1000
MANEDIT
1070
     0
1002
}
1002
{
1000
NOSEL
1070
     0
1002
}
1002
{
1000
BEHIND
1070
     0
1002
}
1002
{
1000
OTHER
1070
     0
1002
}
1002
{
1000
REACTOR
1002
}
  0
LINE
  5
1A4C1
  8
OS
  6
CONTINUOUS
 62
     2
 10
37.624215786190319
 20
36.688243639166409
 30
0.0
 11
39.66269609056819
 21
38.726723943544243
 31
0.0
  0
LINE
  5
1A4C2
  8
OS
  6
CONTINUOUS
 62
     2
 10
37.624215786190319
 20
26.788748702554781
 30
0.0
 11
49.562191027179821
 21
38.7267239435443
 31
0.0
  0
LINE
  5
1A4C3
  8
OS
  6
CONTINUOUS
 62
     2
 10
37.624215786190319
 20
16.889253765943121
 30
0.0
 11
59.292950874990858
 21
38.557988854743648
 31
0.0
  0
LINE
  5
1A4C4
  8
OS
  6
CONTINUOUS
 62
     2
 10
37.624215786190391
 20
6.9897588293314641
 30
0.0
 11
61.624215786190391
 21
30.989758829331429
 31
0.0
  0
LINE
  5
1A4C5
  8
OS
  6
CONTINUOUS
 62
     2
 10
37.624215786190319
 20
-2.9097361072802239
 30
0.0
 11
61.624215786190312
 21
21.090263892719801
 31
0.0
  0
LINE
  5
1A4C6
  8
OS
  6
CONTINUOUS
 62
     2
 10
37.624215786190319
 20
-12.809231043891931
 30
0.0
 11
61.624215786190312
 21
11.19076895610805
 31
0.0
  0
LINE
  5
1A4C7
  8
OS
  6
CONTINUOUS
 62
     2
 10
37.624215786190391
 20
-22.708725980503541
 30
0.0
 11
56.62422650858268
 21
-3.7087152581112148
 31
0.0
  0
LINE
  5
1A4C8
  8
OS
  6
CONTINUOUS
 62
     2
 10
37.624215786190391
 20
-32.608220917115169
 30
0.0
 11
58.459161122112647
 21
-11.77327558119293
 31
0.0
  0
LINE
  5
1A4C9
  8
OS
  6
CONTINUOUS
 62
     2
 10
37.624215786190391
 20
-42.507715853726808
 30
0.0
 11
61.624215786190391
 21
-18.507715853726801
 31
0.0
  0
LINE
  5
1A4CA
  8
OS
  6
CONTINUOUS
 62
     2
 10
37.624215786190319
 20
-52.407210790338532
 30
0.0
 11
61.624215786190312
 21
-28.407210790338571
 31
0.0
  0
LINE
  5
1A4CB
  8
OS
  6
CONTINUOUS
 62
     2
 10
37.624215786190391
 20
-62.306705726950177
 30
0.0
 11
61.624215786190391
 21
-38.30670572695017
 31
0.0
  0
LINE
  5
1A4CC
  8
OS
  6
CONTINUOUS
 62
     2
 10
37.624215786190391
 20
-72.206200663561845
 30
0.0
 11
61.624215786190391
 21
-48.206200663561837
 31
0.0
  0
LINE
  5
1A4CD
  8
OS
  6
CONTINUOUS
 62
     2
 10
45.456635329908167
 20
-74.273276056455714
 30
0.0
 11
61.624215786190312
 21
-58.105695600173533
 31
0.0
  0
LINE
  5
1A4CE
  8
OS
  6
CONTINUOUS
 62
     2
 10
55.356130266519862
 20
-74.273276056455742
 30
0.0
 11
61.624215786190312
 21
-68.00519053678525
 31
0.0
  0
LINE
  5
1A4CF
  8
KI
  6
CONTINUOUS
 62
     7
 10
61.624215786190391
 20
4.2267244188070654
 30
0.0
 11
61.624215786190391
 21
36.226723943544243
 31
0.0
  0
LINE
  5
1A4D0
  8
KI
  6
CONTINUOUS
 62
     7
 10
61.624215786190391
 20
-71.773276056455771
 30
0.0
 11
61.624215786190391
 21
-11.77327558119293
 31
0.0
  0
LINE
  5
1A4D1
  8
KI
  6
CONTINUOUS
 62
     7
 10
61.624215786190391
 20
4.2267244188070654
 30
0.0
 11
56.62422650858268
 21
4.2267244188070654
 31
0.0
  0
LINE
  5
1A4D2
  8
KI
  6
CONTINUOUS
 62
     7
 10
56.62422650858268
 20
-11.77327558119293
 30
0.0
 11
56.62422650858268
 21
4.2267244188070654
 31
0.0
  0
LINE
  5
1A4D3
  8
KI
  6
CONTINUOUS
 62
     7
 10
61.624215786190391
 20
-11.77327558119293
 30
0.0
 11
56.62422650858268
 21
-11.77327558119293
 31
0.0
  0
LINE
  5
1A4D4
  8
KI
  6
CONTINUOUS
 62
     7
 10
-221.94692959581209
 20
121.029488698419
 30
0.0
 11
-250.9469291244983
 21
121.029488698419
 31
0.0
  0
LINE
  5
1A4D5
  8
KI
  6
CONTINUOUS
 62
     7
 10
-253.44692912449969
 20
145.02948869841879
 30
0.0
 11
-146.4469291244983
 21
145.02948869841879
 31
0.0
  0
LINE
  5
1A4D6
  8
KI
  6
CONTINUOUS
 62
     7
 10
-253.4469291244983
 20
123.5294886984189
 30
0.0
 11
-250.9469291244983
 21
121.029488698419
 31
0.0
1001
GENIUS_GENFIL_13
1070
     0
1040
2.5
1040
2.5
1040
20.0
1040
0.0
1002
{
1002
}
1001
GENIUS_GENOBJ-N-CHA_13
1002
{
1000
OWNER
1000
GEN
1002
}
1001
GENIUS_GENODEF_13
1002
{
1000
HIER
1070
     0
1002
}
1002
{
1000
MANEDIT
1070
     0
1002
}
1002
{
1000
NOSEL
1070
     0
1002
}
1002
{
1000
BEHIND
1070
     0
1002
}
1002
{
1000
OTHER
1070
     0
1002
}
1002
{
1000
REACTOR
1002
}
  0
LINE
  5
1A4D7
  8
KI
  6
CONTINUOUS
 62
     7
 10
-253.4469291244983
 20
123.5294886984189
 30
0.0
 11
-253.4469291244983
 21
145.02948869841879
 31
0.0
  0
LINE
  5
1A4D8
  8
KI
  6
CONTINUOUS
 62
     7
 10
-148.94692912449801
 20
121.029488698419
 30
0.0
 11
-205.94692959581261
 21
121.029488698419
 31
0.0
  0
LINE
  5
1A4D9
  8
KI
  6
CONTINUOUS
 62
     7
 10
-146.4469291244983
 20
123.5294886984189
 30
0.0
 11
-148.94692912449801
 21
121.029488698419
 31
0.0
1001
GENIUS_GENFIL_13
1070
     0
1040
2.5
1040
2.5
1040
20.0
1040
0.0
1002
{
1002
}
1001
GENIUS_GENOBJ-N-CHA_13
1002
{
1000
OWNER
1000
GEN
1002
}
1001
GENIUS_GENODEF_13
1002
{
1000
HIER
1070
     0
1002
}
1002
{
1000
MANEDIT
1070
     0
1002
}
1002
{
1000
NOSEL
1070
     0
1002
}
1002
{
1000
BEHIND
1070
     0
1002
}
1002
{
1000
OTHER
1070
     0
1002
}
1002
{
1000
REACTOR
1002
}
  0
LINE
  5
1A4DA
  8
KI
  6
CONTINUOUS
 62
     7
 10
-146.4469291244983
 20
145.02948869841879
 30
0.0
 11
-146.4469291244983
 21
123.5294886984189
 31
0.0
  0
LINE
  5
1A4DB
  8
OS
  6
CONTINUOUS
 62
     2
 10
-253.4469291244983
 20
140.8042382019845
 30
0.0
 11
-249.2216786280639
 21
145.02948869841879
 31
0.0
  0
LINE
  5
1A4DC
  8
OS
  6
CONTINUOUS
 62
     2
 10
-253.4469291244983
 20
130.9047432653729
 30
0.0
 11
-239.3221836914523
 21
145.02948869841879
 31
0.0
  0
LINE
  5
1A4DD
  8
OS
  6
CONTINUOUS
 62
     2
 10
-252.18480893966941
 20
122.2673685135899
 30
0.0
 11
-229.42268875484029
 21
145.02948869841879
 31
0.0
  0
LINE
  5
1A4DE
  8
OS
  6
CONTINUOUS
 62
     2
 10
-243.5231938182288
 20
121.029488698419
 30
0.0
 11
-219.5231938182288
 21
145.02948869841879
 31
0.0
  0
LINE
  5
1A4DF
  8
OS
  6
CONTINUOUS
 62
     2
 10
-233.6236988816172
 20
121.029488698419
 30
0.0
 11
-209.6236988816172
 21
145.02948869841879
 31
0.0
  0
LINE
  5
1A4E0
  8
OS
  6
CONTINUOUS
 62
     2
 10
-223.72420394500551
 20
121.029488698419
 30
0.0
 11
-221.94692959581209
 21
122.80676304761231
 31
0.0
  0
LINE
  5
1A4E1
  8
OS
  6
CONTINUOUS
 62
     2
 10
-208.8247522514485
 20
126.0294454553643
 30
0.0
 11
-189.8247090083938
 21
145.02948869841879
 31
0.0
  0
LINE
  5
1A4E2
  8
OS
  6
CONTINUOUS
 62
     2
 10
-203.92521407178211
 20
121.029488698419
 30
0.0
 11
-179.92521407178211
 21
145.02948869841879
 31
0.0
  0
LINE
  5
1A4E3
  8
OS
  6
CONTINUOUS
 62
     2
 10
-184.1262241985589
 20
121.029488698419
 30
0.0
 11
-160.1262241985589
 21
145.02948869841879
 31
0.0
  0
LINE
  5
1A4E4
  8
OS
  6
CONTINUOUS
 62
     2
 10
-174.2267292619471
 20
121.029488698419
 30
0.0
 11
-150.2267292619471
 21
145.02948869841879
 31
0.0
  0
LINE
  5
1A4E5
  8
OS
  6
CONTINUOUS
 62
     2
 10
-164.32723432533541
 20
121.029488698419
 30
0.0
 11
-146.4469291244983
 21
138.9097938992563
 31
0.0
  0
LINE
  5
1A4E6
  8
OS
  6
CONTINUOUS
 62
     2
 10
-154.42773938872381
 20
121.029488698419
 30
0.0
 11
-146.4469291244983
 21
129.0102989626445
 31
0.0
  0
LINE
  5
1A4E7
  8
OS
  6
CONTINUOUS
 62
     2
 10
-194.0257191351705
 20
121.029488698419
 30
0.0
 11
-170.0257191351705
 21
145.02948869841879
 31
0.0
  0
LINE
  5
1A4E8
  8
KI
  6
CONTINUOUS
 62
     7
 10
-205.94692959581261
 20
121.0294561777566
 30
0.0
 11
-205.94692959581261
 21
126.0294454553643
 31
0.0
  0
LINE
  5
1A4E9
  8
KI
  6
CONTINUOUS
 62
     7
 10
-205.94692959581261
 20
126.0294454553643
 30
0.0
 11
-221.94692959581209
 21
126.0294454553643
 31
0.0
  0
LINE
  5
1A4EA
  8
KI
  6
CONTINUOUS
 62
     7
 10
-221.94692959581209
 20
121.0294561777566
 30
0.0
 11
-221.94692959581209
 21
126.0294454553643
 31
0.0
  0
LINE
  5
1A4EB
  8
OS
  6
CONTINUOUS
 62
     2
 10
-218.7242471880601
 20
126.0294454553643
 30
0.0
 11
-199.72420394500551
 21
145.02948869841879
 31
0.0
  0
LINE
  5
1A4EC
  8
SU
  6
CONTINUOUS
 62
     3
 10
61.624215801777062
 20
-132.77327605644061
 30
0.0
 11
37.624215786190149
 21
-132.77327605644061
 31
0.0
  0
LINE
  5
1A4ED
  8
SU
  6
CONTINUOUS
 62
     3
 10
61.624215786190213
 20
-75.273276056455202
 30
0.0
 11
61.624215786190213
 21
-135.77327605644061
 31
0.0
  0
LINE
  5
1A4EE
  8
SU
  6
CONTINUOUS
 62
     3
 10
65.624215801777083
 20
-132.77327605644061
 30
0.0
 11
61.624215786190213
 21
-132.77327605644061
 31
0.0
  0
LINE
  5
1A4EF
  8
SU
  6
CONTINUOUS
 62
     3
 10
63.624215793983652
 20
-132.77327605644061
 30
0.0
 11
68.3242158017771
 21
-117.77327605644091
 31
0.0
  0
LINE
  5
1A4F0
  8
SU
  6
CONTINUOUS
 62
     3
 10
68.3242158017771
 20
-117.77327605644091
 30
0.0
 11
73.295644373205619
 21
-117.77327605644091
 31
0.0
  0
LINE
  5
1A4F1
  8
SU
  6
CONTINUOUS
 62
     3
 10
259.62421577060348
 20
-67.773276056440977
 30
0.0
 11
259.62421577060348
 21
-135.77327605644061
 31
0.0
  0
LINE
  5
1A4F2
  8
SU
  6
CONTINUOUS
 62
     3
 10
65.624215801777311
 20
-67.773276056440977
 30
0.0
 11
65.624215801777311
 21
-135.77327605644061
 31
0.0
  0
LINE
  5
1A4F3
  8
SU
  6
CONTINUOUS
 62
     3
 10
259.62421577060348
 20
-132.77327605644061
 30
0.0
 11
65.624215801777311
 21
-132.77327605644061
 31
0.0
  0
LINE
  5
1A4F4
  8
SU
  6
CONTINUOUS
 62
     3
 10
263.62421578619012
 20
39.726730109711411
 30
0.0
 11
263.62421578619012
 21
61.726730109711411
 31
0.0
  0
LINE
  5
1A4F5
  8
SU
  6
CONTINUOUS
 62
     3
 10
287.62421578406031
 20
39.726736275878572
 30
0.0
 11
287.62421578406031
 21
61.726730109711411
 31
0.0
  0
LINE
  5
1A4F6
  8
SU
  6
CONTINUOUS
 62
     3
 10
263.62421578619012
 20
58.726730109711411
 30
0.0
 11
287.62421578406031
 21
58.726730109711411
 31
0.0
  0
LINE
  5
1A4F7
  8
SU
  6
CONTINUOUS
 62
     3
 10
243.62421578619009
 20
9.2267231816082376
 30
0.0
 11
243.62421578619009
 21
61.726730109711518
 31
0.0
  0
LINE
  5
1A4F8
  8
SU
  6
CONTINUOUS
 62
     3
 10
263.62421578619012
 20
58.726730109711518
 30
0.0
 11
243.62421578619009
 21
58.726730109711518
 31
0.0
  0
LINE
  5
1A4F9
  8
SU
  6
CONTINUOUS
 62
     3
 10
82.624215786190405
 20
-15.773274343993631
 30
0.0
 11
104.6242157861904
 21
-15.773274343993631
 31
0.0
  0
LINE
  5
1A4FA
  8
SU
  6
CONTINUOUS
 62
     3
 10
82.624215786190405
 20
8.2267231816082411
 30
0.0
 11
104.6242157861904
 21
8.226723181608234
 31
0.0
  0
LINE
  5
1A4FB
  8
SU
  6
CONTINUOUS
 62
     3
 10
101.6242157861904
 20
-15.773274343993631
 30
0.0
 11
101.6242157861904
 21
8.226723181608234
 31
0.0
  0
LINE
  5
1A4FC
  8
SU
  6
CONTINUOUS
 62
     3
 10
101.6242157861904
 20
-26.773274343993641
 30
0.0
 11
101.6242157861904
 21
-66.773276056439613
 31
0.0
  0
LINE
  5
1A4FD
  8
SU
  6
CONTINUOUS
 62
     3
 10
101.6242157861904
 20
-26.773274343993641
 30
0.0
 11
101.6242157861904
 21
-15.773274343993631
 31
0.0
  0
LINE
  5
1A4FE
  8
SU
  6
CONTINUOUS
 62
     3
 10
62.624215786190362
 20
38.726723943544243
 30
0.0
 11
118.62421823471919
 21
38.726723943544222
 31
0.0
  0
LINE
  5
1A4FF
  8
SU
  6
CONTINUOUS
 62
     3
 10
62.624215786190263
 20
-74.273276056455742
 30
0.0
 11
118.62421823471919
 21
-74.273276056455785
 31
0.0
  0
LINE
  5
1A500
  8
SU
  6
CONTINUOUS
 62
     3
 10
115.62421823471919
 20
38.726723943544222
 30
0.0
 11
115.62421823471919
 21
-74.273276056455785
 31
0.0
  0
LINE
  5
1A501
  8
SU
  6
CONTINUOUS
 62
     3
 10
101.6242157861904
 20
-66.773276056439613
 30
0.0
 11
101.6242157861904
 21
-74.273276056455785
 31
0.0
  0
LINE
  5
1A502
  8
SU
  6
CONTINUOUS
 62
     3
 10
101.6242157861904
 20
-74.273276056455785
 30
0.0
 11
101.6242157861904
 21
-86.229466532646271
 31
0.0
  0
LINE
  5
1A503
  8
SU
  6
CONTINUOUS
 62
     3
 10
81.624215786190405
 20
9.2267231816082393
 30
0.0
 11
81.624215786190405
 21
61.726730109711411
 31
0.0
  0
LINE
  5
1A504
  8
SU
  6
CONTINUOUS
 62
     3
 10
61.624215786190391
 20
58.726730109711411
 30
0.0
 11
81.624215786190405
 21
58.726730109711411
 31
0.0
  0
LINE
  5
1A505
  8
SU
  6
CONTINUOUS
 62
     3
 10
61.624215786190391
 20
39.726730109711411
 30
0.0
 11
61.624215786190391
 21
61.726730109711298
 31
0.0
  0
LINE
  5
1A506
  8
SU
  6
CONTINUOUS
 62
     3
 10
37.624215786190291
 20
39.726730109711411
 30
0.0
 11
37.624215786190291
 21
61.726730109711298
 31
0.0
  0
LINE
  5
1A507
  8
SU
  6
CONTINUOUS
 62
     3
 10
61.624215786190391
 20
58.726730109711298
 30
0.0
 11
37.624215786190291
 21
58.726730109711298
 31
0.0
  0
LINE
  5
1A508
  8
SU
  6
CONTINUOUS
 62
     3
 10
263.62421578619012
 20
-75.273276056455202
 30
0.0
 11
263.62421578619012
 21
-135.77327605644061
 31
0.0
  0
LINE
  5
1A509
  8
SU
  6
CONTINUOUS
 62
     3
 10
259.62421577060348
 20
-132.77327605644061
 30
0.0
 11
263.62421578619012
 21
-132.77327605644061
 31
0.0
  0
LINE
  5
1A50A
  8
SU
  6
CONTINUOUS
 62
     3
 10
261.62421577839672
 20
-132.77327605644061
 30
0.0
 11
256.92421577060338
 21
-117.77327605644091
 31
0.0
  0
LINE
  5
1A50B
  8
SU
  6
CONTINUOUS
 62
     3
 10
256.92421577060338
 20
-117.77327605644091
 30
0.0
 11
251.95278719917471
 21
-117.77327605644091
 31
0.0
  0
LINE
  5
1A50C
  8
SU
  6
CONTINUOUS
 62
     3
 10
263.62421577060348
 20
-132.77327605644061
 30
0.0
 11
287.62421578619012
 21
-132.77327605644061
 31
0.0
  0
LINE
  5
1A50D
  8
SU
  6
CONTINUOUS
 62
     3
 10
277.62421578619012
 20
-153.77327605644061
 30
0.0
 11
287.62421578619001
 21
-147.77327605644081
 31
0.0
  0
LINE
  5
1A50E
  8
SU
  6
CONTINUOUS
 62
     3
 10
277.62421578619012
 20
-141.77327605644081
 30
0.0
 11
287.62421578619001
 21
-147.77327605644081
 31
0.0
  0
LINE
  5
1A50F
  8
SU
  6
CONTINUOUS
 62
     3
 10
277.62421578619012
 20
-153.77327605644061
 30
0.0
 11
277.62421578619012
 21
-141.77327605644081
 31
0.0
  0
LINE
  5
1A510
  8
SU
  6
CONTINUOUS
 62
     3
 10
47.624215786190213
 20
-153.77327605644061
 30
0.0
 11
37.62421578619022
 21
-147.77327605644081
 31
0.0
  0
LINE
  5
1A511
  8
SU
  6
CONTINUOUS
 62
     3
 10
47.624215786190213
 20
-141.77327605644081
 30
0.0
 11
37.62421578619022
 21
-147.77327605644081
 31
0.0
  0
LINE
  5
1A512
  8
SU
  6
CONTINUOUS
 62
     3
 10
47.624215786190213
 20
-153.77327605644061
 30
0.0
 11
47.624215786190213
 21
-141.77327605644081
 31
0.0
  0
LINE
  5
1A513
  8
SU
  6
CONTINUOUS
 62
     3
 10
37.624215786190241
 20
-75.273276056455742
 30
0.0
 11
37.624215786190241
 21
-150.77327605644081
 31
0.0
  0
LINE
  5
1A514
  8
SU
  6
CONTINUOUS
 62
     3
 10
287.62421578619001
 20
-75.273276056455742
 30
0.0
 11
287.62421578619001
 21
-150.77327605644081
 31
0.0
  0
LINE
  5
1A515
  8
SU
  6
CONTINUOUS
 62
     3
 10
37.624215786190241
 20
-147.77327605644081
 30
0.0
 11
287.62421578619001
 21
-147.77327605644081
 31
0.0
  0
LINE
  5
1A516
  8
SU
  6
CONTINUOUS
 62
     3
 10
-48.375786662338662
 20
27.226723943545601
 30
0.0
 11
-48.375786662338712
 21
-62.773276056454392
 31
0.0
  0
LINE
  5
1A517
  8
SU
  6
CONTINUOUS
 62
     3
 10
-14.375784213809601
 20
-50.273276056454392
 30
0.0
 11
-36.375786662338712
 21
-50.273276056454392
 31
0.0
  0
LINE
  5
1A518
  8
SU
  6
CONTINUOUS
 62
     3
 10
-14.375784213809149
 20
14.726723943545579
 30
0.0
 11
-36.375786662338683
 21
14.726723943545579
 31
0.0
  0
LINE
  5
1A519
  8
SU
  6
CONTINUOUS
 62
     3
 10
-33.375786662338712
 20
-50.273276056454392
 30
0.0
 11
-33.375786662338697
 21
14.726723943545579
 31
0.0
  0
LINE
  5
1A51A
  8
SU
  6
CONTINUOUS
 62
     3
 10
-33.375786662338712
 20
14.726723943545579
 30
0.0
 11
-33.375786662338697
 21
27.226723943545601
 31
0.0
  0
LINE
  5
1A51B
  8
SU
  6
CONTINUOUS
 62
     3
 10
-33.375786662338697
 20
27.226723943545601
 30
0.0
 11
-33.375786662338697
 21
50.753972042523571
 31
0.0
  0
LINE
  5
1A51C
  8
SU
  6
CONTINUOUS
 62
     3
 10
-14.375784213809601
 20
27.226723943545601
 30
0.0
 11
-51.375786662338712
 21
27.226723943545601
 31
0.0
  0
LINE
  5
1A51D
  8
SU
  6
CONTINUOUS
 62
     3
 10
36.624215786190391
 20
38.726723943545608
 30
0.0
 11
-51.375786662338712
 21
38.726723943545608
 31
0.0
  0
LINE
  5
1A51E
  8
SU
  6
CONTINUOUS
 62
     3
 10
-48.375786662338697
 20
27.226723943545601
 30
0.0
 11
-48.375786662338697
 21
38.726723943545608
 31
0.0
  0
LINE
  5
1A51F
  8
SU
  6
CONTINUOUS
 62
     3
 10
-48.375786662338697
 20
38.726723943545608
 30
0.0
 11
-48.375786662338697
 21
53.370533467355152
 31
0.0
  0
LINE
  5
1A520
  8
SU
  6
CONTINUOUS
 62
     3
 10
-14.375784213809601
 20
-62.773276056454392
 30
0.0
 11
-51.375786662338712
 21
-62.773276056454392
 31
0.0
  0
LINE
  5
1A521
  8
SU
  6
CONTINUOUS
 62
     3
 10
36.624215786190241
 20
-74.273276056455742
 30
0.0
 11
-51.375786662338712
 21
-74.273276056455742
 31
0.0
  0
LINE
  5
1A522
  8
SU
  6
CONTINUOUS
 62
     3
 10
-48.375786662338712
 20
-62.773276056454392
 30
0.0
 11
-48.375786662338712
 21
-74.273276056455742
 31
0.0
  0
LINE
  5
1A523
  8
SU
  6
CONTINUOUS
 62
     3
 10
-48.375786662338712
 20
-74.273276056455742
 30
0.0
 11
-48.375786662338712
 21
-88.917085580265265
 31
0.0
  0
LINE
  5
1A524
  8
SU
  6
CONTINUOUS
 62
     3
 10
-33.375786662338712
 20
-50.273276056454392
 30
0.0
 11
-33.375786662338719
 21
-62.773276056454392
 31
0.0
  0
LINE
  5
1A525
  8
SU
  6
CONTINUOUS
 62
     3
 10
-33.375786662338719
 20
-62.773276056454392
 30
0.0
 11
-33.375786662338719
 21
-86.004760746113689
 31
0.0
  0
LINE
  5
1A526
  8
SU
  6
CONTINUOUS
 62
     3
 10
-149.9469291244983
 20
118.029488698419
 30
0.0
 11
-105.446929124497
 21
118.029488698419
 31
0.0
  0
LINE
  5
1A527
  8
SU
  6
CONTINUOUS
 62
     3
 10
-108.4469291244969
 20
118.029488698419
 30
0.0
 11
-108.4469291244969
 21
121.029488698419
 31
0.0
  0
LINE
  5
1A528
  8
SU
  6
CONTINUOUS
 62
     3
 10
-108.4469291244969
 20
119.5294886984189
 30
0.0
 11
-123.4469291244981
 21
128.0986607836702
 31
0.0
  0
LINE
  5
1A529
  8
SU
  6
CONTINUOUS
 62
     3
 10
-123.4469291244981
 20
128.0986607836702
 30
0.0
 11
-123.4469291244981
 21
132.91199411700339
 31
0.0
  0
LINE
  5
1A52A
  8
SU
  6
CONTINUOUS
 62
     3
 10
-99.446929124498382
 20
-75.46666797199326
 30
0.0
 11
-93.446929124498354
 21
-85.466667971993274
 31
0.0
  0
LINE
  5
1A52B
  8
SU
  6
CONTINUOUS
 62
     3
 10
-87.446929124498297
 20
-75.46666797199326
 30
0.0
 11
-93.446929124498354
 21
-85.466667971993274
 31
0.0
  0
LINE
  5
1A52C
  8
SU
  6
CONTINUOUS
 62
     3
 10
-99.446929124498382
 20
-75.46666797199326
 30
0.0
 11
-87.446929124498297
 21
-75.46666797199326
 31
0.0
  0
LINE
  5
1A52D
  8
SU
  6
CONTINUOUS
 62
     3
 10
-242.84579887018711
 20
-61.444425359586859
 30
0.0
 11
-244.14584058491829
 21
-59.403768630322581
 31
0.0
  0
LINE
  5
1A52E
  8
SU
  6
CONTINUOUS
 62
     3
 10
-242.84579887018711
 20
-61.444425359586859
 30
0.0
 11
-244.63019313111249
 21
-59.809329271563378
 31
0.0
  0
LINE
  5
1A52F
  8
SU
  6
CONTINUOUS
 62
     3
 10
-143.44692913362559
 20
-86.466667972007372
 30
0.0
 11
-143.44692913362559
 21
-108.46666797200071
 31
0.0
  0
LINE
  5
1A530
  8
SU
  6
CONTINUOUS
 62
     3
 10
-143.44692913362559
 20
-105.46666797200071
 30
0.0
 11
-132.51835770505431
 21
-105.46666797200071
 31
0.0
  0
LINE
  5
1A531
  8
SU
  6
CONTINUOUS
 62
     3
 10
-146.44692924712871
 20
-105.46666797200071
 30
0.0
 11
-143.44692913362559
 21
-105.46666797200071
 31
0.0
  0
LINE
  5
1A532
  8
SU
  6
CONTINUOUS
 62
     3
 10
-167.4469291244983
 20
216.02948871417149
 30
0.0
 11
-154.9469291244983
 21
216.02948871417149
 31
0.0
  0
LINE
  5
1A533
  8
SU
  6
CONTINUOUS
 62
     3
 10
-154.9469291244983
 20
216.02948871417149
 30
0.0
 11
-131.71544443483981
 21
216.02948871417149
 31
0.0
  0
LINE
  5
1A534
  8
SU
  6
CONTINUOUS
 62
     3
 10
-154.9469291244983
 20
197.0294886984189
 30
0.0
 11
-154.9469291244983
 21
234.02948871417129
 31
0.0
  0
LINE
  5
1A535
  8
SU
  6
CONTINUOUS
 62
     3
 10
-143.4469291244981
 20
146.02948869841879
 30
0.0
 11
-143.4469291244981
 21
234.02948871417129
 31
0.0
  0
LINE
  5
1A536
  8
SU
  6
CONTINUOUS
 62
     3
 10
-154.9469291244983
 20
231.02948871417149
 30
0.0
 11
-143.4469291244981
 21
231.02948871417149
 31
0.0
  0
LINE
  5
1A537
  8
SU
  6
CONTINUOUS
 62
     3
 10
-143.4469291244981
 20
231.02948871417149
 30
0.0
 11
-128.8031196006884
 21
231.02948871417149
 31
0.0
  0
LINE
  5
1A538
  8
SU
  6
CONTINUOUS
 62
     3
 10
-232.4469291244983
 20
216.02948871417149
 30
0.0
 11
-244.9469291244983
 21
216.02948871417149
 31
0.0
  0
LINE
  5
1A539
  8
SU
  6
CONTINUOUS
 62
     3
 10
-244.9469291244983
 20
216.02948871417149
 30
0.0
 11
-268.58273344877028
 21
216.02948871417149
 31
0.0
  0
LINE
  5
1A53A
  8
SU
  6
CONTINUOUS
 62
     3
 10
-232.4469291244983
 20
197.0294886984189
 30
0.0
 11
-232.4469291244983
 21
219.02948871417141
 31
0.0
  0
LINE
  5
1A53B
  8
SU
  6
CONTINUOUS
 62
     3
 10
-167.4469291244983
 20
197.0294886984189
 30
0.0
 11
-167.4469291244983
 21
219.02948871417141
 31
0.0
  0
LINE
  5
1A53C
  8
SU
  6
CONTINUOUS
 62
     3
 10
-232.4469291244983
 20
216.02948871417149
 30
0.0
 11
-167.4469291244983
 21
216.02948871417149
 31
0.0
  0
LINE
  5
1A53D
  8
SU
  6
CONTINUOUS
 62
     3
 10
-154.9469291244983
 20
231.02948871417149
 30
0.0
 11
-244.9469291244983
 21
231.02948871417149
 31
0.0
  0
LINE
  5
1A53E
  8
SU
  6
CONTINUOUS
 62
     3
 10
-244.9469291244983
 20
197.0294886984189
 30
0.0
 11
-244.9469291244983
 21
234.02948871417129
 31
0.0
  0
LINE
  5
1A53F
  8
SU
  6
CONTINUOUS
 62
     3
 10
-256.44692912449631
 20
146.02948869841879
 30
0.0
 11
-256.44692912449631
 21
234.02948871417129
 31
0.0
  0
LINE
  5
1A540
  8
SU
  6
CONTINUOUS
 62
     3
 10
-244.9469291244983
 20
231.02948871417149
 30
0.0
 11
-256.44692912449631
 21
231.02948871417149
 31
0.0
  0
LINE
  5
1A541
  8
SU
  6
CONTINUOUS
 62
     3
 10
-256.44692912449631
 20
231.02948871417149
 30
0.0
 11
-271.09073864830572
 21
231.02948871417149
 31
0.0
  0
LINE
  5
1A542
  8
SU
  6
CONTINUOUS
 62
     3
 10
-257.44692912449602
 20
145.02948869841879
 30
0.0
 11
-279.44692912449602
 21
145.02948869841879
 31
0.0
  0
LINE
  5
1A543
  8
SU
  6
CONTINUOUS
 62
     3
 10
-276.44692912449602
 20
145.02948869841879
 30
0.0
 11
-276.44692912449631
 21
121.0294886984187
 31
0.0
  0
LINE
  5
1A544
  8
SU
  6
CONTINUOUS
 62
     3
 10
-253.4469291244983
 20
64.529488698420437
 30
0.0
 11
-256.44692912449631
 21
64.529488698420437
 31
0.0
  0
LINE
  5
1A545
  8
SU
  6
CONTINUOUS
 62
     3
 10
-256.44692912449631
 20
64.529488698420437
 30
0.0
 11
-263.66026245782962
 21
64.529488698420437
 31
0.0
  0
LINE
  5
1A546
  8
SU
  6
CONTINUOUS
 62
     3
 10
-254.44692912449679
 20
121.0294886984187
 30
0.0
 11
-279.44692912449631
 21
121.0294886984187
 31
0.0
  0
LINE
  5
1A547
  8
SU
  6
CONTINUOUS
 62
     3
 10
-226.94692836281359
 20
101.0294561777566
 30
0.0
 11
-279.44692912449631
 21
101.0294561777566
 31
0.0
  0
LINE
  5
1A548
  8
SU
  6
CONTINUOUS
 62
     3
 10
-276.44692912449631
 20
121.0294886984187
 30
0.0
 11
-276.44692912449631
 21
101.0294561777566
 31
0.0
  0
LINE
  5
1A549
  8
SU
  6
CONTINUOUS
 62
     3
 10
-146.4469291244983
 20
64.529488698420437
 30
0.0
 11
-143.4469291244981
 21
64.529488698420437
 31
0.0
  0
LINE
  5
1A54A
  8
SU
  6
CONTINUOUS
 62
     3
 10
-143.4469291244981
 20
64.529488698420437
 30
0.0
 11
-136.23359579116459
 21
64.529488698420437
 31
0.0
  0
LINE
  5
1A54B
  8
SU
  6
CONTINUOUS
 62
     3
 10
-150.9469291244981
 20
79.529488698420536
 30
0.0
 11
-146.4469291244983
 21
79.529488698420536
 31
0.0
  0
LINE
  5
1A54C
  8
SU
  6
CONTINUOUS
 62
     3
 10
-146.4469291244983
 20
79.529488698420536
 30
0.0
 11
-134.4907386483078
 21
79.529488698420536
 31
0.0
  0
LINE
  5
1A54D
  8
SU
  6
CONTINUOUS
 62
     3
 10
-146.4469291244983
 20
120.029488698419
 30
0.0
 11
-146.4469291244983
 21
61.529488698420437
 31
0.0
  0
LINE
  5
1A54E
  8
SU
  6
CONTINUOUS
 62
     3
 10
-253.4469291244983
 20
120.029488698419
 30
0.0
 11
-253.4469291244983
 21
61.529488698420437
 31
0.0
  0
LINE
  5
1A54F
  8
SU
  6
CONTINUOUS
 62
     3
 10
-146.4469291244983
 20
64.529488698420437
 30
0.0
 11
-253.4469291244983
 21
64.529488698420437
 31
0.0
  0
LINE
  5
1A550
  8
SU
  6
CONTINUOUS
 62
     3
 10
-99.446929124498311
 20
135.0294886984189
 30
0.0
 11
-93.446929124498311
 21
145.02948869841879
 31
0.0
  0
LINE
  5
1A551
  8
SU
  6
CONTINUOUS
 62
     3
 10
-87.446929124498297
 20
135.0294886984189
 30
0.0
 11
-93.446929124498311
 21
145.02948869841879
 31
0.0
  0
LINE
  5
1A552
  8
SU
  6
CONTINUOUS
 62
     3
 10
-99.446929124498311
 20
135.0294886984189
 30
0.0
 11
-87.446929124498297
 21
135.0294886984189
 31
0.0
  0
LINE
  5
1A553
  8
SU
  6
CONTINUOUS
 62
     3
 10
-149.94692912844741
 20
-65.466665144109569
 30
0.0
 11
-105.446929124497
 21
-65.466665144109569
 31
0.0
  0
LINE
  5
1A554
  8
SU
  6
CONTINUOUS
 62
     3
 10
-108.4469291244969
 20
118.029488698419
 30
0.0
 11
-108.4469291244969
 21
-65.466665144109569
 31
0.0
  0
LINE
  5
1A555
  8
SU
  6
CONTINUOUS
 62
     3
 10
-145.4469291244983
 20
121.029488698419
 30
0.0
 11
-105.446929124497
 21
121.029488698419
 31
0.0
  0
LINE
  5
1A556
  8
SU
  6
CONTINUOUS
 62
     3
 10
-108.4469291244969
 20
121.029488698419
 30
0.0
 11
-108.4469291244969
 21
145.02948869841879
 31
0.0
  0
LINE
  5
1A557
  8
SU
  6
CONTINUOUS
 62
     3
 10
-142.4469291244983
 20
145.02948869841879
 30
0.0
 11
-90.446929124498268
 21
145.02948869841879
 31
0.0
  0
LINE
  5
1A558
  8
SU
  6
CONTINUOUS
 62
     3
 10
-118.4469291244981
 20
-85.466667971993274
 30
0.0
 11
-90.446929124498368
 21
-85.466667971993274
 31
0.0
  0
LINE
  5
1A559
  8
SU
  6
CONTINUOUS
 62
     3
 10
-93.446929124498268
 20
145.02948869841879
 30
0.0
 11
-93.446929124498354
 21
-85.466667971993274
 31
0.0
  0
TEXT
  5
1A55A
  8
SU
  6
CONTINUOUS
 62
     3
 10
-94.746929124498266
 20
28.04236274416526
 30
0.0
 40
4.0
  1
H
 50
90.0
 41
0.8299999999999999
  0
TEXT
  5
1A55B
  8
SU
  6
CONTINUOUS
 62
     3
 10
-109.7469291244969
 20
129.78853631746659
 30
0.0
 40
4.0
  1
24
 50
90.0
 41
0.8299999999999999
  0
TEXT
  5
1A55C
  8
SU
  6
CONTINUOUS
 62
     3
 10
-109.7469291244969
 20
5.3021736819166323
 30
0.0
 40
4.0
  1
ドアH（DH）＝H－47
 50
90.0
 41
0.8299999999999999
  0
LINE
  5
1A55D
  8
SU
  6
CONTINUOUS
 62
     3
 10
-93.487565891238688
 20
144.96176075385171
 30
0.0
 11
-93.406292357757948
 21
144.96176075385171
 31
0.0
  0
LINE
  5
1A55E
  8
SU
  6
CONTINUOUS
 62
     3
 10
-93.607565891238693
 20
144.76176075385141
 30
0.0
 11
-93.286292357757915
 21
144.76176075385141
 31
0.0
  0
LINE
  5
1A55F
  8
SU
  6
CONTINUOUS
 62
     3
 10
-93.727565891238683
 20
144.56176075385139
 30
0.0
 11
-93.166292357757953
 21
144.56176075385139
 31
0.0
  0
LINE
  5
1A560
  8
SU
  6
CONTINUOUS
 62
     3
 10
-93.847565891238702
 20
144.36176075385171
 30
0.0
 11
-93.046292357757949
 21
144.36176075385171
 31
0.0
  0
LINE
  5
1A561
  8
SU
  6
CONTINUOUS
 62
     3
 10
-93.967565891238706
 20
144.16176075385141
 30
0.0
 11
-92.92629235775793
 21
144.16176075385141
 31
0.0
  0
LINE
  5
1A562
  8
SU
  6
CONTINUOUS
 62
     3
 10
-94.087565891238725
 20
143.96176075385171
 30
0.0
 11
-92.806292357757926
 21
143.96176075385171
 31
0.0
  0
LINE
  5
1A563
  8
SU
  6
CONTINUOUS
 62
     3
 10
-94.207565891238744
 20
143.76176075385141
 30
0.0
 11
-92.686292357757935
 21
143.76176075385141
 31
0.0
  0
LINE
  5
1A564
  8
SU
  6
CONTINUOUS
 62
     3
 10
-94.327565891238734
 20
143.5617607538515
 30
0.0
 11
-92.566292357757931
 21
143.5617607538515
 31
0.0
  0
LINE
  5
1A565
  8
SU
  6
CONTINUOUS
 62
     3
 10
-94.447565891238725
 20
143.36176075385171
 30
0.0
 11
-92.446292357757926
 21
143.36176075385171
 31
0.0
  0
LINE
  5
1A566
  8
SU
  6
CONTINUOUS
 62
     3
 10
-94.567565891238729
 20
143.16176075385141
 30
0.0
 11
-92.326292357757936
 21
143.16176075385141
 31
0.0
  0
LINE
  5
1A567
  8
SU
  6
CONTINUOUS
 62
     3
 10
-94.687565891238734
 20
142.96176075385171
 30
0.0
 11
-92.206292357757945
 21
142.96176075385171
 31
0.0
  0
LINE
  5
1A568
  8
SU
  6
CONTINUOUS
 62
     3
 10
-94.807565891238696
 20
142.76176075385141
 30
0.0
 11
-92.086292357757927
 21
142.76176075385141
 31
0.0
  0
LINE
  5
1A569
  8
SU
  6
CONTINUOUS
 62
     3
 10
-94.927565891238686
 20
142.56176075385139
 30
0.0
 11
-91.966292357757951
 21
142.56176075385139
 31
0.0
  0
LINE
  5
1A56A
  8
SU
  6
CONTINUOUS
 62
     3
 10
-95.047565891238705
 20
142.36176075385171
 30
0.0
 11
-91.846292357757918
 21
142.36176075385171
 31
0.0
  0
LINE
  5
1A56B
  8
SU
  6
CONTINUOUS
 62
     3
 10
-95.167565891238695
 20
142.16176075385141
 30
0.0
 11
-91.726292357757956
 21
142.16176075385141
 31
0.0
  0
LINE
  5
1A56C
  8
SU
  6
CONTINUOUS
 62
     3
 10
-95.287565891238714
 20
141.96176075385171
 30
0.0
 11
-91.606292357757951
 21
141.96176075385171
 31
0.0
  0
LINE
  5
1A56D
  8
SU
  6
CONTINUOUS
 62
     3
 10
-95.407565891238704
 20
141.76176075385141
 30
0.0
 11
-91.486292357757932
 21
141.76176075385141
 31
0.0
  0
LINE
  5
1A56E
  8
SU
  6
CONTINUOUS
 62
     3
 10
-95.527565891238709
 20
141.56176075385139
 30
0.0
 11
-91.366292357757914
 21
141.56176075385139
 31
0.0
  0
LINE
  5
1A56F
  8
SU
  6
CONTINUOUS
 62
     3
 10
-95.647565891238713
 20
141.36176075385171
 30
0.0
 11
-91.246292357757937
 21
141.36176075385171
 31
0.0
  0
LINE
  5
1A570
  8
SU
  6
CONTINUOUS
 62
     3
 10
-95.767565891238718
 20
141.16176075385141
 30
0.0
 11
-91.126292357757933
 21
141.16176075385141
 31
0.0
  0
LINE
  5
1A571
  8
SU
  6
CONTINUOUS
 62
     3
 10
-95.887565891238737
 20
140.96176075385171
 30
0.0
 11
-91.006292357757928
 21
140.96176075385171
 31
0.0
  0
LINE
  5
1A572
  8
SU
  6
CONTINUOUS
 62
     3
 10
-96.007565891238684
 20
140.76176075385141
 30
0.0
 11
-90.886292357757924
 21
140.76176075385141
 31
0.0
  0
LINE
  5
1A573
  8
SU
  6
CONTINUOUS
 62
     3
 10
-96.127565891238675
 20
140.56176075385139
 30
0.0
 11
-90.766292357757948
 21
140.56176075385139
 31
0.0
  0
LINE
  5
1A574
  8
SU
  6
CONTINUOUS
 62
     3
 10
-96.247565891238693
 20
140.36176075385171
 30
0.0
 11
-90.646292357757929
 21
140.36176075385171
 31
0.0
  0
LINE
  5
1A575
  8
SU
  6
CONTINUOUS
 62
     3
 10
-96.367565891238684
 20
140.16176075385141
 30
0.0
 11
-90.526292357757924
 21
140.16176075385141
 31
0.0
  0
LINE
  5
1A576
  8
SU
  6
CONTINUOUS
 62
     3
 10
-96.487565891238702
 20
139.96176075385171
 30
0.0
 11
-90.406292357757934
 21
139.96176075385171
 31
0.0
  0
LINE
  5
1A577
  8
SU
  6
CONTINUOUS
 62
     3
 10
-96.607565891238707
 20
139.76176075385141
 30
0.0
 11
-90.286292357757944
 21
139.76176075385141
 31
0.0
  0
LINE
  5
1A578
  8
SU
  6
CONTINUOUS
 62
     3
 10
-96.727565891238726
 20
139.56176075385139
 30
0.0
 11
-90.166292357757953
 21
139.56176075385139
 31
0.0
  0
LINE
  5
1A579
  8
SU
  6
CONTINUOUS
 62
     3
 10
-96.84756589123873
 20
139.36176075385171
 30
0.0
 11
-90.046292357757935
 21
139.36176075385171
 31
0.0
  0
LINE
  5
1A57A
  8
SU
  6
CONTINUOUS
 62
     3
 10
-96.967565891238721
 20
139.16176075385141
 30
0.0
 11
-89.926292357757916
 21
139.16176075385141
 31
0.0
  0
LINE
  5
1A57B
  8
SU
  6
CONTINUOUS
 62
     3
 10
-97.087565891238725
 20
138.96176075385171
 30
0.0
 11
-89.806292357757926
 21
138.96176075385171
 31
0.0
  0
LINE
  5
1A57C
  8
SU
  6
CONTINUOUS
 62
     3
 10
-97.207565891238715
 20
138.76176075385141
 30
0.0
 11
-89.686292357757935
 21
138.76176075385141
 31
0.0
  0
LINE
  5
1A57D
  8
SU
  6
CONTINUOUS
 62
     3
 10
-97.327565891238734
 20
138.5617607538515
 30
0.0
 11
-89.566292357757931
 21
138.5617607538515
 31
0.0
  0
LINE
  5
1A57E
  8
SU
  6
CONTINUOUS
 62
     3
 10
-97.447565891238725
 20
138.36176075385171
 30
0.0
 11
-89.446292357757926
 21
138.36176075385171
 31
0.0
  0
LINE
  5
1A57F
  8
SU
  6
CONTINUOUS
 62
     3
 10
-97.567565891238743
 20
138.16176075385141
 30
0.0
 11
-89.326292357757936
 21
138.16176075385141
 31
0.0
  0
LINE
  5
1A580
  8
SU
  6
CONTINUOUS
 62
     3
 10
-97.687565891238734
 20
137.96176075385171
 30
0.0
 11
-89.206292357757917
 21
137.96176075385171
 31
0.0
  0
LINE
  5
1A581
  8
SU
  6
CONTINUOUS
 62
     3
 10
-97.807565891238767
 20
137.76176075385141
 30
0.0
 11
-89.086292357757912
 21
137.76176075385141
 31
0.0
  0
LINE
  5
1A582
  8
SU
  6
CONTINUOUS
 62
     3
 10
-97.927565891238686
 20
137.5617607538517
 30
0.0
 11
-88.966292357757894
 21
137.5617607538517
 31
0.0
  0
LINE
  5
1A583
  8
SU
  6
CONTINUOUS
 62
     3
 10
-98.04756589123869
 20
137.36176075385171
 30
0.0
 11
-88.846292357757932
 21
137.36176075385171
 31
0.0
  0
LINE
  5
1A584
  8
SU
  6
CONTINUOUS
 62
     3
 10
-98.167565891238695
 20
137.16176075385141
 30
0.0
 11
-88.726292357757956
 21
137.16176075385141
 31
0.0
  0
LINE
  5
1A585
  8
SU
  6
CONTINUOUS
 62
     3
 10
-98.287565891238685
 20
136.96176075385171
 30
0.0
 11
-88.606292357757937
 21
136.96176075385171
 31
0.0
  0
LINE
  5
1A586
  8
SU
  6
CONTINUOUS
 62
     3
 10
-98.407565891238704
 20
136.76176075385141
 30
0.0
 11
-88.486292357757947
 21
136.76176075385141
 31
0.0
  0
LINE
  5
1A587
  8
SU
  6
CONTINUOUS
 62
     3
 10
-98.527565891238694
 20
136.5617607538517
 30
0.0
 11
-88.366292357757928
 21
136.5617607538517
 31
0.0
  0
LINE
  5
1A588
  8
SU
  6
CONTINUOUS
 62
     3
 10
-98.647565891238727
 20
136.36176075385171
 30
0.0
 11
-88.246292357757923
 21
136.36176075385171
 31
0.0
  0
LINE
  5
1A589
  8
SU
  6
CONTINUOUS
 62
     3
 10
-98.767565891238704
 20
136.16176075385141
 30
0.0
 11
-88.126292357757919
 21
136.16176075385141
 31
0.0
  0
LINE
  5
1A58A
  8
SU
  6
CONTINUOUS
 62
     3
 10
-98.887565891238722
 20
135.96176075385171
 30
0.0
 11
-88.006292357757914
 21
135.96176075385171
 31
0.0
  0
LINE
  5
1A58B
  8
SU
  6
CONTINUOUS
 62
     3
 10
-99.007565891238684
 20
135.76176075385141
 30
0.0
 11
-87.886292357757924
 21
135.76176075385141
 31
0.0
  0
LINE
  5
1A58C
  8
SU
  6
CONTINUOUS
 62
     3
 10
-99.127565891238703
 20
135.5617607538517
 30
0.0
 11
-87.766292357757905
 21
135.5617607538517
 31
0.0
  0
LINE
  5
1A58D
  8
SU
  6
CONTINUOUS
 62
     3
 10
-99.247565891238736
 20
135.36176075385171
 30
0.0
 11
-87.646292357757986
 21
135.36176075385171
 31
0.0
  0
LINE
  5
1A58E
  8
SU
  6
CONTINUOUS
 62
     3
 10
-99.367565891238684
 20
135.16176075385141
 30
0.0
 11
-87.526292357757953
 21
135.16176075385141
 31
0.0
  0
TEXT
  5
1A58F
  8
SU
  6
CONTINUOUS
 62
     3
 10
-201.49507520660151
 20
65.829488698420434
 30
0.0
 40
4.0
  1
107
 41
0.8299999999999999
  0
TEXT
  5
1A590
  8
SU
  6
CONTINUOUS
 62
     3
 10
-143.22121483878399
 20
80.829488698420533
 30
0.0
 40
4.0
  1
4.5
 41
0.8299999999999999
  0
TEXT
  5
1A591
  8
SU
  6
CONTINUOUS
 62
     3
 10
-140.22121483878399
 20
65.829488698420434
 30
0.0
 40
4.0
  1
3
 41
0.8299999999999999
  0
TEXT
  5
1A592
  8
SU
  6
CONTINUOUS
 62
     3
 10
-277.74692912449632
 20
105.1167105333257
 30
0.0
 40
4.0
  1
（20）
 50
90.0
 41
0.8299999999999999
  0
TEXT
  5
1A593
  8
SU
  6
CONTINUOUS
 62
     3
 10
-262.83454817211538
 20
65.829488698420434
 30
0.0
 40
4.0
  1
3
 41
0.8299999999999999
  0
TEXT
  5
1A594
  8
SU
  6
CONTINUOUS
 62
     3
 10
-277.74692912449632
 20
129.78853631746651
 30
0.0
 40
4.0
  1
24
 50
90.0
 41
0.8299999999999999
  0
TEXT
  5
1A595
  8
SU
  6
CONTINUOUS
 62
     3
 10
-270.73931007687719
 20
232.3294887141713
 30
0.0
 40
4.0
  1
11.5
 41
0.8299999999999999
  0
TEXT
  5
1A596
  8
SU
  6
CONTINUOUS
 62
     3
 10
-203.10883388640309
 20
232.3294887141713
 30
0.0
 40
4.0
  1
90
 41
0.8299999999999999
  0
TEXT
  5
1A597
  8
SU
  6
CONTINUOUS
 62
     3
 10
-203.18788150545069
 20
217.3294887141713
 30
0.0
 40
4.0
  1
65
 41
0.8299999999999999
  0
TEXT
  5
1A598
  8
SU
  6
CONTINUOUS
 62
     3
 10
-268.23130487734181
 20
217.3294887141713
 30
0.0
 40
4.0
  1
12.5
 41
0.8299999999999999
  0
TEXT
  5
1A599
  8
SU
  6
CONTINUOUS
 62
     3
 10
-140.69550055306971
 20
232.3294887141713
 30
0.0
 40
4.0
  1
11.5
 41
0.8299999999999999
  0
TEXT
  5
1A59A
  8
SU
  6
CONTINUOUS
 62
     3
 10
-143.6078253872208
 20
217.3294887141713
 30
0.0
 40
4.0
  1
12.5
 41
0.8299999999999999
  0
TEXT
  5
1A59B
  8
SU
  6
CONTINUOUS
 62
     3
 10
-136.50597675267321
 20
-104.16666797200079
 30
0.0
 40
4.0
  1
3
 41
0.8299999999999999
  0
LINE
  5
1A59C
  8
SU
  6
CONTINUOUS
 62
     3
 10
-146.44692924712871
 20
-105.46666797200071
 30
0.0
 11
-148.8469292471288
 21
-105.46666797200071
 31
0.0
  0
LINE
  5
1A59D
  8
SU
  6
CONTINUOUS
 62
     3
 10
-99.367565891238769
 20
-75.598940027425925
 30
0.0
 11
-87.526292357757896
 21
-75.598940027425925
 31
0.0
  0
LINE
  5
1A59E
  8
SU
  6
CONTINUOUS
 62
     3
 10
-99.247565891238764
 20
-75.798940027425914
 30
0.0
 11
-87.646292357757886
 21
-75.798940027425914
 31
0.0
  0
LINE
  5
1A59F
  8
SU
  6
CONTINUOUS
 62
     3
 10
-99.12756589123876
 20
-75.998940027425903
 30
0.0
 11
-87.766292357757891
 21
-75.998940027425903
 31
0.0
  0
LINE
  5
1A5A0
  8
SU
  6
CONTINUOUS
 62
     3
 10
-99.007565891238784
 20
-76.19894002742592
 30
0.0
 11
-87.886292357757895
 21
-76.19894002742592
 31
0.0
  0
LINE
  5
1A5A1
  8
SU
  6
CONTINUOUS
 62
     3
 10
-98.887565891238765
 20
-76.398940027425922
 30
0.0
 11
-88.006292357757914
 21
-76.398940027425922
 31
0.0
  0
LINE
  5
1A5A2
  8
SU
  6
CONTINUOUS
 62
     3
 10
-98.767565891238803
 20
-76.598940027425925
 30
0.0
 11
-88.126292357757919
 21
-76.598940027425925
 31
0.0
  0
LINE
  5
1A5A3
  8
SU
  6
CONTINUOUS
 62
     3
 10
-98.647565891238798
 20
-76.798940027425914
 30
0.0
 11
-88.246292357757923
 21
-76.798940027425914
 31
0.0
  0
LINE
  5
1A5A4
  8
SU
  6
CONTINUOUS
 62
     3
 10
-98.527565891238808
 20
-76.998940027425903
 30
0.0
 11
-88.366292357757914
 21
-76.998940027425903
 31
0.0
  0
LINE
  5
1A5A5
  8
SU
  6
CONTINUOUS
 62
     3
 10
-98.407565891238804
 20
-77.198940027425905
 30
0.0
 11
-88.486292357757947
 21
-77.198940027425905
 31
0.0
  0
LINE
  5
1A5A6
  8
SU
  6
CONTINUOUS
 62
     3
 10
-98.287565891238785
 20
-77.398940027425922
 30
0.0
 11
-88.606292357757937
 21
-77.398940027425922
 31
0.0
  0
LINE
  5
1A5A7
  8
SU
  6
CONTINUOUS
 62
     3
 10
-98.16756589123878
 20
-77.598940027425925
 30
0.0
 11
-88.726292357757927
 21
-77.598940027425925
 31
0.0
  0
LINE
  5
1A5A8
  8
SU
  6
CONTINUOUS
 62
     3
 10
-98.047565891238762
 20
-77.798940027425914
 30
0.0
 11
-88.846292357757932
 21
-77.798940027425914
 31
0.0
  0
LINE
  5
1A5A9
  8
SU
  6
CONTINUOUS
 62
     3
 10
-97.927565891238771
 20
-77.998940027425903
 30
0.0
 11
-88.966292357757936
 21
-77.998940027425903
 31
0.0
  0
LINE
  5
1A5AA
  8
SU
  6
CONTINUOUS
 62
     3
 10
-97.807565891238767
 20
-78.19894002742592
 30
0.0
 11
-89.086292357757927
 21
-78.19894002742592
 31
0.0
  0
LINE
  5
1A5AB
  8
SU
  6
CONTINUOUS
 62
     3
 10
-97.687565891238762
 20
-78.398940027425922
 30
0.0
 11
-89.206292357757931
 21
-78.398940027425922
 31
0.0
  0
LINE
  5
1A5AC
  8
SU
  6
CONTINUOUS
 62
     3
 10
-97.567565891238772
 20
-78.598940027425925
 30
0.0
 11
-89.326292357757893
 21
-78.598940027425925
 31
0.0
  0
LINE
  5
1A5AD
  8
SU
  6
CONTINUOUS
 62
     3
 10
-97.447565891238767
 20
-78.798940027425914
 30
0.0
 11
-89.446292357757898
 21
-78.798940027425914
 31
0.0
  0
LINE
  5
1A5AE
  8
SU
  6
CONTINUOUS
 62
     3
 10
-97.327565891238763
 20
-78.998940027425903
 30
0.0
 11
-89.566292357757916
 21
-78.998940027425903
 31
0.0
  0
LINE
  5
1A5AF
  8
SU
  6
CONTINUOUS
 62
     3
 10
-97.207565891238715
 20
-79.19894002742592
 30
0.0
 11
-89.686292357757907
 21
-79.19894002742592
 31
0.0
  0
LINE
  5
1A5B0
  8
SU
  6
CONTINUOUS
 62
     3
 10
-97.087565891238725
 20
-79.398940027425894
 30
0.0
 11
-89.806292357757926
 21
-79.398940027425894
 31
0.0
  0
LINE
  5
1A5B1
  8
SU
  6
CONTINUOUS
 62
     3
 10
-96.967565891238721
 20
-79.598940027425925
 30
0.0
 11
-89.926292357757916
 21
-79.598940027425925
 31
0.0
  0
LINE
  5
1A5B2
  8
SU
  6
CONTINUOUS
 62
     3
 10
-96.847565891238759
 20
-79.798940027425914
 30
0.0
 11
-90.046292357757935
 21
-79.798940027425914
 31
0.0
  0
LINE
  5
1A5B3
  8
SU
  6
CONTINUOUS
 62
     3
 10
-96.727565891238783
 20
-79.998940027425903
 30
0.0
 11
-90.166292357757925
 21
-79.998940027425903
 31
0.0
  0
LINE
  5
1A5B4
  8
SU
  6
CONTINUOUS
 62
     3
 10
-96.607565891238764
 20
-80.19894002742592
 30
0.0
 11
-90.286292357757944
 21
-80.19894002742592
 31
0.0
  0
LINE
  5
1A5B5
  8
SU
  6
CONTINUOUS
 62
     3
 10
-96.487565891238773
 20
-80.398940027425894
 30
0.0
 11
-90.406292357757934
 21
-80.398940027425894
 31
0.0
  0
LINE
  5
1A5B6
  8
SU
  6
CONTINUOUS
 62
     3
 10
-96.367565891238755
 20
-80.598940027425925
 30
0.0
 11
-90.526292357757853
 21
-80.598940027425925
 31
0.0
  0
LINE
  5
1A5B7
  8
SU
  6
CONTINUOUS
 62
     3
 10
-96.247565891238764
 20
-80.798940027425914
 30
0.0
 11
-90.646292357757886
 21
-80.798940027425914
 31
0.0
  0
LINE
  5
1A5B8
  8
SU
  6
CONTINUOUS
 62
     3
 10
-96.127565891238746
 20
-80.998940027425903
 30
0.0
 11
-90.766292357757877
 21
-80.998940027425903
 31
0.0
  0
LINE
  5
1A5B9
  8
SU
  6
CONTINUOUS
 62
     3
 10
-96.007565891238769
 20
-81.19894002742592
 30
0.0
 11
-90.886292357757824
 21
-81.19894002742592
 31
0.0
  0
LINE
  5
1A5BA
  8
SU
  6
CONTINUOUS
 62
     3
 10
-95.887565891238765
 20
-81.398940027425908
 30
0.0
 11
-91.006292357757872
 21
-81.398940027425908
 31
0.0
  0
LINE
  5
1A5BB
  8
SU
  6
CONTINUOUS
 62
     3
 10
-95.767565891238718
 20
-81.598940027425925
 30
0.0
 11
-91.126292357757904
 21
-81.598940027425925
 31
0.0
  0
LINE
  5
1A5BC
  8
SU
  6
CONTINUOUS
 62
     3
 10
-95.647565891238784
 20
-81.798940027425914
 30
0.0
 11
-91.246292357757881
 21
-81.798940027425914
 31
0.0
  0
LINE
  5
1A5BD
  8
SU
  6
CONTINUOUS
 62
     3
 10
-95.527565891238794
 20
-81.998940027425903
 30
0.0
 11
-91.366292357757914
 21
-81.998940027425903
 31
0.0
  0
LINE
  5
1A5BE
  8
SU
  6
CONTINUOUS
 62
     3
 10
-95.407565891238761
 20
-82.198940027425905
 30
0.0
 11
-91.486292357757904
 21
-82.198940027425905
 31
0.0
  0
LINE
  5
1A5BF
  8
SU
  6
CONTINUOUS
 62
     3
 10
-95.287565891238785
 20
-82.398940027425937
 30
0.0
 11
-91.606292357757937
 21
-82.398940027425937
 31
0.0
  0
LINE
  5
1A5C0
  8
SU
  6
CONTINUOUS
 62
     3
 10
-95.167565891238766
 20
-82.598940027425925
 30
0.0
 11
-91.726292357757913
 21
-82.598940027425925
 31
0.0
  0
LINE
  5
1A5C1
  8
SU
  6
CONTINUOUS
 62
     3
 10
-95.047565891238776
 20
-82.798940027425914
 30
0.0
 11
-91.846292357757918
 21
-82.798940027425914
 31
0.0
  0
LINE
  5
1A5C2
  8
SU
  6
CONTINUOUS
 62
     3
 10
-94.927565891238757
 20
-82.998940027425903
 30
0.0
 11
-91.966292357757936
 21
-82.998940027425903
 31
0.0
  0
LINE
  5
1A5C3
  8
SU
  6
CONTINUOUS
 62
     3
 10
-94.807565891238767
 20
-83.198940027425905
 30
0.0
 11
-92.086292357757927
 21
-83.198940027425905
 31
0.0
  0
LINE
  5
1A5C4
  8
SU
  6
CONTINUOUS
 62
     3
 10
-94.687565891238748
 20
-83.398940027425922
 30
0.0
 11
-92.206292357757945
 21
-83.398940027425922
 31
0.0
  0
LINE
  5
1A5C5
  8
SU
  6
CONTINUOUS
 62
     3
 10
-94.567565891238729
 20
-83.598940027425925
 30
0.0
 11
-92.326292357757936
 21
-83.598940027425925
 31
0.0
  0
LINE
  5
1A5C6
  8
SU
  6
CONTINUOUS
 62
     3
 10
-94.447565891238725
 20
-83.798940027425914
 30
0.0
 11
-92.446292357757869
 21
-83.798940027425914
 31
0.0
  0
LINE
  5
1A5C7
  8
SU
  6
CONTINUOUS
 62
     3
 10
-94.327565891238734
 20
-83.998940027425888
 30
0.0
 11
-92.566292357757931
 21
-83.998940027425888
 31
0.0
  0
LINE
  5
1A5C8
  8
SU
  6
CONTINUOUS
 62
     3
 10
-94.207565891238744
 20
-84.198940027425934
 30
0.0
 11
-92.686292357757907
 21
-84.198940027425934
 31
0.0
  0
LINE
  5
1A5C9
  8
SU
  6
CONTINUOUS
 62
     3
 10
-94.087565891238725
 20
-84.398940027425894
 30
0.0
 11
-92.806292357757926
 21
-84.398940027425894
 31
0.0
  0
LINE
  5
1A5CA
  8
SU
  6
CONTINUOUS
 62
     3
 10
-93.967565891238735
 20
-84.598940027425925
 30
0.0
 11
-92.92629235775793
 21
-84.598940027425925
 31
0.0
  0
LINE
  5
1A5CB
  8
SU
  6
CONTINUOUS
 62
     3
 10
-93.847565891238787
 20
-84.798940027425914
 30
0.0
 11
-93.046292357757935
 21
-84.798940027425914
 31
0.0
  0
LINE
  5
1A5CC
  8
SU
  6
CONTINUOUS
 62
     3
 10
-93.727565891238797
 20
-84.998940027425917
 30
0.0
 11
-93.166292357757925
 21
-84.998940027425917
 31
0.0
  0
LINE
  5
1A5CD
  8
SU
  6
CONTINUOUS
 62
     3
 10
-93.607565891238764
 20
-85.19894002742592
 30
0.0
 11
-93.286292357757915
 21
-85.19894002742592
 31
0.0
  0
LINE
  5
1A5CE
  8
SU
  6
CONTINUOUS
 62
     3
 10
-93.487565891238759
 20
-85.398940027425894
 30
0.0
 11
-93.406292357757934
 21
-85.398940027425894
 31
0.0
  0
TEXT
  5
1A5CF
  8
SU
  6
CONTINUOUS
 62
     3
 10
-124.74692912449819
 20
128.92437506938441
 30
0.0
 40
4.0
  1
3
 50
90.0
 41
0.8299999999999999
  0
TEXT
  5
1A5D0
  8
SU
  6
CONTINUOUS
 62
     3
 10
-34.675786662338709
 20
-85.653332174685147
 30
0.0
 40
4.0
  1
12.5
 50
90.0
 41
0.8299999999999999
  0
TEXT
  5
1A5D1
  8
SU
  6
CONTINUOUS
 62
     3
 10
-49.675786662338702
 20
-88.565657008836695
 30
0.0
 40
4.0
  1
11.5
 50
90.0
 41
0.8299999999999999
  0
TEXT
  5
1A5D2
  8
SU
  6
CONTINUOUS
 62
     3
 10
-49.675786662338723
 20
41.47815251497417
 30
0.0
 40
4.0
  1
11.5
 50
90.0
 41
0.8299999999999999
  0
TEXT
  5
1A5D3
  8
SU
  6
CONTINUOUS
 62
     3
 10
-34.675786662338709
 20
38.86159109014261
 30
0.0
 40
4.0
  1
12.5
 50
90.0
 41
0.8299999999999999
  0
TEXT
  5
1A5D4
  8
SU
  6
CONTINUOUS
 62
     3
 10
-34.675786662338702
 20
-21.014228437406761
 30
0.0
 40
4.0
  1
65
 50
90.0
 41
0.8299999999999999
  0
TEXT
  5
1A5D5
  8
SU
  6
CONTINUOUS
 62
     3
 10
-49.675786662338687
 20
-20.935180818359129
 30
0.0
 40
4.0
  1
90
 50
90.0
 41
0.8299999999999999
  0
TEXT
  5
1A5D6
  8
SU
  6
CONTINUOUS
 62
     3
 10
160.72707292904741
 20
-146.47327605644091
 30
0.0
 40
4.0
  1
W
 41
0.8299999999999999
  0
LINE
  5
1A5D7
  8
SU
  6
CONTINUOUS
 62
     3
 10
37.691943730757529
 20
-147.81391282318131
 30
0.0
 11
37.691943730757529
 21
-147.73263928970059
 31
0.0
  0
LINE
  5
1A5D8
  8
SU
  6
CONTINUOUS
 62
     3
 10
37.891943730757532
 20
-147.9339128231812
 30
0.0
 11
37.891943730757532
 21
-147.61263928970041
 31
0.0
  0
LINE
  5
1A5D9
  8
SU
  6
CONTINUOUS
 62
     3
 10
38.091943730757528
 20
-148.05391282318109
 30
0.0
 11
38.091943730757528
 21
-147.49263928970029
 31
0.0
  0
LINE
  5
1A5DA
  8
SU
  6
CONTINUOUS
 62
     3
 10
38.291943730757531
 20
-148.1739128231813
 30
0.0
 11
38.291943730757531
 21
-147.3726392897004
 31
0.0
  0
LINE
  5
1A5DB
  8
SU
  6
CONTINUOUS
 62
     3
 10
38.491943730757527
 20
-148.29391282318099
 30
0.0
 11
38.491943730757527
 21
-147.25263928970051
 31
0.0
  0
LINE
  5
1A5DC
  8
SU
  6
CONTINUOUS
 62
     3
 10
38.691943730757529
 20
-148.41391282318131
 30
0.0
 11
38.691943730757529
 21
-147.13263928970051
 31
0.0
  0
LINE
  5
1A5DD
  8
SU
  6
CONTINUOUS
 62
     3
 10
38.891943730757532
 20
-148.53391282318131
 30
0.0
 11
38.891943730757532
 21
-147.0126392897005
 31
0.0
  0
LINE
  5
1A5DE
  8
SU
  6
CONTINUOUS
 62
     3
 10
39.091943730757528
 20
-148.65391282318129
 30
0.0
 11
39.091943730757528
 21
-146.8926392897005
 31
0.0
  0
LINE
  5
1A5DF
  8
SU
  6
CONTINUOUS
 62
     3
 10
39.291943730757531
 20
-148.77391282318101
 30
0.0
 11
39.291943730757531
 21
-146.77263928970041
 31
0.0
  0
LINE
  5
1A5E0
  8
SU
  6
CONTINUOUS
 62
     3
 10
39.491943730757527
 20
-148.8939128231811
 30
0.0
 11
39.491943730757527
 21
-146.6526392897002
 31
0.0
  0
LINE
  5
1A5E1
  8
SU
  6
CONTINUOUS
 62
     3
 10
39.691943730757529
 20
-149.0139128231813
 30
0.0
 11
39.691943730757529
 21
-146.53263928970051
 31
0.0
  0
LINE
  5
1A5E2
  8
SU
  6
CONTINUOUS
 62
     3
 10
39.891943730757532
 20
-149.13391282318139
 30
0.0
 11
39.891943730757532
 21
-146.41263928970051
 31
0.0
  0
LINE
  5
1A5E3
  8
SU
  6
CONTINUOUS
 62
     3
 10
40.091943730757549
 20
-149.25391282318131
 30
0.0
 11
40.091943730757549
 21
-146.2926392897005
 31
0.0
  0
LINE
  5
1A5E4
  8
SU
  6
CONTINUOUS
 62
     3
 10
40.291943730757517
 20
-149.3739128231814
 30
0.0
 11
40.291943730757517
 21
-146.1726392897005
 31
0.0
  0
LINE
  5
1A5E5
  8
SU
  6
CONTINUOUS
 62
     3
 10
40.491943730757527
 20
-149.4939128231814
 30
0.0
 11
40.491943730757527
 21
-146.05263928970041
 31
0.0
  0
LINE
  5
1A5E6
  8
SU
  6
CONTINUOUS
 62
     3
 10
40.691943730757522
 20
-149.61391282318141
 30
0.0
 11
40.691943730757522
 21
-145.9326392897004
 31
0.0
  0
LINE
  5
1A5E7
  8
SU
  6
CONTINUOUS
 62
     3
 10
40.891943730757532
 20
-149.73391282318141
 30
0.0
 11
40.891943730757532
 21
-145.81263928970051
 31
0.0
  0
LINE
  5
1A5E8
  8
SU
  6
CONTINUOUS
 62
     3
 10
41.091943730757528
 20
-149.8539128231811
 30
0.0
 11
41.091943730757528
 21
-145.69263928970051
 31
0.0
  0
LINE
  5
1A5E9
  8
SU
  6
CONTINUOUS
 62
     3
 10
41.291943730757531
 20
-149.97391282318131
 30
0.0
 11
41.291943730757531
 21
-145.5726392897005
 31
0.0
  0
LINE
  5
1A5EA
  8
SU
  6
CONTINUOUS
 62
     3
 10
41.491943730757527
 20
-150.09391282318131
 30
0.0
 11
41.491943730757527
 21
-145.45263928970039
 31
0.0
  0
LINE
  5
1A5EB
  8
SU
  6
CONTINUOUS
 62
     3
 10
41.691943730757529
 20
-150.2139128231812
 30
0.0
 11
41.691943730757529
 21
-145.3326392897005
 31
0.0
  0
LINE
  5
1A5EC
  8
SU
  6
CONTINUOUS
 62
     3
 10
41.891943730757532
 20
-150.33391282318101
 30
0.0
 11
41.891943730757532
 21
-145.21263928970041
 31
0.0
  0
LINE
  5
1A5ED
  8
SU
  6
CONTINUOUS
 62
     3
 10
42.091943730757563
 20
-150.4539128231813
 30
0.0
 11
42.091943730757563
 21
-145.0926392897002
 31
0.0
  0
LINE
  5
1A5EE
  8
SU
  6
CONTINUOUS
 62
     3
 10
42.291943730757531
 20
-150.5739128231813
 30
0.0
 11
42.291943730757531
 21
-144.97263928970051
 31
0.0
  0
LINE
  5
1A5EF
  8
SU
  6
CONTINUOUS
 62
     3
 10
42.491943730757527
 20
-150.69391282318131
 30
0.0
 11
42.491943730757527
 21
-144.85263928970051
 31
0.0
  0
LINE
  5
1A5F0
  8
SU
  6
CONTINUOUS
 62
     3
 10
42.691943730757529
 20
-150.81391282318131
 30
0.0
 11
42.691943730757529
 21
-144.7326392897005
 31
0.0
  0
LINE
  5
1A5F1
  8
SU
  6
CONTINUOUS
 62
     3
 10
42.891943730757532
 20
-150.9339128231812
 30
0.0
 11
42.891943730757532
 21
-144.61263928970041
 31
0.0
  0
LINE
  5
1A5F2
  8
SU
  6
CONTINUOUS
 62
     3
 10
43.091943730757542
 20
-151.05391282318129
 30
0.0
 11
43.091943730757542
 21
-144.49263928970041
 31
0.0
  0
LINE
  5
1A5F3
  8
SU
  6
CONTINUOUS
 62
     3
 10
43.291943730757531
 20
-151.1739128231813
 30
0.0
 11
43.291943730757531
 21
-144.3726392897004
 31
0.0
  0
LINE
  5
1A5F4
  8
SU
  6
CONTINUOUS
 62
     3
 10
43.491943730757527
 20
-151.2939128231811
 30
0.0
 11
43.491943730757527
 21
-144.2526392897006
 31
0.0
  0
LINE
  5
1A5F5
  8
SU
  6
CONTINUOUS
 62
     3
 10
43.691943730757551
 20
-151.41391282318131
 30
0.0
 11
43.691943730757551
 21
-144.13263928970051
 31
0.0
  0
LINE
  5
1A5F6
  8
SU
  6
CONTINUOUS
 62
     3
 10
43.891943730757532
 20
-151.53391282318131
 30
0.0
 11
43.891943730757532
 21
-144.01263928970039
 31
0.0
  0
LINE
  5
1A5F7
  8
SU
  6
CONTINUOUS
 62
     3
 10
44.091943730757549
 20
-151.6539128231812
 30
0.0
 11
44.091943730757549
 21
-143.8926392897005
 31
0.0
  0
LINE
  5
1A5F8
  8
SU
  6
CONTINUOUS
 62
     3
 10
44.291943730757552
 20
-151.77391282318101
 30
0.0
 11
44.291943730757552
 21
-143.77263928970041
 31
0.0
  0
LINE
  5
1A5F9
  8
SU
  6
CONTINUOUS
 62
     3
 10
44.491943730757527
 20
-151.8939128231813
 30
0.0
 11
44.491943730757527
 21
-143.6526392897004
 31
0.0
  0
LINE
  5
1A5FA
  8
SU
  6
CONTINUOUS
 62
     3
 10
44.691943730757551
 20
-152.0139128231813
 30
0.0
 11
44.691943730757551
 21
-143.53263928970051
 31
0.0
  0
LINE
  5
1A5FB
  8
SU
  6
CONTINUOUS
 62
     3
 10
44.891943730757532
 20
-152.1339128231813
 30
0.0
 11
44.891943730757532
 21
-143.41263928970051
 31
0.0
  0
LINE
  5
1A5FC
  8
SU
  6
CONTINUOUS
 62
     3
 10
45.091943730757542
 20
-152.25391282318111
 30
0.0
 11
45.091943730757542
 21
-143.2926392897005
 31
0.0
  0
LINE
  5
1A5FD
  8
SU
  6
CONTINUOUS
 62
     3
 10
45.291943730757538
 20
-152.3739128231814
 30
0.0
 11
45.291943730757538
 21
-143.17263928970041
 31
0.0
  0
LINE
  5
1A5FE
  8
SU
  6
CONTINUOUS
 62
     3
 10
45.491943730757527
 20
-152.4939128231814
 30
0.0
 11
45.491943730757527
 21
-143.05263928970041
 31
0.0
  0
LINE
  5
1A5FF
  8
SU
  6
CONTINUOUS
 62
     3
 10
45.691943730757551
 20
-152.61391282318141
 30
0.0
 11
45.691943730757551
 21
-142.9326392897004
 31
0.0
  0
LINE
  5
1A600
  8
SU
  6
CONTINUOUS
 62
     3
 10
45.891943730757539
 20
-152.73391282318141
 30
0.0
 11
45.891943730757539
 21
-142.81263928970051
 31
0.0
  0
LINE
  5
1A601
  8
SU
  6
CONTINUOUS
 62
     3
 10
46.091943730757542
 20
-152.8539128231813
 30
0.0
 11
46.091943730757542
 21
-142.69263928970051
 31
0.0
  0
LINE
  5
1A602
  8
SU
  6
CONTINUOUS
 62
     3
 10
46.291943730757538
 20
-152.97391282318131
 30
0.0
 11
46.291943730757538
 21
-142.57263928970039
 31
0.0
  0
LINE
  5
1A603
  8
SU
  6
CONTINUOUS
 62
     3
 10
46.491943730757527
 20
-153.09391282318131
 30
0.0
 11
46.491943730757527
 21
-142.4526392897005
 31
0.0
  0
LINE
  5
1A604
  8
SU
  6
CONTINUOUS
 62
     3
 10
46.691943730757551
 20
-153.213912823181
 30
0.0
 11
46.691943730757551
 21
-142.3326392897005
 31
0.0
  0
LINE
  5
1A605
  8
SU
  6
CONTINUOUS
 62
     3
 10
46.891943730757532
 20
-153.33391282318101
 30
0.0
 11
46.891943730757532
 21
-142.21263928970041
 31
0.0
  0
LINE
  5
1A606
  8
SU
  6
CONTINUOUS
 62
     3
 10
47.091943730757563
 20
-153.4539128231813
 30
0.0
 11
47.091943730757563
 21
-142.0926392897002
 31
0.0
  0
LINE
  5
1A607
  8
SU
  6
CONTINUOUS
 62
     3
 10
47.291943730757538
 20
-153.57391282318139
 30
0.0
 11
47.291943730757538
 21
-141.97263928970051
 31
0.0
  0
LINE
  5
1A608
  8
SU
  6
CONTINUOUS
 62
     3
 10
47.491943730757527
 20
-153.69391282318131
 30
0.0
 11
47.491943730757527
 21
-141.85263928970051
 31
0.0
  0
LINE
  5
1A609
  8
SU
  6
CONTINUOUS
 62
     3
 10
277.75648784162303
 20
-153.69391282318111
 30
0.0
 11
277.75648784162303
 21
-141.85263928970051
 31
0.0
  0
LINE
  5
1A60A
  8
SU
  6
CONTINUOUS
 62
     3
 10
277.95648784162302
 20
-153.57391282318119
 30
0.0
 11
277.95648784162302
 21
-141.9726392897006
 31
0.0
  0
LINE
  5
1A60B
  8
SU
  6
CONTINUOUS
 62
     3
 10
278.15648784162312
 20
-153.4539128231811
 30
0.0
 11
278.15648784162312
 21
-142.09263928970029
 31
0.0
  0
LINE
  5
1A60C
  8
SU
  6
CONTINUOUS
 62
     3
 10
278.35648784162311
 20
-153.33391282318101
 30
0.0
 11
278.35648784162311
 21
-142.21263928970041
 31
0.0
  0
LINE
  5
1A60D
  8
SU
  6
CONTINUOUS
 62
     3
 10
278.55648784162281
 20
-153.21391282318089
 30
0.0
 11
278.55648784162281
 21
-142.3326392897005
 31
0.0
  0
LINE
  5
1A60E
  8
SU
  6
CONTINUOUS
 62
     3
 10
278.75648784162308
 20
-153.09391282318131
 30
0.0
 11
278.75648784162308
 21
-142.4526392897005
 31
0.0
  0
LINE
  5
1A60F
  8
SU
  6
CONTINUOUS
 62
     3
 10
278.95648784162302
 20
-152.97391282318131
 30
0.0
 11
278.95648784162302
 21
-142.57263928970039
 31
0.0
  0
LINE
  5
1A610
  8
SU
  6
CONTINUOUS
 62
     3
 10
279.15648784162312
 20
-152.8539128231813
 30
0.0
 11
279.15648784162312
 21
-142.69263928970051
 31
0.0
  0
LINE
  5
1A611
  8
SU
  6
CONTINUOUS
 62
     3
 10
279.35648784162311
 20
-152.7339128231809
 30
0.0
 11
279.35648784162311
 21
-142.8126392897006
 31
0.0
  0
LINE
  5
1A612
  8
SU
  6
CONTINUOUS
 62
     3
 10
279.5564878416231
 20
-152.61391282318129
 30
0.0
 11
279.5564878416231
 21
-142.9326392897004
 31
0.0
  0
LINE
  5
1A613
  8
SU
  6
CONTINUOUS
 62
     3
 10
279.75648784162303
 20
-152.49391282318101
 30
0.0
 11
279.75648784162303
 21
-143.05263928970041
 31
0.0
  0
LINE
  5
1A614
  8
SU
  6
CONTINUOUS
 62
     3
 10
279.95648784162302
 20
-152.37391282318131
 30
0.0
 11
279.95648784162302
 21
-143.17263928970041
 31
0.0
  0
LINE
  5
1A615
  8
SU
  6
CONTINUOUS
 62
     3
 10
280.15648784162312
 20
-152.25391282318111
 30
0.0
 11
280.15648784162312
 21
-143.2926392897005
 31
0.0
  0
LINE
  5
1A616
  8
SU
  6
CONTINUOUS
 62
     3
 10
280.35648784162311
 20
-152.1339128231813
 30
0.0
 11
280.35648784162311
 21
-143.41263928970059
 31
0.0
  0
LINE
  5
1A617
  8
SU
  6
CONTINUOUS
 62
     3
 10
280.55648784162281
 20
-152.0139128231813
 30
0.0
 11
280.55648784162281
 21
-143.53263928970051
 31
0.0
  0
LINE
  5
1A618
  8
SU
  6
CONTINUOUS
 62
     3
 10
280.75648784162308
 20
-151.8939128231813
 30
0.0
 11
280.75648784162308
 21
-143.6526392897004
 31
0.0
  0
LINE
  5
1A619
  8
SU
  6
CONTINUOUS
 62
     3
 10
280.95648784162302
 20
-151.77391282318101
 30
0.0
 11
280.95648784162302
 21
-143.77263928970041
 31
0.0
  0
LINE
  5
1A61A
  8
SU
  6
CONTINUOUS
 62
     3
 10
281.15648784162312
 20
-151.6539128231812
 30
0.0
 11
281.15648784162312
 21
-143.8926392897005
 31
0.0
  0
LINE
  5
1A61B
  8
SU
  6
CONTINUOUS
 62
     3
 10
281.35648784162311
 20
-151.53391282318131
 30
0.0
 11
281.35648784162311
 21
-144.01263928970039
 31
0.0
  0
LINE
  5
1A61C
  8
SU
  6
CONTINUOUS
 62
     3
 10
281.55648784162281
 20
-151.41391282318131
 30
0.0
 11
281.55648784162281
 21
-144.13263928970051
 31
0.0
  0
LINE
  5
1A61D
  8
SU
  6
CONTINUOUS
 62
     3
 10
281.75648784162303
 20
-151.2939128231811
 30
0.0
 11
281.75648784162303
 21
-144.2526392897006
 31
0.0
  0
LINE
  5
1A61E
  8
SU
  6
CONTINUOUS
 62
     3
 10
281.95648784162302
 20
-151.1739128231813
 30
0.0
 11
281.95648784162302
 21
-144.3726392897004
 31
0.0
  0
LINE
  5
1A61F
  8
SU
  6
CONTINUOUS
 62
     3
 10
282.15648784162312
 20
-151.05391282318129
 30
0.0
 11
282.15648784162312
 21
-144.49263928970041
 31
0.0
  0
LINE
  5
1A620
  8
SU
  6
CONTINUOUS
 62
     3
 10
282.35648784162311
 20
-150.9339128231812
 30
0.0
 11
282.35648784162311
 21
-144.61263928970041
 31
0.0
  0
LINE
  5
1A621
  8
SU
  6
CONTINUOUS
 62
     3
 10
282.55648784162281
 20
-150.81391282318111
 30
0.0
 11
282.55648784162281
 21
-144.7326392897005
 31
0.0
  0
LINE
  5
1A622
  8
SU
  6
CONTINUOUS
 62
     3
 10
282.75648784162308
 20
-150.69391282318111
 30
0.0
 11
282.75648784162308
 21
-144.85263928970051
 31
0.0
  0
LINE
  5
1A623
  8
SU
  6
CONTINUOUS
 62
     3
 10
282.95648784162302
 20
-150.5739128231811
 30
0.0
 11
282.95648784162302
 21
-144.97263928970051
 31
0.0
  0
LINE
  5
1A624
  8
SU
  6
CONTINUOUS
 62
     3
 10
283.156487841623
 20
-150.4539128231811
 30
0.0
 11
283.156487841623
 21
-145.09263928970029
 31
0.0
  0
LINE
  5
1A625
  8
SU
  6
CONTINUOUS
 62
     3
 10
283.35648784162311
 20
-150.33391282318101
 30
0.0
 11
283.35648784162311
 21
-145.21263928970069
 31
0.0
  0
LINE
  5
1A626
  8
SU
  6
CONTINUOUS
 62
     3
 10
283.5564878416231
 20
-150.2139128231812
 30
0.0
 11
283.5564878416231
 21
-145.3326392897005
 31
0.0
  0
LINE
  5
1A627
  8
SU
  6
CONTINUOUS
 62
     3
 10
283.75648784162303
 20
-150.09391282318131
 30
0.0
 11
283.75648784162303
 21
-145.45263928970039
 31
0.0
  0
LINE
  5
1A628
  8
SU
  6
CONTINUOUS
 62
     3
 10
283.95648784162302
 20
-149.97391282318131
 30
0.0
 11
283.95648784162302
 21
-145.5726392897005
 31
0.0
  0
LINE
  5
1A629
  8
SU
  6
CONTINUOUS
 62
     3
 10
284.15648784162312
 20
-149.8539128231811
 30
0.0
 11
284.15648784162312
 21
-145.69263928970051
 31
0.0
  0
LINE
  5
1A62A
  8
SU
  6
CONTINUOUS
 62
     3
 10
284.35648784162311
 20
-149.7339128231811
 30
0.0
 11
284.35648784162311
 21
-145.8126392897006
 31
0.0
  0
LINE
  5
1A62B
  8
SU
  6
CONTINUOUS
 62
     3
 10
284.55648784162281
 20
-149.61391282318129
 30
0.0
 11
284.55648784162281
 21
-145.9326392897004
 31
0.0
  0
LINE
  5
1A62C
  8
SU
  6
CONTINUOUS
 62
     3
 10
284.75648784162303
 20
-149.49391282318129
 30
0.0
 11
284.75648784162303
 21
-146.05263928970041
 31
0.0
  0
LINE
  5
1A62D
  8
SU
  6
CONTINUOUS
 62
     3
 10
284.95648784162302
 20
-149.37391282318089
 30
0.0
 11
284.95648784162302
 21
-146.1726392897005
 31
0.0
  0
LINE
  5
1A62E
  8
SU
  6
CONTINUOUS
 62
     3
 10
285.15648784162312
 20
-149.25391282318131
 30
0.0
 11
285.15648784162312
 21
-146.2926392897005
 31
0.0
  0
LINE
  5
1A62F
  8
SU
  6
CONTINUOUS
 62
     3
 10
285.35648784162311
 20
-149.1339128231813
 30
0.0
 11
285.35648784162311
 21
-146.41263928970051
 31
0.0
  0
LINE
  5
1A630
  8
SU
  6
CONTINUOUS
 62
     3
 10
285.5564878416231
 20
-149.0139128231813
 30
0.0
 11
285.5564878416231
 21
-146.53263928970051
 31
0.0
  0
LINE
  5
1A631
  8
SU
  6
CONTINUOUS
 62
     3
 10
285.75648784162303
 20
-148.8939128231811
 30
0.0
 11
285.75648784162303
 21
-146.65263928970029
 31
0.0
  0
LINE
  5
1A632
  8
SU
  6
CONTINUOUS
 62
     3
 10
285.95648784162302
 20
-148.77391282318101
 30
0.0
 11
285.95648784162302
 21
-146.77263928970041
 31
0.0
  0
LINE
  5
1A633
  8
SU
  6
CONTINUOUS
 62
     3
 10
286.15648784162312
 20
-148.65391282318129
 30
0.0
 11
286.15648784162312
 21
-146.8926392897005
 31
0.0
  0
LINE
  5
1A634
  8
SU
  6
CONTINUOUS
 62
     3
 10
286.35648784162282
 20
-148.53391282318131
 30
0.0
 11
286.35648784162282
 21
-147.0126392897005
 31
0.0
  0
LINE
  5
1A635
  8
SU
  6
CONTINUOUS
 62
     3
 10
286.55648784162281
 20
-148.41391282318131
 30
0.0
 11
286.55648784162281
 21
-147.13263928970051
 31
0.0
  0
LINE
  5
1A636
  8
SU
  6
CONTINUOUS
 62
     3
 10
286.75648784162308
 20
-148.2939128231809
 30
0.0
 11
286.75648784162308
 21
-147.25263928970051
 31
0.0
  0
LINE
  5
1A637
  8
SU
  6
CONTINUOUS
 62
     3
 10
286.95648784162302
 20
-148.1739128231813
 30
0.0
 11
286.95648784162302
 21
-147.3726392897004
 31
0.0
  0
LINE
  5
1A638
  8
SU
  6
CONTINUOUS
 62
     3
 10
287.15648784162312
 20
-148.05391282318109
 30
0.0
 11
287.15648784162312
 21
-147.49263928970029
 31
0.0
  0
LINE
  5
1A639
  8
SU
  6
CONTINUOUS
 62
     3
 10
287.35648784162311
 20
-147.9339128231812
 30
0.0
 11
287.35648784162311
 21
-147.61263928970041
 31
0.0
  0
LINE
  5
1A63A
  8
SU
  6
CONTINUOUS
 62
     3
 10
287.5564878416231
 20
-147.81391282318111
 30
0.0
 11
287.5564878416231
 21
-147.73263928970059
 31
0.0
  0
TEXT
  5
1A63B
  8
SU
  6
CONTINUOUS
 62
     3
 10
272.38326339744441
 20
-131.47327605644091
 30
0.0
 40
4.0
  1
24
 41
0.8299999999999999
  0
TEXT
  5
1A63C
  8
SU
  6
CONTINUOUS
 62
     3
 10
252.77850148488909
 20
-116.4732760564406
 30
0.0
 40
4.0
  1
4
 41
0.8299999999999999
  0
TEXT
  5
1A63D
  8
SU
  6
CONTINUOUS
 62
     3
 10
46.38326340523794
 20
60.026730109711288
 30
0.0
 40
4.0
  1
24
 41
0.8299999999999999
  0
TEXT
  5
1A63E
  8
SU
  6
CONTINUOUS
 62
     3
 10
65.711453881428483
 20
60.026730109711409
 30
0.0
 40
4.0
  1
（20）
 41
0.8299999999999999
  0
TEXT
  5
1A63F
  8
SU
  6
CONTINUOUS
 62
     3
 10
100.32421578619039
 20
-85.403752246931916
 30
0.0
 40
4.0
  1
7.5
 50
90.0
 41
0.8299999999999999
  0
TEXT
  5
1A640
  8
SU
  6
CONTINUOUS
 62
     3
 10
114.3242182347192
 20
-26.169317213872301
 30
0.0
 40
4.0
  1
113
 50
90.0
 41
0.8299999999999999
  0
TEXT
  5
1A641
  8
SU
  6
CONTINUOUS
 62
     3
 10
100.32421578619039
 20
-24.198036248755528
 30
0.0
 40
4.0
  1
11
 50
90.0
 41
0.8299999999999999
  0
TEXT
  5
1A642
  8
SU
  6
CONTINUOUS
 62
     3
 10
100.32421578619039
 20
-49.935179962121381
 30
0.0
 40
4.0
  1
40
 50
90.0
 41
0.8299999999999999
  0
TEXT
  5
1A643
  8
SU
  6
CONTINUOUS
 62
     3
 10
100.32421578619039
 20
-7.014227962145072
 30
0.0
 40
4.0
  1
24
 50
90.0
 41
0.8299999999999999
  0
TEXT
  5
1A644
  8
SU
  6
CONTINUOUS
 62
     3
 10
247.7114538814281
 20
60.026730109711522
 30
0.0
 40
4.0
  1
（20）
 41
0.8299999999999999
  0
TEXT
  5
1A645
  8
SU
  6
CONTINUOUS
 62
     3
 10
272.38326340417262
 20
60.026730109711409
 30
0.0
 40
4.0
  1
24
 41
0.8299999999999999
  0
TEXT
  5
1A646
  8
SU
  6
CONTINUOUS
 62
     3
 10
141.10745388142851
 20
-131.47327605644091
 30
0.0
 40
4.0
  1
ドアW（DW）＝W-56
 41
0.8299999999999999
  0
TEXT
  5
1A647
  8
SU
  6
CONTINUOUS
 62
     3
 10
69.14993008749137
 20
-116.4732760564406
 30
0.0
 40
4.0
  1
4
 41
0.8299999999999999
  0
TEXT
  5
1A648
  8
SU
  6
CONTINUOUS
 62
     3
 10
46.383263413031209
 20
-131.47327605644091
 30
0.0
 40
4.0
  1
24
 41
0.8299999999999999
  0
TEXT
  5
1A649
  8
SU
  6
CONTINUOUS
 62
     3
 10
100.32421578619019
 20
17.943390229242912
 30
0.0
 40
4.0
  1
30.5
 50
90.0
 41
0.8299999999999999
  0
TEXT
  5
1A64A
  8
SU
  6
CONTINUOUS
 62
     3
 10
-109.7469291244969
 20
-69.547617525061995
 30
0.0
 40
4.0
  1
5
 50
90.0
 41
0.8299999999999999
  0
TEXT
  5
1A64B
  8
SU
  6
CONTINUOUS
 62
     3
 10
-109.7469291244969
 20
-81.365714177099065
 30
0.0
 40
4.0
  1
15
 50
90.0
 41
0.8299999999999999
  0
TEXT
  5
1A64C
  8
SU
  6
CONTINUOUS
 62
     3
 10
-94.746929010995487
 20
-177.70910615798491
 30
0.0
 40
4.0
  1
H
 50
90.0
 41
0.8299999999999999
  0
TEXT
  5
1A64D
  8
SU
  6
CONTINUOUS
 62
     3
 10
-109.7469290109938
 20
-184.06434425322311
 30
0.0
 40
4.0
  1
ドアH（DH）
 50
90.0
 41
0.8299999999999999
  0
LINE
  5
1A64E
  8
SU
  6
CONTINUOUS
 62
     3
 10
-99.367565777735933
 20
-215.42636177257239
 30
0.0
 11
-87.526292244255089
 21
-215.42636177257239
 31
0.0
  0
LINE
  5
1A64F
  8
SU
  6
CONTINUOUS
 62
     3
 10
-99.247565777735915
 20
-215.6263617725723
 30
0.0
 11
-87.646292244255079
 21
-215.6263617725723
 31
0.0
  0
LINE
  5
1A650
  8
SU
  6
CONTINUOUS
 62
     3
 10
-99.127565777735995
 20
-215.82636177257251
 30
0.0
 11
-87.766292244255069
 21
-215.82636177257251
 31
0.0
  0
LINE
  5
1A651
  8
SU
  6
CONTINUOUS
 62
     3
 10
-99.007565777735991
 20
-216.0263617725725
 30
0.0
 11
-87.886292244255046
 21
-216.0263617725725
 31
0.0
  0
LINE
  5
1A652
  8
SU
  6
CONTINUOUS
 62
     3
 10
-98.887565777735986
 20
-216.22636177257249
 30
0.0
 11
-88.006292244255079
 21
-216.22636177257249
 31
0.0
  0
LINE
  5
1A653
  8
SU
  6
CONTINUOUS
 62
     3
 10
-98.767565777735982
 20
-216.42636177257231
 30
0.0
 11
-88.126292244255126
 21
-216.42636177257231
 31
0.0
  0
LINE
  5
1A654
  8
SU
  6
CONTINUOUS
 62
     3
 10
-98.647565777735963
 20
-216.62636177257241
 30
0.0
 11
-88.246292244255045
 21
-216.62636177257241
 31
0.0
  0
LINE
  5
1A655
  8
SU
  6
CONTINUOUS
 62
     3
 10
-98.527565777735973
 20
-216.82636177257231
 30
0.0
 11
-88.366292244255135
 21
-216.82636177257231
 31
0.0
  0
LINE
  5
1A656
  8
SU
  6
CONTINUOUS
 62
     3
 10
-98.407565777735954
 20
-217.0263617725725
 30
0.0
 11
-88.486292244255054
 21
-217.0263617725725
 31
0.0
  0
LINE
  5
1A657
  8
SU
  6
CONTINUOUS
 62
     3
 10
-98.287565777735963
 20
-217.22636177257229
 30
0.0
 11
-88.606292244255059
 21
-217.22636177257229
 31
0.0
  0
LINE
  5
1A658
  8
SU
  6
CONTINUOUS
 62
     3
 10
-98.167565777735945
 20
-217.42636177257239
 30
0.0
 11
-88.726292244255092
 21
-217.42636177257239
 31
0.0
  0
LINE
  5
1A659
  8
SU
  6
CONTINUOUS
 62
     3
 10
-98.047565777735954
 20
-217.6263617725723
 30
0.0
 11
-88.846292244255068
 21
-217.6263617725723
 31
0.0
  0
LINE
  5
1A65A
  8
SU
  6
CONTINUOUS
 62
     3
 10
-97.927565777735936
 20
-217.82636177257251
 30
0.0
 11
-88.966292244255087
 21
-217.82636177257251
 31
0.0
  0
LINE
  5
1A65B
  8
SU
  6
CONTINUOUS
 62
     3
 10
-97.807565777735945
 20
-218.0263617725725
 30
0.0
 11
-89.086292244255063
 21
-218.0263617725725
 31
0.0
  0
LINE
  5
1A65C
  8
SU
  6
CONTINUOUS
 62
     3
 10
-97.687565777735941
 20
-218.22636177257249
 30
0.0
 11
-89.206292244255096
 21
-218.22636177257249
 31
0.0
  0
LINE
  5
1A65D
  8
SU
  6
CONTINUOUS
 62
     3
 10
-97.567565777735936
 20
-218.42636177257231
 30
0.0
 11
-89.326292244255072
 21
-218.42636177257231
 31
0.0
  0
LINE
  5
1A65E
  8
SU
  6
CONTINUOUS
 62
     3
 10
-97.447565777735932
 20
-218.62636177257241
 30
0.0
 11
-89.446292244255105
 21
-218.62636177257241
 31
0.0
  0
LINE
  5
1A65F
  8
SU
  6
CONTINUOUS
 62
     3
 10
-97.327565777735927
 20
-218.82636177257231
 30
0.0
 11
-89.566292244255123
 21
-218.82636177257231
 31
0.0
  0
LINE
  5
1A660
  8
SU
  6
CONTINUOUS
 62
     3
 10
-97.207565777735965
 20
-219.0263617725725
 30
0.0
 11
-89.686292244255071
 21
-219.0263617725725
 31
0.0
  0
LINE
  5
1A661
  8
SU
  6
CONTINUOUS
 62
     3
 10
-97.087565777735975
 20
-219.22636177257229
 30
0.0
 11
-89.806292244255147
 21
-219.22636177257229
 31
0.0
  0
LINE
  5
1A662
  8
SU
  6
CONTINUOUS
 62
     3
 10
-96.967565777735956
 20
-219.42636177257231
 30
0.0
 11
-89.926292244255109
 21
-219.42636177257231
 31
0.0
  0
LINE
  5
1A663
  8
SU
  6
CONTINUOUS
 62
     3
 10
-96.847565777735966
 20
-219.6263617725723
 30
0.0
 11
-90.046292244255142
 21
-219.6263617725723
 31
0.0
  0
LINE
  5
1A664
  8
SU
  6
CONTINUOUS
 62
     3
 10
-96.727565777735933
 20
-219.82636177257251
 30
0.0
 11
-90.166292244255089
 21
-219.82636177257251
 31
0.0
  0
LINE
  5
1A665
  8
SU
  6
CONTINUOUS
 62
     3
 10
-96.607565777735971
 20
-220.0263617725725
 30
0.0
 11
-90.286292244255065
 21
-220.0263617725725
 31
0.0
  0
LINE
  5
1A666
  8
SU
  6
CONTINUOUS
 62
     3
 10
-96.487565777735938
 20
-220.22636177257249
 30
0.0
 11
-90.406292244255084
 21
-220.22636177257249
 31
0.0
  0
LINE
  5
1A667
  8
SU
  6
CONTINUOUS
 62
     3
 10
-96.367565777735919
 20
-220.42636177257231
 30
0.0
 11
-90.526292244255075
 21
-220.42636177257231
 31
0.0
  0
LINE
  5
1A668
  8
SU
  6
CONTINUOUS
 62
     3
 10
-96.247565777735943
 20
-220.62636177257241
 30
0.0
 11
-90.646292244255065
 21
-220.62636177257241
 31
0.0
  0
LINE
  5
1A669
  8
SU
  6
CONTINUOUS
 62
     3
 10
-96.127565777735924
 20
-220.82636177257231
 30
0.0
 11
-90.766292244255126
 21
-220.82636177257231
 31
0.0
  0
LINE
  5
1A66A
  8
SU
  6
CONTINUOUS
 62
     3
 10
-96.007565777735962
 20
-221.0263617725725
 30
0.0
 11
-90.886292244255117
 21
-221.0263617725725
 31
0.0
  0
LINE
  5
1A66B
  8
SU
  6
CONTINUOUS
 62
     3
 10
-95.887565777735958
 20
-221.22636177257229
 30
0.0
 11
-91.006292244255121
 21
-221.22636177257229
 31
0.0
  0
LINE
  5
1A66C
  8
SU
  6
CONTINUOUS
 62
     3
 10
-95.767565777735953
 20
-221.42636177257231
 30
0.0
 11
-91.126292244255083
 21
-221.42636177257231
 31
0.0
  0
LINE
  5
1A66D
  8
SU
  6
CONTINUOUS
 62
     3
 10
-95.647565777735963
 20
-221.6263617725723
 30
0.0
 11
-91.246292244255088
 21
-221.6263617725723
 31
0.0
  0
LINE
  5
1A66E
  8
SU
  6
CONTINUOUS
 62
     3
 10
-95.527565777735958
 20
-221.8263617725724
 30
0.0
 11
-91.366292244255078
 21
-221.8263617725724
 31
0.0
  0
LINE
  5
1A66F
  8
SU
  6
CONTINUOUS
 62
     3
 10
-95.407565777735954
 20
-222.0263617725725
 30
0.0
 11
-91.486292244255083
 21
-222.0263617725725
 31
0.0
  0
LINE
  5
1A670
  8
SU
  6
CONTINUOUS
 62
     3
 10
-95.287565777735963
 20
-222.22636177257249
 30
0.0
 11
-91.606292244255087
 21
-222.22636177257249
 31
0.0
  0
LINE
  5
1A671
  8
SU
  6
CONTINUOUS
 62
     3
 10
-95.167565777735945
 20
-222.42636177257239
 30
0.0
 11
-91.726292244255092
 21
-222.42636177257239
 31
0.0
  0
LINE
  5
1A672
  8
SU
  6
CONTINUOUS
 62
     3
 10
-95.04756577773594
 20
-222.62636177257241
 30
0.0
 11
-91.846292244255082
 21
-222.62636177257241
 31
0.0
  0
LINE
  5
1A673
  8
SU
  6
CONTINUOUS
 62
     3
 10
-94.927565777735921
 20
-222.8263617725724
 30
0.0
 11
-91.966292244255087
 21
-222.8263617725724
 31
0.0
  0
LINE
  5
1A674
  8
SU
  6
CONTINUOUS
 62
     3
 10
-94.807565777735917
 20
-223.0263617725725
 30
0.0
 11
-92.086292244255091
 21
-223.0263617725725
 31
0.0
  0
LINE
  5
1A675
  8
SU
  6
CONTINUOUS
 62
     3
 10
-94.687565777735927
 20
-223.2263617725724
 30
0.0
 11
-92.206292244255124
 21
-223.2263617725724
 31
0.0
  0
LINE
  5
1A676
  8
SU
  6
CONTINUOUS
 62
     3
 10
-94.567565777735922
 20
-223.42636177257231
 30
0.0
 11
-92.326292244255129
 21
-223.42636177257231
 31
0.0
  0
LINE
  5
1A677
  8
SU
  6
CONTINUOUS
 62
     3
 10
-94.447565777735917
 20
-223.62636177257241
 30
0.0
 11
-92.446292244255133
 21
-223.62636177257241
 31
0.0
  0
LINE
  5
1A678
  8
SU
  6
CONTINUOUS
 62
     3
 10
-94.327565777735913
 20
-223.8263617725724
 30
0.0
 11
-92.566292244255123
 21
-223.8263617725724
 31
0.0
  0
LINE
  5
1A679
  8
SU
  6
CONTINUOUS
 62
     3
 10
-94.207565777735965
 20
-224.0263617725725
 30
0.0
 11
-92.686292244255156
 21
-224.0263617725725
 31
0.0
  0
LINE
  5
1A67A
  8
SU
  6
CONTINUOUS
 62
     3
 10
-94.087565777735961
 20
-224.22636177257249
 30
0.0
 11
-92.806292244255076
 21
-224.22636177257249
 31
0.0
  0
LINE
  5
1A67B
  8
SU
  6
CONTINUOUS
 62
     3
 10
-93.967565777735956
 20
-224.42636177257239
 30
0.0
 11
-92.926292244255094
 21
-224.42636177257239
 31
0.0
  0
LINE
  5
1A67C
  8
SU
  6
CONTINUOUS
 62
     3
 10
-93.847565777735952
 20
-224.62636177257241
 30
0.0
 11
-93.046292244255085
 21
-224.62636177257241
 31
0.0
  0
LINE
  5
1A67D
  8
SU
  6
CONTINUOUS
 62
     3
 10
-93.727565777735904
 20
-224.8263617725724
 30
0.0
 11
-93.166292244255104
 21
-224.8263617725724
 31
0.0
  0
LINE
  5
1A67E
  8
SU
  6
CONTINUOUS
 62
     3
 10
-93.607565777735942
 20
-225.0263617725725
 30
0.0
 11
-93.28629224425508
 21
-225.0263617725725
 31
0.0
  0
LINE
  5
1A67F
  8
SU
  6
CONTINUOUS
 62
     3
 10
-93.487565777735938
 20
-225.2263617725724
 30
0.0
 11
-93.406292244255084
 21
-225.2263617725724
 31
0.0
  0
TEXT
  5
1A680
  8
SU
  6
CONTINUOUS
 62
     3
 10
-109.7469290109938
 20
-222.87504209809239
 30
0.0
 40
4.0
  1
8
 50
90.0
 41
0.8299999999999999
  0
TEXT
  5
1A681
  8
SU
  6
CONTINUOUS
 62
     3
 10
-94.746929010995487
 20
-234.6931373361877
 30
0.0
 40
4.0
  1
12
 50
90.0
 41
0.8299999999999999
  0
TEXT
  5
1A682
  8
SU
  6
CONTINUOUS
 62
     3
 10
-277.74692912449632
 20
-95.016191781517108
 30
0.0
 40
4.0
  1
15
 50
90.0
 41
0.8299999999999999
  0
TEXT
  5
1A683
  8
SU
  6
CONTINUOUS
 62
     3
 10
-277.74692912449632
 20
-63.628569906014377
 30
0.0
 40
4.0
  1
20
 50
90.0
 41
0.8299999999999999
  0
TEXT
  5
1A684
  8
SU
  6
CONTINUOUS
 62
     3
 10
-292.74692912449632
 20
-71.128571319956237
 30
0.0
 40
4.0
  1
35
 50
90.0
 41
0.8299999999999999
  0
TEXT
  5
1A685
  8
SU
  6
CONTINUOUS
 62
     3
 10
-174.10883474460911
 20
80.829488698420533
 30
0.0
 40
4.0
  1
40
 41
0.8299999999999999
  0
TEXT
  5
1A686
  8
SU
  6
CONTINUOUS
 62
     3
 10
-199.37169274184839
 20
80.829488698420661
 30
0.0
 40
4.0
  1
11
 41
0.8299999999999999
  0
TEXT
  5
1A687
  8
SU
  6
CONTINUOUS
 62
     3
 10
-217.1878819809653
 20
80.829488698420818
 30
0.0
 40
4.0
  1
24
 41
0.8299999999999999
  0
TEXT
  5
1A688
  8
SU
  6
CONTINUOUS
 62
     3
 10
-245.2302620768638
 20
80.829488698420974
 30
0.0
 40
4.0
  1
27.5
 41
0.8299999999999999
  0
TEXT
  5
1A689
  8
SU
  6
CONTINUOUS
 62
     3
 10
-265.23454817211729
 20
-104.16666797200121
 30
0.0
 40
4.0
  1
3
 41
0.8299999999999999
  0
LINE
  5
1A68A
  8
SU
  6
CONTINUOUS
 62
     3
 10
-253.4469292380013
 20
-105.4666679720012
 30
0.0
 11
-251.0469292380013
 21
-105.4666679720012
 31
0.0
  0
TEXT
  5
1A68B
  8
SU
  6
CONTINUOUS
 62
     3
 10
-204.92692924256511
 20
-104.16666797200099
 30
0.0
 40
4.0
  1
107
 41
0.8299999999999999
  0
ARC
  5
1A68C
  8
SU
  6
CONTINUOUS
 62
     3
 10
-253.4469292380013
 20
-105.46666797200101
 30
0.0
 40
0.3000000000000114
 50
0.0
 51
180.0
  0
ARC
  5
1A68D
  8
SU
  6
CONTINUOUS
 62
     3
 10
-253.4469292380013
 20
-105.46666797200101
 30
0.0
 40
0.3000000000000114
 50
180.0
 51
0.0
  0
ARC
  5
1A68E
  8
SU
  6
CONTINUOUS
 62
     3
 10
-146.44692924712879
 20
-105.46666797200101
 30
0.0
 40
0.3000000000000114
 50
180.0
 51
0.0
  0
ARC
  5
1A68F
  8
SU
  6
CONTINUOUS
 62
     3
 10
-146.44692924712879
 20
-105.46666797200101
 30
0.0
 40
0.3000000000000114
 50
0.0
 51
180.0
  0
ARC
  5
1A690
  8
SU
  6
CONTINUOUS
 62
     3
 10
-253.4469292380013
 20
-105.4666679720012
 30
0.0
 40
0.3000000000000114
 50
0.0
 51
180.0
  0
ARC
  5
1A691
  8
SU
  6
CONTINUOUS
 62
     3
 10
-253.4469292380013
 20
-105.4666679720012
 30
0.0
 40
0.3000000000000114
 50
180.0
 51
0.0
  0
ARC
  5
1A692
  8
SU
  6
CONTINUOUS
 62
     3
 10
-256.4469291244983
 20
-105.4666679720012
 30
0.0
 40
0.3000000000000114
 50
180.0
 51
0.0
  0
ARC
  5
1A693
  8
SU
  6
CONTINUOUS
 62
     3
 10
-256.4469291244983
 20
-105.4666679720012
 30
0.0
 40
0.3000000000000114
 50
0.0
 51
180.0
  0
ARC
  5
1A694
  8
SU
  6
CONTINUOUS
 62
     3
 10
-225.9469283625626
 20
79.529488698420977
 30
0.0
 40
0.3000000000000114
 50
180.0
 51
0.0
  0
ARC
  5
1A695
  8
SU
  6
CONTINUOUS
 62
     3
 10
-225.9469283625626
 20
79.529488698420977
 30
0.0
 40
0.3000000000000114
 50
0.0
 51
180.0
  0
ARC
  5
1A696
  8
SU
  6
CONTINUOUS
 62
     3
 10
-253.4469291244983
 20
79.529488698420977
 30
0.0
 40
0.3000000000000114
 50
0.0
 51
180.0
  0
ARC
  5
1A697
  8
SU
  6
CONTINUOUS
 62
     3
 10
-253.4469291244983
 20
79.529488698420977
 30
0.0
 40
0.3000000000000114
 50
180.0
 51
0.0
  0
ARC
  5
1A698
  8
SU
  6
CONTINUOUS
 62
     3
 10
-201.94693083721211
 20
79.529488698420806
 30
0.0
 40
0.3000000000000114
 50
180.0
 51
0.0
  0
ARC
  5
1A699
  8
SU
  6
CONTINUOUS
 62
     3
 10
-201.94693083721211
 20
79.529488698420806
 30
0.0
 40
0.3000000000000114
 50
0.0
 51
180.0
  0
ARC
  5
1A69A
  8
SU
  6
CONTINUOUS
 62
     3
 10
-225.94692836281351
 20
79.529488698420806
 30
0.0
 40
0.3000000000000114
 50
0.0
 51
180.0
  0
ARC
  5
1A69B
  8
SU
  6
CONTINUOUS
 62
     3
 10
-225.94692836281351
 20
79.529488698420806
 30
0.0
 40
0.3000000000000114
 50
180.0
 51
0.0
  0
ARC
  5
1A69C
  8
SU
  6
CONTINUOUS
 62
     3
 10
-190.9469308369608
 20
79.529488698420664
 30
0.0
 40
0.3000000000000114
 50
180.0
 51
0.0
  0
ARC
  5
1A69D
  8
SU
  6
CONTINUOUS
 62
     3
 10
-190.9469308369608
 20
79.529488698420664
 30
0.0
 40
0.3000000000000114
 50
0.0
 51
180.0
  0
ARC
  5
1A69E
  8
SU
  6
CONTINUOUS
 62
     3
 10
-201.94693083721211
 20
79.529488698420664
 30
0.0
 40
0.3000000000000114
 50
0.0
 51
180.0
  0
ARC
  5
1A69F
  8
SU
  6
CONTINUOUS
 62
     3
 10
-201.94693083721211
 20
79.529488698420664
 30
0.0
 40
0.3000000000000114
 50
180.0
 51
0.0
  0
ARC
  5
1A6A0
  8
SU
  6
CONTINUOUS
 62
     3
 10
-150.94692912844781
 20
79.529488698420536
 30
0.0
 40
0.3000000000000114
 50
180.0
 51
0.0
  0
ARC
  5
1A6A1
  8
SU
  6
CONTINUOUS
 62
     3
 10
-150.94692912844781
 20
79.529488698420536
 30
0.0
 40
0.3000000000000114
 50
0.0
 51
180.0
  0
ARC
  5
1A6A2
  8
SU
  6
CONTINUOUS
 62
     3
 10
-190.9469308369608
 20
79.529488698420536
 30
0.0
 40
0.3000000000000114
 50
0.0
 51
180.0
  0
ARC
  5
1A6A3
  8
SU
  6
CONTINUOUS
 62
     3
 10
-190.9469308369608
 20
79.529488698420536
 30
0.0
 40
0.3000000000000114
 50
180.0
 51
0.0
  0
ARC
  5
1A6A4
  8
SU
  6
CONTINUOUS
 62
     3
 10
-291.44692912449631
 20
-85.466667971993274
 30
0.0
 40
0.2999999999999971
 50
90.0
 51
270.0
  0
ARC
  5
1A6A5
  8
SU
  6
CONTINUOUS
 62
     3
 10
-291.44692912449631
 20
-85.466667971993274
 30
0.0
 40
0.2999999999999971
 50
270.0
 51
90.0
  0
ARC
  5
1A6A6
  8
SU
  6
CONTINUOUS
 62
     3
 10
-291.44692912449631
 20
-50.466665144109562
 30
0.0
 40
0.2999999999999971
 50
270.0
 51
90.0
  0
ARC
  5
1A6A7
  8
SU
  6
CONTINUOUS
 62
     3
 10
-291.44692912449631
 20
-50.466665144109562
 30
0.0
 40
0.2999999999999971
 50
90.0
 51
270.0
  0
ARC
  5
1A6A8
  8
SU
  6
CONTINUOUS
 62
     3
 10
-276.44692912449631
 20
-70.466665144109569
 30
0.0
 40
0.2999999999999971
 50
90.0
 51
270.0
  0
ARC
  5
1A6A9
  8
SU
  6
CONTINUOUS
 62
     3
 10
-276.44692912449631
 20
-70.466665144109569
 30
0.0
 40
0.2999999999999971
 50
270.0
 51
90.0
  0
ARC
  5
1A6AA
  8
SU
  6
CONTINUOUS
 62
     3
 10
-276.44692912449631
 20
-50.466665144109577
 30
0.0
 40
0.2999999999999971
 50
270.0
 51
90.0
  0
ARC
  5
1A6AB
  8
SU
  6
CONTINUOUS
 62
     3
 10
-276.44692912449631
 20
-50.466665144109577
 30
0.0
 40
0.2999999999999971
 50
90.0
 51
270.0
  0
ARC
  5
1A6AC
  8
SU
  6
CONTINUOUS
 62
     3
 10
-276.44692912449631
 20
-70.466665144109569
 30
0.0
 40
0.2999999999999971
 50
270.0
 51
90.0
  0
ARC
  5
1A6AD
  8
SU
  6
CONTINUOUS
 62
     3
 10
-276.44692912449631
 20
-70.466665144109569
 30
0.0
 40
0.2999999999999971
 50
90.0
 51
270.0
  0
ARC
  5
1A6AE
  8
SU
  6
CONTINUOUS
 62
     3
 10
-276.44692912449631
 20
-85.466667971993274
 30
0.0
 40
0.2999999999999971
 50
90.0
 51
270.0
  0
ARC
  5
1A6AF
  8
SU
  6
CONTINUOUS
 62
     3
 10
-276.44692912449631
 20
-85.466667971993274
 30
0.0
 40
0.2999999999999971
 50
270.0
 51
90.0
  0
ARC
  5
1A6B0
  8
SU
  6
CONTINUOUS
 62
     3
 10
-93.446929010995547
 20
-237.29408971714
 30
0.0
 40
0.3000000000000114
 50
90.0
 51
270.0
  0
ARC
  5
1A6B1
  8
SU
  6
CONTINUOUS
 62
     3
 10
-93.446929010995547
 20
-237.29408971714
 30
0.0
 40
0.3000000000000114
 50
270.0
 51
90.0
  0
ARC
  5
1A6B2
  8
SU
  6
CONTINUOUS
 62
     3
 10
-108.4469290109942
 20
-225.29408971714
 30
0.0
 40
0.3000000000000114
 50
90.0
 51
270.0
  0
ARC
  5
1A6B3
  8
SU
  6
CONTINUOUS
 62
     3
 10
-108.4469290109942
 20
-225.29408971714
 30
0.0
 40
0.3000000000000114
 50
270.0
 51
90.0
  0
ARC
  5
1A6B4
  8
SU
  6
CONTINUOUS
 62
     3
 10
-108.4469290109941
 20
-217.29408971713991
 30
0.0
 40
0.3000000000000114
 50
90.0
 51
270.0
  0
ARC
  5
1A6B5
  8
SU
  6
CONTINUOUS
 62
     3
 10
-108.4469290109941
 20
-217.29408971713991
 30
0.0
 40
0.3000000000000114
 50
270.0
 51
90.0
  0
ARC
  5
1A6B6
  8
SU
  6
CONTINUOUS
 62
     3
 10
-108.4469291244969
 20
-85.466667971993274
 30
0.0
 40
0.2999999999999971
 50
90.0
 51
270.0
  0
ARC
  5
1A6B7
  8
SU
  6
CONTINUOUS
 62
     3
 10
-108.4469291244969
 20
-85.466667971993274
 30
0.0
 40
0.2999999999999971
 50
270.0
 51
90.0
  0
ARC
  5
1A6B8
  8
SU
  6
CONTINUOUS
 62
     3
 10
-108.4469291244969
 20
-70.466665144109569
 30
0.0
 40
0.2999999999999971
 50
90.0
 51
270.0
  0
ARC
  5
1A6B9
  8
SU
  6
CONTINUOUS
 62
     3
 10
-108.4469291244969
 20
-70.466665144109569
 30
0.0
 40
0.2999999999999971
 50
270.0
 51
90.0
  0
ARC
  5
1A6BA
  8
SU
  6
CONTINUOUS
 62
     3
 10
101.6242157861904
 20
38.726723943544222
 30
0.0
 40
0.2999999999999971
 50
270.0
 51
90.0
  0
ARC
  5
1A6BB
  8
SU
  6
CONTINUOUS
 62
     3
 10
101.6242157861904
 20
38.726723943544222
 30
0.0
 40
0.2999999999999971
 50
90.0
 51
270.0
  0
ARC
  5
1A6BC
  8
SU
  6
CONTINUOUS
 62
     3
 10
37.624215786190149
 20
-132.77327605644061
 30
0.0
 40
0.2999999999999971
 50
0.0
 51
180.0
  0
ARC
  5
1A6BD
  8
SU
  6
CONTINUOUS
 62
     3
 10
37.624215786190149
 20
-132.77327605644061
 30
0.0
 40
0.2999999999999971
 50
180.0
 51
0.0
  0
ARC
  5
1A6BE
  8
SU
  6
CONTINUOUS
 62
     3
 10
65.624215801777083
 20
-132.77327605644061
 30
0.0
 40
0.2999999999999971
 50
180.0
 51
0.0
  0
ARC
  5
1A6BF
  8
SU
  6
CONTINUOUS
 62
     3
 10
65.624215801777083
 20
-132.77327605644061
 30
0.0
 40
0.2999999999999971
 50
0.0
 51
180.0
  0
ARC
  5
1A6C0
  8
SU
  6
CONTINUOUS
 62
     3
 10
61.624215786190213
 20
-132.77327605644061
 30
0.0
 40
0.2999999999999971
 50
0.0
 51
180.0
  0
ARC
  5
1A6C1
  8
SU
  6
CONTINUOUS
 62
     3
 10
61.624215786190213
 20
-132.77327605644061
 30
0.0
 40
0.2999999999999971
 50
180.0
 51
0.0
  0
ARC
  5
1A6C2
  8
SU
  6
CONTINUOUS
 62
     3
 10
259.62421577060348
 20
-132.77327605644061
 30
0.0
 40
0.3000000000000114
 50
180.0
 51
0.0
  0
ARC
  5
1A6C3
  8
SU
  6
CONTINUOUS
 62
     3
 10
259.62421577060348
 20
-132.77327605644061
 30
0.0
 40
0.3000000000000114
 50
0.0
 51
180.0
  0
ARC
  5
1A6C4
  8
SU
  6
CONTINUOUS
 62
     3
 10
65.624215801777311
 20
-132.77327605644061
 30
0.0
 40
0.2999999999999971
 50
0.0
 51
180.0
  0
ARC
  5
1A6C5
  8
SU
  6
CONTINUOUS
 62
     3
 10
65.624215801777311
 20
-132.77327605644061
 30
0.0
 40
0.2999999999999971
 50
180.0
 51
0.0
  0
ARC
  5
1A6C6
  8
SU
  6
CONTINUOUS
 62
     3
 10
263.62421578619012
 20
58.726730109711411
 30
0.0
 40
0.3000000000000114
 50
0.0
 51
180.0
  0
ARC
  5
1A6C7
  8
SU
  6
CONTINUOUS
 62
     3
 10
263.62421578619012
 20
58.726730109711411
 30
0.0
 40
0.3000000000000114
 50
180.0
 51
0.0
  0
ARC
  5
1A6C8
  8
SU
  6
CONTINUOUS
 62
     3
 10
287.62421578406031
 20
58.726730109711411
 30
0.0
 40
0.3000000000000114
 50
180.0
 51
0.0
  0
ARC
  5
1A6C9
  8
SU
  6
CONTINUOUS
 62
     3
 10
287.62421578406031
 20
58.726730109711411
 30
0.0
 40
0.3000000000000114
 50
0.0
 51
180.0
  0
ARC
  5
1A6CA
  8
SU
  6
CONTINUOUS
 62
     3
 10
243.62421578619009
 20
58.726730109711518
 30
0.0
 40
0.3000000000000114
 50
0.0
 51
180.0
  0
ARC
  5
1A6CB
  8
SU
  6
CONTINUOUS
 62
     3
 10
243.62421578619009
 20
58.726730109711518
 30
0.0
 40
0.3000000000000114
 50
180.0
 51
0.0
  0
ARC
  5
1A6CC
  8
SU
  6
CONTINUOUS
 62
     3
 10
101.6242157861904
 20
8.226723181608234
 30
0.0
 40
0.2999999999999998
 50
270.0
 51
90.0
  0
ARC
  5
1A6CD
  8
SU
  6
CONTINUOUS
 62
     3
 10
101.6242157861904
 20
8.226723181608234
 30
0.0
 40
0.3000000000000007
 50
90.0
 51
270.0
  0
ARC
  5
1A6CE
  8
SU
  6
CONTINUOUS
 62
     3
 10
101.6242157861904
 20
-66.773276056439613
 30
0.0
 40
0.2999999999999971
 50
90.0
 51
270.0
  0
ARC
  5
1A6CF
  8
SU
  6
CONTINUOUS
 62
     3
 10
101.6242157861904
 20
-66.773276056439613
 30
0.0
 40
0.2999999999999971
 50
270.0
 51
90.0
  0
ARC
  5
1A6D0
  8
SU
  6
CONTINUOUS
 62
     3
 10
101.6242157861904
 20
-26.773274343993641
 30
0.0
 40
0.3000000000000007
 50
90.0
 51
270.0
  0
ARC
  5
1A6D1
  8
SU
  6
CONTINUOUS
 62
     3
 10
101.6242157861904
 20
-26.773274343993641
 30
0.0
 40
0.3000000000000007
 50
270.0
 51
90.0
  0
ARC
  5
1A6D2
  8
SU
  6
CONTINUOUS
 62
     3
 10
101.6242157861904
 20
-15.773274343993631
 30
0.0
 40
0.3000000000000007
 50
270.0
 51
90.0
  0
ARC
  5
1A6D3
  8
SU
  6
CONTINUOUS
 62
     3
 10
101.6242157861904
 20
-15.773274343993631
 30
0.0
 40
0.3000000000000007
 50
90.0
 51
270.0
  0
ARC
  5
1A6D4
  8
SU
  6
CONTINUOUS
 62
     3
 10
115.62421823471919
 20
38.726723943544222
 30
0.0
 40
0.2999999999999971
 50
270.0
 51
90.0
  0
ARC
  5
1A6D5
  8
SU
  6
CONTINUOUS
 62
     3
 10
115.62421823471919
 20
38.726723943544222
 30
0.0
 40
0.2999999999999971
 50
90.0
 51
270.0
  0
ARC
  5
1A6D6
  8
SU
  6
CONTINUOUS
 62
     3
 10
115.62421823471919
 20
-74.273276056455785
 30
0.0
 40
0.2999999999999971
 50
90.0
 51
270.0
  0
ARC
  5
1A6D7
  8
SU
  6
CONTINUOUS
 62
     3
 10
115.62421823471919
 20
-74.273276056455785
 30
0.0
 40
0.2999999999999971
 50
270.0
 51
90.0
  0
ARC
  5
1A6D8
  8
SU
  6
CONTINUOUS
 62
     3
 10
101.6242157861904
 20
-66.773276056439613
 30
0.0
 40
0.2999999999999971
 50
270.0
 51
90.0
  0
ARC
  5
1A6D9
  8
SU
  6
CONTINUOUS
 62
     3
 10
101.6242157861904
 20
-66.773276056439613
 30
0.0
 40
0.2999999999999971
 50
90.0
 51
270.0
  0
ARC
  5
1A6DA
  8
SU
  6
CONTINUOUS
 62
     3
 10
101.6242157861904
 20
-74.273276056455785
 30
0.0
 40
0.2999999999999971
 50
90.0
 51
270.0
  0
ARC
  5
1A6DB
  8
SU
  6
CONTINUOUS
 62
     3
 10
101.6242157861904
 20
-74.273276056455785
 30
0.0
 40
0.2999999999999971
 50
270.0
 51
90.0
  0
ARC
  5
1A6DC
  8
SU
  6
CONTINUOUS
 62
     3
 10
81.624215786190405
 20
58.726730109711411
 30
0.0
 40
0.2999999999999971
 50
180.0
 51
0.0
  0
ARC
  5
1A6DD
  8
SU
  6
CONTINUOUS
 62
     3
 10
81.624215786190405
 20
58.726730109711411
 30
0.0
 40
0.2999999999999971
 50
0.0
 51
180.0
  0
ARC
  5
1A6DE
  8
SU
  6
CONTINUOUS
 62
     3
 10
61.624215786190391
 20
58.726730109711298
 30
0.0
 40
0.2999999999999971
 50
180.0
 51
0.0
  0
ARC
  5
1A6DF
  8
SU
  6
CONTINUOUS
 62
     3
 10
61.624215786190391
 20
58.726730109711298
 30
0.0
 40
0.2999999999999971
 50
0.0
 51
180.0
  0
ARC
  5
1A6E0
  8
SU
  6
CONTINUOUS
 62
     3
 10
37.624215786190291
 20
58.726730109711298
 30
0.0
 40
0.2999999999999971
 50
0.0
 51
180.0
  0
ARC
  5
1A6E1
  8
SU
  6
CONTINUOUS
 62
     3
 10
37.624215786190291
 20
58.726730109711298
 30
0.0
 40
0.2999999999999971
 50
180.0
 51
0.0
  0
ARC
  5
1A6E2
  8
SU
  6
CONTINUOUS
 62
     3
 10
259.62421577060348
 20
-132.77327605644061
 30
0.0
 40
0.3000000000000114
 50
0.0
 51
180.0
  0
ARC
  5
1A6E3
  8
SU
  6
CONTINUOUS
 62
     3
 10
259.62421577060348
 20
-132.77327605644061
 30
0.0
 40
0.3000000000000114
 50
180.0
 51
0.0
  0
ARC
  5
1A6E4
  8
SU
  6
CONTINUOUS
 62
     3
 10
263.62421578619012
 20
-132.77327605644061
 30
0.0
 40
0.3000000000000114
 50
180.0
 51
0.0
  0
ARC
  5
1A6E5
  8
SU
  6
CONTINUOUS
 62
     3
 10
263.62421578619012
 20
-132.77327605644061
 30
0.0
 40
0.3000000000000114
 50
0.0
 51
180.0
  0
ARC
  5
1A6E6
  8
SU
  6
CONTINUOUS
 62
     3
 10
287.62421578619012
 20
-132.77327605644061
 30
0.0
 40
0.3000000000000114
 50
180.0
 51
0.0
  0
ARC
  5
1A6E7
  8
SU
  6
CONTINUOUS
 62
     3
 10
287.62421578619012
 20
-132.77327605644061
 30
0.0
 40
0.3000000000000114
 50
0.0
 51
180.0
  0
ARC
  5
1A6E8
  8
SU
  6
CONTINUOUS
 62
     3
 10
-33.375786662338712
 20
-50.273276056454392
 30
0.0
 40
0.2999999999999971
 50
90.0
 51
270.0
  0
ARC
  5
1A6E9
  8
SU
  6
CONTINUOUS
 62
     3
 10
-33.375786662338712
 20
-50.273276056454392
 30
0.0
 40
0.2999999999999971
 50
270.0
 51
90.0
  0
ARC
  5
1A6EA
  8
SU
  6
CONTINUOUS
 62
     3
 10
-33.375786662338697
 20
14.726723943545579
 30
0.0
 40
0.3000000000000007
 50
270.0
 51
90.0
  0
ARC
  5
1A6EB
  8
SU
  6
CONTINUOUS
 62
     3
 10
-33.375786662338697
 20
14.726723943545579
 30
0.0
 40
0.3000000000000007
 50
90.0
 51
270.0
  0
ARC
  5
1A6EC
  8
SU
  6
CONTINUOUS
 62
     3
 10
-33.375786662338697
 20
27.226723943545601
 30
0.0
 40
0.3000000000000007
 50
270.0
 51
90.0
  0
ARC
  5
1A6ED
  8
SU
  6
CONTINUOUS
 62
     3
 10
-33.375786662338697
 20
27.226723943545601
 30
0.0
 40
0.3000000000000007
 50
90.0
 51
270.0
  0
ARC
  5
1A6EE
  8
SU
  6
CONTINUOUS
 62
     3
 10
-48.375786662338697
 20
27.226723943545601
 30
0.0
 40
0.3000000000000007
 50
90.0
 51
270.0
  0
ARC
  5
1A6EF
  8
SU
  6
CONTINUOUS
 62
     3
 10
-48.375786662338697
 20
27.226723943545601
 30
0.0
 40
0.3000000000000007
 50
270.0
 51
90.0
  0
ARC
  5
1A6F0
  8
SU
  6
CONTINUOUS
 62
     3
 10
-48.375786662338697
 20
38.726723943545608
 30
0.0
 40
0.2999999999999971
 50
270.0
 51
90.0
  0
ARC
  5
1A6F1
  8
SU
  6
CONTINUOUS
 62
     3
 10
-48.375786662338697
 20
38.726723943545608
 30
0.0
 40
0.2999999999999971
 50
90.0
 51
270.0
  0
ARC
  5
1A6F2
  8
SU
  6
CONTINUOUS
 62
     3
 10
-48.375786662338712
 20
-62.773276056454392
 30
0.0
 40
0.2999999999999971
 50
270.0
 51
90.0
  0
ARC
  5
1A6F3
  8
SU
  6
CONTINUOUS
 62
     3
 10
-48.375786662338712
 20
-62.773276056454392
 30
0.0
 40
0.2999999999999971
 50
90.0
 51
270.0
  0
ARC
  5
1A6F4
  8
SU
  6
CONTINUOUS
 62
     3
 10
-48.375786662338712
 20
-74.273276056455742
 30
0.0
 40
0.2999999999999971
 50
90.0
 51
270.0
  0
ARC
  5
1A6F5
  8
SU
  6
CONTINUOUS
 62
     3
 10
-48.375786662338712
 20
-74.273276056455742
 30
0.0
 40
0.2999999999999971
 50
270.0
 51
90.0
  0
ARC
  5
1A6F6
  8
SU
  6
CONTINUOUS
 62
     3
 10
-33.375786662338719
 20
-62.773276056454392
 30
0.0
 40
0.2999999999999971
 50
90.0
 51
270.0
  0
ARC
  5
1A6F7
  8
SU
  6
CONTINUOUS
 62
     3
 10
-33.375786662338719
 20
-62.773276056454392
 30
0.0
 40
0.2999999999999971
 50
270.0
 51
90.0
  0
ARC
  5
1A6F8
  8
SU
  6
CONTINUOUS
 62
     3
 10
-108.4469291244969
 20
118.029488698419
 30
0.0
 40
0.2999999999999971
 50
90.0
 51
270.0
  0
ARC
  5
1A6F9
  8
SU
  6
CONTINUOUS
 62
     3
 10
-108.4469291244969
 20
118.029488698419
 30
0.0
 40
0.2999999999999971
 50
270.0
 51
90.0
  0
ARC
  5
1A6FA
  8
SU
  6
CONTINUOUS
 62
     3
 10
-108.4469291244969
 20
121.029488698419
 30
0.0
 40
0.2999999999999971
 50
270.0
 51
90.0
  0
ARC
  5
1A6FB
  8
SU
  6
CONTINUOUS
 62
     3
 10
-108.4469291244969
 20
121.029488698419
 30
0.0
 40
0.2999999999999971
 50
90.0
 51
270.0
  0
ARC
  5
1A6FC
  8
SU
  6
CONTINUOUS
 62
     3
 10
-146.44692924712871
 20
-105.46666797200071
 30
0.0
 40
0.3000000000000114
 50
180.0
 51
0.0
  0
ARC
  5
1A6FD
  8
SU
  6
CONTINUOUS
 62
     3
 10
-146.44692924712871
 20
-105.46666797200071
 30
0.0
 40
0.3000000000000114
 50
0.0
 51
180.0
  0
ARC
  5
1A6FE
  8
SU
  6
CONTINUOUS
 62
     3
 10
-143.44692913362559
 20
-105.46666797200071
 30
0.0
 40
0.3000000000000114
 50
0.0
 51
180.0
  0
ARC
  5
1A6FF
  8
SU
  6
CONTINUOUS
 62
     3
 10
-143.44692913362559
 20
-105.46666797200071
 30
0.0
 40
0.3000000000000114
 50
180.0
 51
0.0
  0
ARC
  5
1A700
  8
SU
  6
CONTINUOUS
 62
     3
 10
-154.9469291244983
 20
216.02948871417149
 30
0.0
 40
0.3000000000000114
 50
180.0
 51
0.0
  0
ARC
  5
1A701
  8
SU
  6
CONTINUOUS
 62
     3
 10
-154.9469291244983
 20
216.02948871417149
 30
0.0
 40
0.3000000000000114
 50
0.0
 51
180.0
  0
ARC
  5
1A702
  8
SU
  6
CONTINUOUS
 62
     3
 10
-154.9469291244983
 20
231.02948871417149
 30
0.0
 40
0.3000000000000114
 50
0.0
 51
180.0
  0
ARC
  5
1A703
  8
SU
  6
CONTINUOUS
 62
     3
 10
-154.9469291244983
 20
231.02948871417149
 30
0.0
 40
0.3000000000000114
 50
180.0
 51
0.0
  0
ARC
  5
1A704
  8
SU
  6
CONTINUOUS
 62
     3
 10
-143.4469291244981
 20
231.02948871417149
 30
0.0
 40
0.3000000000000114
 50
180.0
 51
0.0
  0
ARC
  5
1A705
  8
SU
  6
CONTINUOUS
 62
     3
 10
-143.4469291244981
 20
231.02948871417149
 30
0.0
 40
0.3000000000000114
 50
0.0
 51
180.0
  0
ARC
  5
1A706
  8
SU
  6
CONTINUOUS
 62
     3
 10
-244.9469291244983
 20
216.02948871417149
 30
0.0
 40
0.3000000000000114
 50
0.0
 51
180.0
  0
ARC
  5
1A707
  8
SU
  6
CONTINUOUS
 62
     3
 10
-244.9469291244983
 20
216.02948871417149
 30
0.0
 40
0.3000000000000114
 50
180.0
 51
0.0
  0
ARC
  5
1A708
  8
SU
  6
CONTINUOUS
 62
     3
 10
-232.4469291244983
 20
216.02948871417149
 30
0.0
 40
0.3000000000000114
 50
0.0
 51
180.0
  0
ARC
  5
1A709
  8
SU
  6
CONTINUOUS
 62
     3
 10
-232.4469291244983
 20
216.02948871417149
 30
0.0
 40
0.3000000000000114
 50
180.0
 51
0.0
  0
ARC
  5
1A70A
  8
SU
  6
CONTINUOUS
 62
     3
 10
-167.4469291244983
 20
216.02948871417149
 30
0.0
 40
0.3000000000000114
 50
180.0
 51
0.0
  0
ARC
  5
1A70B
  8
SU
  6
CONTINUOUS
 62
     3
 10
-167.4469291244983
 20
216.02948871417149
 30
0.0
 40
0.3000000000000114
 50
0.0
 51
180.0
  0
ARC
  5
1A70C
  8
SU
  6
CONTINUOUS
 62
     3
 10
-244.9469291244983
 20
231.02948871417149
 30
0.0
 40
0.3000000000000114
 50
180.0
 51
0.0
  0
ARC
  5
1A70D
  8
SU
  6
CONTINUOUS
 62
     3
 10
-244.9469291244983
 20
231.02948871417149
 30
0.0
 40
0.3000000000000114
 50
0.0
 51
180.0
  0
ARC
  5
1A70E
  8
SU
  6
CONTINUOUS
 62
     3
 10
-256.44692912449631
 20
231.02948871417149
 30
0.0
 40
0.3000000000000114
 50
0.0
 51
180.0
  0
ARC
  5
1A70F
  8
SU
  6
CONTINUOUS
 62
     3
 10
-256.44692912449631
 20
231.02948871417149
 30
0.0
 40
0.3000000000000114
 50
180.0
 51
0.0
  0
ARC
  5
1A710
  8
SU
  6
CONTINUOUS
 62
     3
 10
-276.44692912449602
 20
145.02948869841879
 30
0.0
 40
0.3000000000000114
 50
270.0
 51
90.0
  0
ARC
  5
1A711
  8
SU
  6
CONTINUOUS
 62
     3
 10
-276.44692912449602
 20
145.02948869841879
 30
0.0
 40
0.3000000000000114
 50
90.0
 51
270.0
  0
ARC
  5
1A712
  8
SU
  6
CONTINUOUS
 62
     3
 10
-256.44692912449631
 20
64.529488698420437
 30
0.0
 40
0.3000000000000114
 50
0.0
 51
180.0
  0
ARC
  5
1A713
  8
SU
  6
CONTINUOUS
 62
     3
 10
-256.44692912449631
 20
64.529488698420437
 30
0.0
 40
0.3000000000000114
 50
180.0
 51
0.0
  0
ARC
  5
1A714
  8
SU
  6
CONTINUOUS
 62
     3
 10
-276.44692912449631
 20
121.0294886984187
 30
0.0
 40
0.2999999999999971
 50
270.0
 51
90.0
  0
ARC
  5
1A715
  8
SU
  6
CONTINUOUS
 62
     3
 10
-276.44692912449631
 20
121.0294886984187
 30
0.0
 40
0.2999999999999971
 50
90.0
 51
270.0
  0
ARC
  5
1A716
  8
SU
  6
CONTINUOUS
 62
     3
 10
-276.44692912449631
 20
101.0294561777566
 30
0.0
 40
0.2999999999999971
 50
90.0
 51
270.0
  0
ARC
  5
1A717
  8
SU
  6
CONTINUOUS
 62
     3
 10
-276.44692912449631
 20
101.0294561777566
 30
0.0
 40
0.2999999999999971
 50
270.0
 51
90.0
  0
ARC
  5
1A718
  8
SU
  6
CONTINUOUS
 62
     3
 10
-143.4469291244981
 20
64.529488698420437
 30
0.0
 40
0.3000000000000114
 50
180.0
 51
0.0
  0
ARC
  5
1A719
  8
SU
  6
CONTINUOUS
 62
     3
 10
-143.4469291244981
 20
64.529488698420437
 30
0.0
 40
0.3000000000000114
 50
0.0
 51
180.0
  0
ARC
  5
1A71A
  8
SU
  6
CONTINUOUS
 62
     3
 10
-150.9469291244981
 20
79.529488698420536
 30
0.0
 40
0.3000000000000114
 50
0.0
 51
180.0
  0
ARC
  5
1A71B
  8
SU
  6
CONTINUOUS
 62
     3
 10
-150.9469291244981
 20
79.529488698420536
 30
0.0
 40
0.3000000000000114
 50
180.0
 51
0.0
  0
ARC
  5
1A71C
  8
SU
  6
CONTINUOUS
 62
     3
 10
-146.4469291244983
 20
79.529488698420536
 30
0.0
 40
0.3000000000000114
 50
180.0
 51
0.0
  0
ARC
  5
1A71D
  8
SU
  6
CONTINUOUS
 62
     3
 10
-146.4469291244983
 20
79.529488698420536
 30
0.0
 40
0.3000000000000114
 50
0.0
 51
180.0
  0
ARC
  5
1A71E
  8
SU
  6
CONTINUOUS
 62
     3
 10
-146.4469291244983
 20
64.529488698420437
 30
0.0
 40
0.3000000000000114
 50
180.0
 51
0.0
  0
ARC
  5
1A71F
  8
SU
  6
CONTINUOUS
 62
     3
 10
-146.4469291244983
 20
64.529488698420437
 30
0.0
 40
0.3000000000000114
 50
0.0
 51
180.0
  0
ARC
  5
1A720
  8
SU
  6
CONTINUOUS
 62
     3
 10
-253.4469291244983
 20
64.529488698420437
 30
0.0
 40
0.3000000000000114
 50
0.0
 51
180.0
  0
ARC
  5
1A721
  8
SU
  6
CONTINUOUS
 62
     3
 10
-253.4469291244983
 20
64.529488698420437
 30
0.0
 40
0.3000000000000114
 50
180.0
 51
0.0
  0
ARC
  5
1A722
  8
SU
  6
CONTINUOUS
 62
     3
 10
-108.4469291244969
 20
-65.466665144109569
 30
0.0
 40
0.2999999999999971
 50
90.0
 51
270.0
  0
ARC
  5
1A723
  8
SU
  6
CONTINUOUS
 62
     3
 10
-108.4469291244969
 20
-65.466665144109569
 30
0.0
 40
0.2999999999999971
 50
270.0
 51
90.0
  0
ARC
  5
1A724
  8
SU
  6
CONTINUOUS
 62
     3
 10
-108.4469291244969
 20
121.029488698419
 30
0.0
 40
0.2999999999999971
 50
90.0
 51
270.0
  0
ARC
  5
1A725
  8
SU
  6
CONTINUOUS
 62
     3
 10
-108.4469291244969
 20
121.029488698419
 30
0.0
 40
0.2999999999999971
 50
270.0
 51
90.0
  0
ARC
  5
1A726
  8
SU
  6
CONTINUOUS
 62
     3
 10
-108.4469291244969
 20
145.02948869841879
 30
0.0
 40
0.3000000000000114
 50
270.0
 51
90.0
  0
ARC
  5
1A727
  8
SU
  6
CONTINUOUS
 62
     3
 10
-108.4469291244969
 20
145.02948869841879
 30
0.0
 40
0.3000000000000114
 50
90.0
 51
270.0
  0
ENDSEC
  0
EOF
