  0
SECTION
  2
HEADER
  9
$ACADVER
  1
AC1009
  9
$INSBASE
 10
0.0
 20
0.0
 30
0.0
  9
$EXTMIN
 10
-370.84705920476353
 20
-269.33518848444231
 30
-0.0000000000112498
  9
$EXTMAX
 10
338.66717711797349
 20
267.03375374296883
 30
0.0000000000002956
  9
$LIMMIN
 10
-410.0
 20
-286.0
  9
$LIMMAX
 10
408.99999999999989
 20
279.0
  9
$ORTHOMODE
 70
     1
  9
$REGENMODE
 70
     1
  9
$FILLMODE
 70
     1
  9
$QTEXTMODE
 70
     0
  9
$MIRRTEXT
 70
     0
  9
$DRAGMODE
 70
     2
  9
$LTSCALE
 40
1.0
  9
$OSMODE
 70
     0
  9
$ATTMODE
 70
     1
  9
$TEXTSIZE
 40
2.5
  9
$TRACEWID
 40
1.0
  9
$TEXTSTYLE
  7
STANDARD
  9
$CLAYER
  8
0
  9
$CELTYPE
  6
BYLAYER
  9
$CECOLOR
 62
   256
  9
$DIMSCALE
 40
1.0
  9
$DIMASZ
 40
1.5
  9
$DIMEXO
 40
3.0
  9
$DIMDLI
 40
7.0
  9
$DIMRND
 40
0.0
  9
$DIMDLE
 40
0.0
  9
$DIMEXE
 40
1.0
  9
$DIMTP
 40
0.1
  9
$DIMTM
 40
0.1
  9
$DIMTXT
 40
10.0
  9
$DIMCEN
 40
0.0
  9
$DIMTSZ
 40
0.0
  9
$DIMTOL
 70
     0
  9
$DIMLIM
 70
     0
  9
$DIMTIH
 70
     0
  9
$DIMTOH
 70
     0
  9
$DIMSE1
 70
     0
  9
$DIMSE2
 70
     0
  9
$DIMTAD
 70
     1
  9
$DIMZIN
 70
     0
  9
$DIMBLK
  1
DOTSMALL
  9
$DIMASO
 70
     1
  9
$DIMSHO
 70
     1
  9
$DIMPOST
  1

  9
$DIMAPOST
  1
"
  9
$DIMALT
 70
     0
  9
$DIMALTD
 70
     2
  9
$DIMALTF
 40
0.0393701
  9
$DIMLFAC
 40
1.0
  9
$DIMTOFL
 70
     1
  9
$DIMTVP
 40
0.0
  9
$DIMTIX
 70
     0
  9
$DIMSOXD
 70
     0
  9
$DIMSAH
 70
     0
  9
$DIMBLK1
  1

  9
$DIMBLK2
  1

  9
$DIMSTYLE
  2
SANKYO
  9
$DIMCLRD
 70
   256
  9
$DIMCLRE
 70
   256
  9
$DIMCLRT
 70
   256
  9
$DIMTFAC
 40
0.71
  9
$DIMGAP
 40
0.5
  9
$LUNITS
 70
     2
  9
$LUPREC
 70
     4
  9
$SKETCHINC
 40
1.0
  9
$FILLETRAD
 40
0.5
  9
$AUNITS
 70
     0
  9
$AUPREC
 70
     0
  9
$MENU
  1
.
  9
$ELEVATION
 40
0.0
  9
$PELEVATION
 40
0.0
  9
$THICKNESS
 40
0.0
  9
$LIMCHECK
 70
     0
  9
$BLIPMODE
 70
     0
  9
$CHAMFERA
 40
10.0
  9
$CHAMFERB
 40
10.0
  9
$SKPOLY
 70
     0
  9
$TDCREATE
 40
2452388.6082117362
  9
$TDUPDATE
 40
2456027.6124945129
  9
$TDINDWG
 40
1.8787024537000001
  9
$TDUSRTIMER
 40
1.8787023380000001
  9
$USRTIMER
 70
     1
  9
$ANGBASE
 50
0.0
  9
$ANGDIR
 70
     0
  9
$PDMODE
 70
     0
  9
$PDSIZE
 40
0.0
  9
$PLINEWID
 40
0.0
  9
$COORDS
 70
     1
  9
$SPLFRAME
 70
     0
  9
$SPLINETYPE
 70
     6
  9
$SPLINESEGS
 70
     8
  9
$ATTDIA
 70
     0
  9
$ATTREQ
 70
     1
  9
$HANDLING
 70
-16383
  9
$HANDSEED
  5
1BCEA
  9
$SURFTAB1
 70
     6
  9
$SURFTAB2
 70
     6
  9
$SURFTYPE
 70
     6
  9
$SURFU
 70
     6
  9
$SURFV
 70
     6
  9
$UCSNAME
  2

  9
$UCSORG
 10
0.0
 20
0.0
 30
0.0
  9
$UCSXDIR
 10
1.0
 20
0.0
 30
0.0
  9
$UCSYDIR
 10
0.0
 20
1.0
 30
0.0
  9
$PUCSNAME
  2

  9
$PUCSORG
 10
0.0
 20
0.0
 30
0.0
  9
$PUCSXDIR
 10
1.0
 20
0.0
 30
0.0
  9
$PUCSYDIR
 10
0.0
 20
1.0
 30
0.0
  9
$USERI1
 70
     0
  9
$USERI2
 70
     1
  9
$USERI3
 70
     0
  9
$USERI4
 70
     0
  9
$USERI5
 70
     0
  9
$USERR1
 40
0.0
  9
$USERR2
 40
0.0
  9
$USERR3
 40
0.0
  9
$USERR4
 40
0.0
  9
$USERR5
 40
0.0
  9
$WORLDVIEW
 70
     1
  9
$SHADEDGE
 70
     3
  9
$SHADEDIF
 70
    70
  9
$TILEMODE
 70
     1
  9
$MAXACTVP
 70
    48
  9
$PLIMCHECK
 70
     0
  9
$PEXTMIN
 10
1.0000000000000000E+020
 20
1.0000000000000000E+020
 30
1.0000000000000000E+020
  9
$PEXTMAX
 10
-1.0000000000000000E+020
 20
-1.0000000000000000E+020
 30
-1.0000000000000000E+020
  9
$PLIMMIN
 10
0.0
 20
0.0
  9
$PLIMMAX
 10
420.0
 20
297.0
  9
$UNITMODE
 70
     0
  9
$VISRETAIN
 70
     1
  9
$PLINEGEN
 70
     0
  9
$PSLTSCALE
 70
     1
  0
ENDSEC
  0
SECTION
  2
TABLES
  0
TABLE
  2
VPORT
 70
     2
  0
VPORT
  2
*ACTIVE
 70
     0
 10
0.0
 20
0.0
 11
1.0
 21
1.0
 12
-16.089941043395012
 22
-1.150717370736742
 13
0.0
 23
0.0
 14
2.5
 24
2.5
 15
10.0
 25
10.0
 16
0.0
 26
0.0
 36
1.0
 17
0.0
 27
0.0
 37
0.0
 40
540.75342949357537
 41
1.3969986357435189
 42
50.0
 43
0.0
 44
0.0
 50
0.0
 51
0.0
 71
    16
 72
   100
 73
     1
 74
     0
 75
     0
 76
     0
 77
     0
 78
     0
  0
ENDTAB
  0
TABLE
  2
LTYPE
 70
    17
  0
LTYPE
  2
CONTINUOUS
 70
     0
  3
Solid line
 72
    65
 73
     0
 40
0.0
  0
LTYPE
  2
CENTER2
 70
     0
  3
Center (.5x) ___ _ ___ _ ___ _ ___ _ ___ _ ___
 72
    65
 73
     4
 40
28.574999999999989
 49
19.050000000000001
 49
-3.174999999999998
 49
3.174999999999998
 49
-3.174999999999998
  0
LTYPE
  2
DASHED2
 70
     0
  3
Dashed (.5x) _ _ _ _ _ _ _ _ _ _ _ _ _ _ _ _ _
 72
    65
 73
     2
 40
9.5249999999999986
 49
6.349999999999997
 49
-3.174999999999998
  0
ENDTAB
  0
TABLE
  2
LAYER
 70
     4
  0
LAYER
  2
0
 70
     0
 62
     7
  6
CONTINUOUS
  0
LAYER
  2
SU
 70
     0
 62
     7
  6
CONTINUOUS
  0
LAYER
  2
KI
 70
     0
 62
     7
  6
CONTINUOUS
  0
LAYER
  2
OS
 70
     0
 62
     7
  6
CONTINUOUS
  0
ENDTAB
  0
TABLE
  2
STYLE
 70
     4
  0
STYLE
  2
STANDARD
 70
     0
 40
0.0
 41
0.8299999999999999
 50
0.0
 71
     0
 42
2.5
  3
txt.shx
  4
extfont.shx
  0
ENDTAB
  0
TABLE
  2
VIEW
 70
     6
  0
VIEW
  2
AM_VIEW1
 70
     0
 40
148.9999998536185
 10
126.61001776470241
 20
223.4999997804278
 41
253.2200355294051
 11
0.0
 21
0.0
 31
1.0
 12
0.0
 22
0.0
 32
0.0
 42
50.0
 43
0.0
 44
0.0
 50
0.0
 71
    16
  0
VIEW
  2
AM_VIEW2
 70
     0
 40
148.9999998536185
 10
294.38998139545481
 20
223.4999997804278
 41
253.2200355294051
 11
0.0
 21
0.0
 31
1.0
 12
0.0
 22
0.0
 32
0.0
 42
50.0
 43
0.0
 44
0.0
 50
0.0
 71
    16
  0
VIEW
  2
AM_VIEW3
 70
     0
 40
148.9999998536185
 10
126.61001776470241
 20
74.499999926809267
 41
253.2200355294051
 11
0.0
 21
0.0
 31
1.0
 12
0.0
 22
0.0
 32
0.0
 42
50.0
 43
0.0
 44
0.0
 50
0.0
 71
    16
  0
VIEW
  2
AM_VIEW4
 70
     0
 40
148.9999998536185
 10
294.38998139545481
 20
74.499999926809267
 41
253.2200355294051
 11
0.0
 21
0.0
 31
1.0
 12
0.0
 22
0.0
 32
0.0
 42
50.0
 43
0.0
 44
0.0
 50
0.0
 71
    16
  0
VIEW
  2
AM_VIEW5
 70
     0
 40
148.9999998536185
 10
210.49999958007871
 20
148.9999998536185
 41
253.2200355294051
 11
0.0
 21
0.0
 31
1.0
 12
0.0
 22
0.0
 32
0.0
 42
50.0
 43
0.0
 44
0.0
 50
0.0
 71
    16
  0
VIEW
  2
AM_VIEW6
 70
     0
 40
297.99701970723982
 10
210.49999958007871
 20
148.9999998536185
 41
506.43500665810018
 11
0.0
 21
0.0
 31
1.0
 12
0.0
 22
0.0
 32
0.0
 42
50.0
 43
0.0
 44
0.0
 50
0.0
 71
    16
  0
ENDTAB
  0
TABLE
  2
UCS
 70
     0
  0
ENDTAB
  0
TABLE
  2
APPID
 70
    22
  0
APPID
  2
ACAD
 70
     0
  0
APPID
  2
MCAD_NO_VIS
 70
     0
  0
APPID
  2
ACAD_TEMP_GRAPHIC
 70
     0
  0
APPID
  2
ACATTRIBSERVICES
 70
     0
  0
APPID
  2
GENIUS_GENDIMSH_14
 70
     0
  0
APPID
  2
GENIUS_GENOLIS_13
 70
     0
  0
APPID
  2
GENIUS_GENOENT_13
 70
     0
  0
APPID
  2
GENIUS_GENODEF_13
 70
     0
  0
APPID
  2
GENIUS_GENOBJ-N-TIT_13
 70
     0
  0
APPID
  2
GENIUS_GENTITLE_13
 70
     0
  0
APPID
  2
GENIUS_GENOREF_13
 70
     0
  0
APPID
  2
GENIUS_GENSCREG_15
 70
     0
  0
APPID
  2
GENIUS_GENOBJ-N-SDF_13
 70
     0
  0
APPID
  2
GENIUS_GENOBJ-N-FIL_13
 70
     0
  0
APPID
  2
GENIUS_GENREC_14
 70
     0
  0
APPID
  2
GENIUS_GENOBJ-N-REC_13
 70
     0
  0
APPID
  2
GENIUS_GENDTOL_13
 70
     0
  0
APPID
  2
GENIUS_GENOBJ-N-CEN_13
 70
     0
  0
APPID
  2
GENIUS_GENOBJ-N-HTC_13
 70
     0
  0
APPID
  2
GENIUS_GENHATCH_13
 70
     0
  0
APPID
  2
GENIUS_GENFIL_13
 70
     0
  0
APPID
  2
GENIUS_GENOBJ-N-CHA_13
 70
     0
  0
ENDTAB
  0
TABLE
  2
DIMSTYLE
 70
     7
  0
DIMSTYLE
  2
SANKYO
 70
     0
  3

  4
"
  5

  6

  7

 40
1.0
 41
2.399999999999999
 42
3.0
 43
7.0
 44
3.0
 45
0.0
 46
0.0
 47
0.1
 48
0.1
140
4.0
141
0.0
142
0.0
143
0.0393701
144
1.0
145
0.0
146
0.71
147
1.3
 71
     0
 72
     0
 73
     0
 74
     0
 75
     0
 76
     0
 77
     1
 78
     8
170
     0
171
     2
172
     1
173
     0
174
     0
175
     0
176
   256
177
   256
178
   256
  0
ENDTAB
  0
ENDSEC
  0
SECTION
  2
BLOCKS
  0
BLOCK
  8
0
  2
$MODEL_SPACE
 70
     0
 10
0.0
 20
0.0
 30
0.0
  3
$MODEL_SPACE
  1

  0
ENDBLK
  5
1B6DA
  8
0
  0
BLOCK
 67
     1
  8
0
  2
$PAPER_SPACE
 70
     0
 10
0.0
 20
0.0
 30
0.0
  3
$PAPER_SPACE
  1

  0
ENDBLK
  5
1B6D6
 67
     1
  8
0
  0
BLOCK
  8
0
  2
_DOTSMALL
 70
     0
 10
0.0
 20
0.0
 30
0.0
  3
_DOTSMALL
  1

  0
POLYLINE
  5
1B722
  8
0
  6
BYBLOCK
 62
     0
 66
     1
 10
0.0
 20
0.0
 30
0.0
 70
     1
 40
1.0
 41
1.0
  0
VERTEX
  5
1B723
  8
0
  6
BYBLOCK
 62
     0
 10
-0.125
 20
0.0
 30
0.0
 42
1.0
  0
VERTEX
  5
1B724
  8
0
  6
BYBLOCK
 62
     0
 10
0.125
 20
0.0
 30
0.0
 42
1.0
  0
SEQEND
  5
1B725
  8
0
  6
BYBLOCK
 62
     0
  0
ENDBLK
  5
1B726
  8
0
  0
ENDSEC
  0
SECTION
  2
ENTITIES
  0
LINE
  5
1B72B
  8
KI
  6
CONTINUOUS
 62
     7
 10
-173.28533910398409
 20
173.23902199813151
 30
0.0
 11
-173.28533910398409
 21
43.990943662916692
 31
0.0
  0
LINE
  5
1B72C
  8
KI
  6
CONTINUOUS
 62
     7
 10
-170.78533910398431
 20
173.23902199813151
 30
0.0
 11
-170.78533910398431
 21
43.990943662916692
 31
0.0
  0
LINE
  5
1B72D
  8
KI
  6
CONTINUOUS
 62
     7
 10
-328.78533910398471
 20
173.23902199813151
 30
0.0
 11
-328.78533910398471
 21
43.990943662916692
 31
0.0
  0
LINE
  5
1B72E
  8
KI
  6
CONTINUOUS
 62
     7
 10
-326.28533910398471
 20
173.23902199813151
 30
0.0
 11
-326.28533910398471
 21
43.990943662916692
 31
0.0
  0
LINE
  5
1B72F
  8
KI
  6
CONTINUOUS
 62
     7
 10
-323.78533910583019
 20
173.23902199813151
 30
0.0
 11
-328.78533910398471
 21
173.23902199813151
 31
0.0
  0
LINE
  5
1B730
  8
KI
  6
CONTINUOUS
 62
     7
 10
-175.78533910213841
 20
173.23902199813151
 30
0.0
 11
-170.78533910398431
 21
173.23902199813151
 31
0.0
  0
LINE
  5
1B731
  8
KI
  6
CONTINUOUS
 62
     7
 10
-328.7853391040868
 20
41.990943662916692
 30
0.0
 11
-328.7853391040868
 21
-54.257134672283051
 31
0.0
  0
LINE
  5
1B732
  8
KI
  6
CONTINUOUS
 62
     7
 10
-170.7853391040864
 20
41.990943662916692
 30
0.0
 11
-170.7853391040864
 21
-54.257134672293901
 31
0.0
  0
LINE
  5
1B733
  8
KI
  6
CONTINUOUS
 62
     7
 10
-326.28533910408669
 20
41.990943662916692
 30
0.0
 11
-326.28533910408669
 21
-54.257134672283222
 31
0.0
  0
LINE
  5
1B734
  8
KI
  6
CONTINUOUS
 62
     7
 10
-173.2853391040866
 20
41.990943662916692
 30
0.0
 11
-173.2853391040866
 21
-54.257134672293731
 31
0.0
  0
TEXT
  5
1B735
  8
KI
  6
CONTINUOUS
 62
     7
 10
218.59887353020599
 20
-259.96347436292513
 30
0.0
 40
7.0
  1
薄壁枠（ケーシング枠・Ｌ型タイプ）
 41
0.84552428
  0
TEXT
  5
1B736
  8
KI
  6
CONTINUOUS
 62
     7
 10
-343.0383497111344
 20
259.99417861862992
 30
0.0
 40
7.0
  1
●標準たて枠
 41
0.84552428
  0
LINE
  5
1B737
  8
KI
  6
CONTINUOUS
 62
     7
 10
-306.28533910398721
 20
41.990943662925233
 30
0.0
 11
-306.28533910398562
 21
-54.25713467228158
 31
0.0
  0
LINE
  5
1B738
  8
KI
  6
CONTINUOUS
 62
     7
 10
-193.2853391040868
 20
41.990943662925233
 30
0.0
 11
-193.28533910408521
 21
-54.257134672280699
 31
0.0
  0
LINE
  5
1B739
  8
KI
  6
CONTINUOUS
 62
     7
 10
-275.78533675221638
 20
41.990943662920706
 30
0.0
 11
-275.7853367522161
 21
-31.257131844397009
 31
0.0
  0
LINE
  5
1B73A
  8
KI
  6
CONTINUOUS
 62
     7
 10
-251.78533922661461
 20
-31.257131844397009
 30
0.0
 11
-251.78533922661481
 21
41.990943662920706
 31
0.0
  0
LINE
  5
1B73B
  8
KI
  6
CONTINUOUS
 62
     7
 10
-200.78533751785011
 20
-46.257131844397009
 30
0.0
 11
-200.78533751785039
 21
41.990943662920706
 31
0.0
  0
LINE
  5
1B73C
  8
KI
  6
CONTINUOUS
 62
     7
 10
-240.78533922636319
 20
-46.257131844397009
 30
0.0
 11
-240.78533922636359
 21
41.990943662920706
 31
0.0
  0
LINE
  5
1B73D
  8
OS
  6
CONTINUOUS
 62
     2
 10
-166.28533853177979
 20
-218.08455641742711
 30
0.0
 11
-363.2853391039863
 21
-218.08455641742711
 31
0.0
  0
LINE
  5
1B73E
  8
OS
  6
CONTINUOUS
 62
     2
 10
-166.28533853177979
 20
-206.08455641742711
 30
0.0
 11
-363.2853391039863
 21
-206.08455641742711
 31
0.0
  0
LINE
  5
1B73F
  8
OS
  6
CONTINUOUS
 62
     2
 10
-166.28533853177979
 20
-209.08455641742751
 30
0.0
 11
-363.2853391039863
 21
-209.08455641742751
 31
0.0
  0
LINE
  5
1B740
  8
OS
  6
CONTINUOUS
 62
     2
 10
-166.28533853177979
 20
-212.08455641742711
 30
0.0
 11
-363.2853391039863
 21
-212.08455641742711
 31
0.0
  0
LINE
  5
1B741
  8
OS
  6
CONTINUOUS
 62
     2
 10
-166.28533853177979
 20
-215.08455641742751
 30
0.0
 11
-363.2853391039863
 21
-215.08455641742751
 31
0.0
  0
LINE
  5
1B742
  8
SU
  6
CONTINUOUS
 62
     3
 10
-313.75555878460489
 20
-230.3456842399826
 30
0.0
 11
-259.29646769577562
 21
-230.3456842399826
 31
0.0
  0
LINE
  5
1B743
  8
OS
  6
CONTINUOUS
 62
     2
 10
-151.7853391040866
 20
-66.257134672280699
 30
0.0
 11
-347.7853391040868
 21
-66.257134672283172
 31
0.0
  0
LINE
  5
1B744
  8
KI
  6
CONTINUOUS
 62
     7
 10
-274.28533834230012
 20
-107.4364940610219
 30
0.0
 11
-274.28533834229978
 21
-206.08455641742711
 31
0.0
  0
LINE
  5
1B745
  8
KI
  6
DASHED2
 62
     7
 10
-306.28533910398562
 20
-206.08455641742711
 30
0.0
 11
-306.28533910398562
 21
-218.08455641741909
 31
0.0
  0
LINE
  5
1B746
  8
SU
  6
CONTINUOUS
 62
     3
 10
-370.8297993821904
 20
-6.5668925637986311
 30
0.0
 11
-333.19391467695692
 21
-6.5668925637986311
 31
0.0
  0
LINE
  5
1B747
  8
OS
  6
CONTINUOUS
 62
     2
 10
-304.78533486696062
 20
-60.257134672285019
 30
0.0
 11
-347.7853391040868
 21
-60.257134672283136
 31
0.0
  0
LINE
  5
1B748
  8
OS
  6
CONTINUOUS
 62
     2
 10
-304.78533486696062
 20
-57.257134672285012
 30
0.0
 11
-347.7853391040868
 21
-57.257134672283136
 31
0.0
  0
LINE
  5
1B749
  8
OS
  6
CONTINUOUS
 62
     2
 10
-304.78533486696062
 20
-63.257134672285019
 30
0.0
 11
-347.7853391040868
 21
-63.257134672276152
 31
0.0
  0
LINE
  5
1B74A
  8
OS
  6
CONTINUOUS
 62
     2
 10
-304.78533486696062
 20
-54.257134672285019
 30
0.0
 11
-347.7853391040868
 21
-54.257134672283136
 31
0.0
  0
LINE
  5
1B74B
  8
KI
  6
DASHED2
 62
     7
 10
-306.28533910398562
 20
-54.257134672280891
 30
0.0
 11
-306.28533910398562
 21
-66.257134672272699
 31
0.0
  0
LINE
  5
1B74C
  8
SU
  6
CONTINUOUS
 62
     3
 10
-333.19391467695692
 20
-6.5668925637986311
 30
0.0
 11
-299.34580123070322
 21
-46.905503239199419
 31
0.0
  0
LINE
  5
1B74D
  8
OS
  6
CONTINUOUS
 62
     2
 10
-304.78533486696062
 20
-66.257134672280699
 30
0.0
 11
-304.78533486696062
 21
-54.257134672289112
 31
0.0
  0
LINE
  5
1B74E
  8
KI
  6
CONTINUOUS
 62
     7
 10
-211.78533996219031
 20
-198.08455641742711
 30
0.0
 11
-211.78533996219031
 21
-167.58455641742751
 31
0.0
  0
LINE
  5
1B74F
  8
KI
  6
CONTINUOUS
 62
     7
 10
-226.78533996219051
 20
-198.08455641742711
 30
0.0
 11
-226.78533996219051
 21
-167.58455641742751
 31
0.0
  0
LINE
  5
1B750
  8
KI
  6
CONTINUOUS
 62
     7
 10
-193.2853391040853
 20
-107.4364940610219
 30
0.0
 11
-193.2853391040853
 21
-206.08455641742711
 31
0.0
  0
LINE
  5
1B751
  8
KI
  6
CONTINUOUS
 62
     7
 10
-199.28533910793391
 20
-198.08455641742711
 30
0.0
 11
-199.28533910793411
 21
-107.4364940610219
 31
0.0
  0
LINE
  5
1B752
  8
KI
  6
CONTINUOUS
 62
     7
 10
-239.2853408164469
 20
-198.08455641742711
 30
0.0
 11
-239.28534081644719
 21
-107.4364940610219
 31
0.0
  0
LINE
  5
1B753
  8
KI
  6
CONTINUOUS
 62
     7
 10
-250.28534081669841
 20
-206.08455641742711
 30
0.0
 11
-250.28534081669881
 21
-107.4364940610219
 31
0.0
  0
LINE
  5
1B754
  8
KI
  6
CONTINUOUS
 62
     7
 10
-208.03533996219051
 20
-149.33455641742731
 30
0.0
 11
-208.03533996219051
 21
-198.08455641742711
 31
0.0
  0
LINE
  5
1B755
  8
KI
  6
CONTINUOUS
 62
     7
 10
-230.53533996219031
 20
-149.33455641742731
 30
0.0
 11
-230.53533996219031
 21
-198.08455641742711
 31
0.0
  0
LINE
  5
1B756
  8
KI
  6
CONTINUOUS
 62
     7
 10
-211.78533996219031
 20
-198.08455641742711
 30
0.0
 11
-199.28533910793391
 21
-198.08455641742711
 31
0.0
  0
LINE
  5
1B757
  8
SU
  6
CONTINUOUS
 62
     3
 10
-259.29646769577562
 20
-230.3456842399826
 30
0.0
 11
-230.53533996219031
 21
-201.58455641742711
 31
0.0
  0
LINE
  5
1B758
  8
KI
  6
CONTINUOUS
 62
     7
 10
-239.2853408164469
 20
-198.08455641742711
 30
0.0
 11
-226.78533996219051
 21
-198.08455641742711
 31
0.0
  0
LINE
  5
1B759
  8
KI
  6
DASHED2
 62
     7
 10
-193.2853391040853
 20
-206.08455641742711
 30
0.0
 11
-193.2853391040853
 21
-218.08455641741909
 31
0.0
  0
LINE
  5
1B75A
  8
KI
  6
CONTINUOUS
 62
     7
 10
-211.78533996219031
 20
-167.58455641742751
 30
0.0
 11
-226.78533996219051
 21
-167.58455641742751
 31
0.0
  0
ARC
  5
1B75B
  8
KI
  6
CONTINUOUS
 62
     7
 10
-219.28533996219031
 20
-149.33455641742731
 30
0.0
 40
11.25
 50
0.0
 51
180.0
  0
LINE
  5
1B75C
  8
KI
  6
CONTINUOUS
 62
     7
 10
-240.78533922636319
 20
-46.257131844397009
 30
0.0
 11
-200.78533751785011
 21
-46.257131844397009
 31
0.0
  0
LINE
  5
1B75D
  8
OS
  6
CONTINUOUS
 62
     2
 10
-151.7853391040866
 20
-57.257134672280699
 30
0.0
 11
-194.7853391039844
 21
-57.257134672280699
 31
0.0
  0
LINE
  5
1B75E
  8
OS
  6
CONTINUOUS
 62
     2
 10
-151.7853391040866
 20
-60.257134672280699
 30
0.0
 11
-194.7853391039844
 21
-60.257134672280699
 31
0.0
  0
LINE
  5
1B75F
  8
OS
  6
CONTINUOUS
 62
     2
 10
-151.7853391040866
 20
-63.257134672280692
 30
0.0
 11
-194.7853391039844
 21
-63.257134672280692
 31
0.0
  0
LINE
  5
1B760
  8
OS
  6
CONTINUOUS
 62
     2
 10
-151.7853391040866
 20
-54.257134672280699
 30
0.0
 11
-194.7853391039844
 21
-54.257134672280699
 31
0.0
  0
LINE
  5
1B761
  8
KI
  6
DASHED2
 62
     7
 10
-193.28533910408521
 20
-54.257134672280699
 30
0.0
 11
-193.28533910408521
 21
-66.257134672272514
 31
0.0
  0
LINE
  5
1B762
  8
OS
  6
CONTINUOUS
 62
     2
 10
-194.7853391039844
 20
-66.257134672280699
 30
0.0
 11
-194.7853391039844
 21
-54.257134672289112
 31
0.0
  0
LINE
  5
1B763
  8
KI
  6
CONTINUOUS
 62
     7
 10
-275.7853367522161
 20
120.2389894774691
 30
0.0
 11
-275.78533675221638
 21
43.990943662923897
 31
0.0
  0
LINE
  5
1B764
  8
KI
  6
CONTINUOUS
 62
     7
 10
-306.28533910398562
 20
43.990943662916692
 30
0.0
 11
-306.28533910398443
 21
140.23902199813111
 31
0.0
  0
LINE
  5
1B765
  8
KI
  6
CONTINUOUS
 62
     7
 10
-193.2853391040853
 20
140.23902199813151
 30
0.0
 11
-193.2853391040868
 21
43.990943662916692
 31
0.0
  0
LINE
  5
1B766
  8
KI
  6
CONTINUOUS
 62
     7
 10
-200.78533751785011
 20
137.23898947746881
 30
0.0
 11
-200.78533751785039
 21
43.990943662923897
 31
0.0
  0
LINE
  5
1B767
  8
KI
  6
CONTINUOUS
 62
     7
 10
-240.78533922636319
 20
137.23898947746881
 30
0.0
 11
-240.78533922636319
 21
43.990943662923897
 31
0.0
  0
LINE
  5
1B768
  8
KI
  6
CONTINUOUS
 62
     7
 10
-251.78533922661481
 20
43.990943662923897
 30
0.0
 11
-251.78533922661461
 21
120.2389894774691
 31
0.0
  0
LINE
  5
1B769
  8
KI
  6
CONTINUOUS
 62
     7
 10
-200.78533751785011
 20
137.23898947746881
 30
0.0
 11
-240.78533922636319
 21
137.23898947746881
 31
0.0
  0
LINE
  5
1B76A
  8
KI
  6
CONTINUOUS
 62
     7
 10
-170.7853391040864
 20
-107.4364940610219
 30
0.0
 11
-170.7853391040864
 21
-206.08455641743731
 31
0.0
  0
LINE
  5
1B76B
  8
KI
  6
CONTINUOUS
 62
     7
 10
-173.2853391040866
 20
-107.4364940610219
 30
0.0
 11
-173.2853391040866
 21
-206.08455641743711
 31
0.0
  0
LINE
  5
1B76C
  8
KI
  6
CONTINUOUS
 62
     7
 10
-306.28533910398733
 20
-107.4364940610219
 30
0.0
 11
-306.28533910398562
 21
-206.08455641742501
 31
0.0
  0
LINE
  5
1B76D
  8
KI
  6
CONTINUOUS
 62
     7
 10
-326.28533910408669
 20
-107.4364940610219
 30
0.0
 11
-326.28533910408669
 21
-206.0845564174266
 31
0.0
  0
LINE
  5
1B76E
  8
KI
  6
CONTINUOUS
 62
     7
 10
-328.7853391040868
 20
-107.4364940610219
 30
0.0
 11
-328.7853391040868
 21
-206.0845564174264
 31
0.0
  0
LINE
  5
1B76F
  8
KI
  6
CONTINUOUS
 62
     7
 10
259.62421577060348
 20
-84.023240980986998
 30
0.0
 11
163.62421577060371
 21
-84.023240980986998
 31
0.0
  0
LINE
  5
1B770
  8
KI
  6
CONTINUOUS
 62
     7
 10
259.62421577060348
 20
-44.023239272473901
 30
0.0
 11
163.62421577060371
 21
-44.023239272473901
 31
0.0
  0
LINE
  5
1B771
  8
KI
  6
CONTINUOUS
 62
     7
 10
65.624221190714479
 20
-84.023240980986998
 30
0.0
 11
161.6242157706038
 21
-84.023240980986998
 31
0.0
  0
LINE
  5
1B772
  8
KI
  6
CONTINUOUS
 62
     7
 10
67.624223900769493
 20
-44.023239272473901
 30
0.0
 11
161.6242157706038
 21
-44.023239272473901
 31
0.0
  0
LINE
  5
1B773
  8
KI
  6
CONTINUOUS
 62
     7
 10
161.6242157706038
 20
-33.023239272473909
 30
0.0
 11
81.624215770603968
 21
-33.023239272473909
 31
0.0
  0
LINE
  5
1B774
  8
KI
  6
CONTINUOUS
 62
     7
 10
65.624221190714479
 20
-84.023240980986998
 30
0.0
 11
67.624223900769493
 21
-44.023239272473901
 31
0.0
  0
LINE
  5
1B775
  8
KI
  6
CONTINUOUS
 62
     7
 10
163.62421577060371
 20
-33.023239272473909
 30
0.0
 11
243.6242157706036
 21
-33.023239272473909
 31
0.0
  0
LINE
  5
1B776
  8
KI
  6
CONTINUOUS
 62
     7
 10
259.62421577060348
 20
-44.023239272473901
 30
0.0
 11
259.62421577060348
 21
-84.023240980986998
 31
0.0
  0
LINE
  5
1B777
  8
KI
  6
CONTINUOUS
 62
     7
 10
263.62421577060348
 20
19.976758253127961
 30
0.0
 11
163.62421577060391
 21
19.976758253127961
 31
0.0
  0
LINE
  5
1B778
  8
KI
  6
CONTINUOUS
 62
     7
 10
263.62421577060348
 20
19.976758253127961
 30
0.0
 11
163.62421577060391
 21
19.976758253127961
 31
0.0
  0
LINE
  5
1B779
  8
KI
  6
CONTINUOUS
 62
     7
 10
61.624215770603989
 20
19.976758253127961
 30
0.0
 11
161.62421577060391
 21
19.976758253127961
 31
0.0
  0
LINE
  5
1B77A
  8
KI
  6
CONTINUOUS
 62
     7
 10
61.624215770603989
 20
19.976758253127961
 30
0.0
 11
161.62421577060391
 21
19.976758253127961
 31
0.0
  0
LINE
  5
1B77B
  8
KI
  6
CONTINUOUS
 62
     7
 10
81.624215770603968
 20
-9.0232417468720314
 30
0.0
 11
161.6242157706038
 21
-9.0232417468720314
 31
0.0
  0
LINE
  5
1B77C
  8
KI
  6
CONTINUOUS
 62
     7
 10
243.6242157706036
 20
-9.0232417468720314
 30
0.0
 11
163.62421577060371
 21
-9.0232417468720314
 31
0.0
  0
LINE
  5
1B77D
  8
KI
  6
CONTINUOUS
 62
     7
 10
261.32421577060342
 20
-90.023240984937388
 30
0.0
 11
259.29609195352663
 21
-90.023240984937388
 31
0.0
  0
LINE
  5
1B77E
  8
KI
  6
CONTINUOUS
 62
     7
 10
61.624215770603989
 20
-90.023240984937388
 30
0.0
 11
161.62421577060391
 21
-90.023240984937388
 31
0.0
  0
TEXT
  5
1B77F
  8
KI
  6
CONTINUOUS
 62
     7
 10
218.6672664069456
 20
-242.4411371107378
 30
0.0
 40
7.0
  1
D TOS多機能商品シリーズ
 41
0.84552428
  0
TEXT
  5
1B780
  8
KI
  6
CONTINUOUS
 62
     7
 10
218.6672664069456
 20
-251.36442957220399
 30
0.0
 40
7.0
  1
防音ドア
 41
0.84552428
  0
TEXT
  5
1B781
  8
KI
  6
CONTINUOUS
 62
     7
 10
217.70790036644311
 20
-269.30914795167661
 30
0.0
 40
7.0
  1
dt05a004
 41
0.84552428
  0
LINE
  5
1B782
  8
KI
  6
CONTINUOUS
 62
     7
 10
-306.28533910398562
 20
-54.257134672280891
 30
0.0
 11
-328.7853391040868
 21
-54.257134672283989
 31
0.0
  0
LINE
  5
1B783
  8
KI
  6
CONTINUOUS
 62
     7
 10
-170.7853391040864
 20
-54.257134672293901
 30
0.0
 11
-193.2853391041879
 21
-54.25713467229702
 31
0.0
  0
LINE
  5
1B784
  8
KI
  6
CONTINUOUS
 62
     7
 10
263.62421577060348
 20
-5.0232392724757391
 30
0.0
 11
163.62421577060391
 21
-5.0232392724757391
 31
0.0
  0
LINE
  5
1B785
  8
KI
  6
CONTINUOUS
 62
     7
 10
263.62421577060348
 20
-5.0232392724757391
 30
0.0
 11
163.62421577060391
 21
-5.0232392724757391
 31
0.0
  0
LINE
  5
1B786
  8
KI
  6
CONTINUOUS
 62
     7
 10
61.624215770603989
 20
-5.0232392724757391
 30
0.0
 11
161.62421577060391
 21
-5.0232392724757391
 31
0.0
  0
LINE
  5
1B787
  8
KI
  6
CONTINUOUS
 62
     7
 10
61.624215770603989
 20
-5.0232392724757391
 30
0.0
 11
161.62421577060391
 21
-5.0232392724757391
 31
0.0
  0
LINE
  5
1B788
  8
KI
  6
CONTINUOUS
 62
     7
 10
256.9820480258204
 20
-90.023240984937388
 30
0.0
 11
163.62421577060391
 21
-90.023240984937388
 31
0.0
  0
LINE
  5
1B789
  8
OS
  6
CONTINUOUS
 62
     2
 10
-293.78028859273172
 20
-66.257134672281111
 30
0.0
 11
-258.78028576484809
 21
-31.257131844397531
 31
0.0
  0
LINE
  5
1B78A
  8
OS
  6
CONTINUOUS
 62
     2
 10
-283.88079365611969
 20
-66.257134672280984
 30
0.0
 11
-251.78533922661481
 21
-34.161680242775972
 31
0.0
  0
LINE
  5
1B78B
  8
OS
  6
CONTINUOUS
 62
     2
 10
-273.98129871950812
 20
-66.257134672281154
 30
0.0
 11
-251.78533922661481
 21
-44.061175179387888
 31
0.0
  0
LINE
  5
1B78C
  8
OS
  6
CONTINUOUS
 62
     2
 10
-214.5843290998381
 20
-66.257134672281211
 30
0.0
 11
-199.58432627195461
 21
-51.257131844397527
 31
0.0
  0
LINE
  5
1B78D
  8
OS
  6
CONTINUOUS
 62
     2
 10
-204.6848341632267
 20
-66.257134672281111
 30
0.0
 11
-194.78533922661481
 21
-56.357639735669352
 31
0.0
  0
LINE
  5
1B78E
  8
OS
  6
CONTINUOUS
 62
     2
 10
-244.28281390967351
 20
-66.257134672281211
 30
0.0
 11
-229.2828110817893
 21
-51.257131844397527
 31
0.0
  0
LINE
  5
1B78F
  8
OS
  6
CONTINUOUS
 62
     2
 10
-234.38331897306159
 20
-66.257134672281154
 30
0.0
 11
-219.38331614517799
 21
-51.257131844397527
 31
0.0
  0
LINE
  5
1B790
  8
OS
  6
CONTINUOUS
 62
     2
 10
-254.18230884628511
 20
-66.257134672281211
 30
0.0
 11
-239.18230601840119
 21
-51.257131844397527
 31
0.0
  0
LINE
  5
1B791
  8
OS
  6
CONTINUOUS
 62
     2
 10
-264.08180378289671
 20
-66.257134672281111
 30
0.0
 11
-249.08180095501311
 21
-51.257131844397527
 31
0.0
  0
LINE
  5
1B792
  8
OS
  6
CONTINUOUS
 62
     2
 10
-224.4838240364499
 20
-66.257134672281111
 30
0.0
 11
-209.4838212085663
 21
-51.257131844397527
 31
0.0
  0
LINE
  5
1B793
  8
OS
  6
CONTINUOUS
 62
     2
 10
-304.78533486696062
 20
-57.463191073286438
 30
0.0
 11
-278.5792756380701
 21
-31.257131844397541
 31
0.0
  0
LINE
  5
1B794
  8
OS
  6
CONTINUOUS
 62
     2
 10
-303.6797835293433
 20
-66.257134672281211
 30
0.0
 11
-268.67978070145949
 21
-31.257131844397531
 31
0.0
  0
LINE
  5
1B795
  8
SU
  6
CONTINUOUS
 62
     3
 10
277.62421577060383
 20
-171.0232409849209
 30
0.0
 11
287.62421577060383
 21
-165.0232409849211
 31
0.0
  0
LINE
  5
1B796
  8
SU
  6
CONTINUOUS
 62
     3
 10
277.62421577060383
 20
-159.0232409849211
 30
0.0
 11
287.62421577060383
 21
-165.0232409849211
 31
0.0
  0
LINE
  5
1B797
  8
SU
  6
CONTINUOUS
 62
     3
 10
277.62421577060383
 20
-171.0232409849209
 30
0.0
 11
277.62421577060383
 21
-159.0232409849211
 31
0.0
  0
LINE
  5
1B798
  8
SU
  6
CONTINUOUS
 62
     3
 10
263.62421575501702
 20
-150.0232409849211
 30
0.0
 11
287.624215770604
 21
-150.0232409849211
 31
0.0
  0
LINE
  5
1B799
  8
SU
  6
CONTINUOUS
 62
     3
 10
47.624215770603818
 20
-171.0232409849209
 30
0.0
 11
37.624215770603811
 21
-165.0232409849211
 31
0.0
  0
LINE
  5
1B79A
  8
SU
  6
CONTINUOUS
 62
     3
 10
47.624215770603818
 20
-159.0232409849211
 30
0.0
 11
37.624215770603811
 21
-165.0232409849211
 31
0.0
  0
LINE
  5
1B79B
  8
SU
  6
CONTINUOUS
 62
     3
 10
47.624215770603818
 20
-171.0232409849209
 30
0.0
 11
47.624215770603818
 21
-159.0232409849211
 31
0.0
  0
LINE
  5
1B79C
  8
SU
  6
CONTINUOUS
 62
     3
 10
61.624215786190682
 20
-150.0232409849211
 30
0.0
 11
37.624215770603747
 21
-150.0232409849211
 31
0.0
  0
LINE
  5
1B79D
  8
SU
  6
CONTINUOUS
 62
     3
 10
61.624215770603811
 20
-92.523240984935399
 30
0.0
 11
61.624215770603811
 21
-153.0232409849211
 31
0.0
  0
LINE
  5
1B79E
  8
SU
  6
CONTINUOUS
 62
     3
 10
65.624215786190689
 20
-150.0232409849211
 30
0.0
 11
61.624215770603811
 21
-150.0232409849211
 31
0.0
  0
LINE
  5
1B79F
  8
SU
  6
CONTINUOUS
 62
     3
 10
63.624215778397243
 20
-150.0232409849211
 30
0.0
 11
68.324215786190692
 21
-135.02324098492119
 31
0.0
  0
LINE
  5
1B7A0
  8
SU
  6
CONTINUOUS
 62
     3
 10
68.324215786190692
 20
-135.02324098492119
 30
0.0
 11
73.295644357619267
 21
-135.02324098492119
 31
0.0
  0
LINE
  5
1B7A1
  8
SU
  6
CONTINUOUS
 62
     3
 10
259.62421575501702
 20
-85.023240984921244
 30
0.0
 11
259.62421575501702
 21
-153.0232409849211
 31
0.0
  0
LINE
  5
1B7A2
  8
SU
  6
CONTINUOUS
 62
     3
 10
65.624215786190916
 20
-85.023240984921244
 30
0.0
 11
65.624215786190916
 21
-153.0232409849211
 31
0.0
  0
LINE
  5
1B7A3
  8
SU
  6
CONTINUOUS
 62
     3
 10
259.62421575501702
 20
-150.0232409849211
 30
0.0
 11
65.624215786190916
 21
-150.0232409849211
 31
0.0
  0
LINE
  5
1B7A4
  8
SU
  6
CONTINUOUS
 62
     3
 10
263.62421577060388
 20
-92.523240984935399
 30
0.0
 11
263.62421577060388
 21
-153.0232409849211
 31
0.0
  0
LINE
  5
1B7A5
  8
SU
  6
CONTINUOUS
 62
     3
 10
259.62421575501702
 20
-150.0232409849211
 30
0.0
 11
263.62421577060388
 21
-150.0232409849211
 31
0.0
  0
LINE
  5
1B7A6
  8
SU
  6
CONTINUOUS
 62
     3
 10
261.62421576281042
 20
-150.0232409849211
 30
0.0
 11
256.9242157550168
 21
-135.02324098492119
 31
0.0
  0
LINE
  5
1B7A7
  8
SU
  6
CONTINUOUS
 62
     3
 10
256.9242157550168
 20
-135.02324098492119
 30
0.0
 11
251.95278718358841
 21
-135.02324098492119
 31
0.0
  0
LINE
  5
1B7A8
  8
SU
  6
CONTINUOUS
 62
     3
 10
37.624215770603811
 20
-92.523240984935995
 30
0.0
 11
37.624215770603811
 21
-168.0232409849209
 31
0.0
  0
LINE
  5
1B7A9
  8
SU
  6
CONTINUOUS
 62
     3
 10
287.62421577060383
 20
-92.523240984935995
 30
0.0
 11
287.62421577060383
 21
-168.0232409849209
 31
0.0
  0
LINE
  5
1B7AA
  8
SU
  6
CONTINUOUS
 62
     3
 10
37.624215770603811
 20
-165.0232409849211
 30
0.0
 11
287.62421577060383
 21
-165.0232409849211
 31
0.0
  0
LINE
  5
1B7AB
  8
KI
  6
DASHED2
 62
     7
 10
81.624250765664556
 20
-22.07323231276003
 30
0.0
 11
83.62425347572001
 21
-23.571965774353529
 31
0.0
  0
LINE
  5
1B7AC
  8
KI
  6
DASHED2
 62
     7
 10
81.624250765664556
 20
-19.97324871448529
 30
0.0
 11
83.62425347572001
 21
-18.47451525289182
 31
0.0
  0
LINE
  5
1B7AD
  8
KI
  6
DASHED2
 62
     7
 10
57.88031209869154
 20
-19.862769304127688
 30
0.0
 11
59.696940691046393
 21
-22.311846129715029
 31
0.0
  0
LINE
  5
1B7AE
  8
KI
  6
DASHED2
 62
     7
 10
56.770163790331239
 20
-19.862769304127688
 30
0.0
 11
58.586792382686561
 21
-22.311846129715029
 31
0.0
  0
LINE
  5
1B7AF
  8
KI
  6
DASHED2
 62
     7
 10
55.659980486910847
 20
-19.862769304127688
 30
0.0
 11
57.4766090792657
 21
-22.311846129715029
 31
0.0
  0
LINE
  5
1B7B0
  8
KI
  6
DASHED2
 62
     7
 10
54.549832178551007
 20
-19.862769304127688
 30
0.0
 11
56.36646077090586
 21
-22.311846129715029
 31
0.0
  0
LINE
  5
1B7B1
  8
KI
  6
DASHED2
 62
     7
 10
53.439683870190713
 20
-19.862769304127688
 30
0.0
 11
55.256312462545559
 21
-22.311846129715029
 31
0.0
  0
LINE
  5
1B7B2
  8
KI
  6
DASHED2
 62
     7
 10
52.329500566770328
 20
-19.862769304127688
 30
0.0
 11
54.146129159125167
 21
-22.311846129715029
 31
0.0
  0
LINE
  5
1B7B3
  8
KI
  6
DASHED2
 62
     7
 10
51.219352258410467
 20
-19.862769304127688
 30
0.0
 11
53.035980850764872
 21
-22.311846129715029
 31
0.0
  0
LINE
  5
1B7B4
  8
KI
  6
DASHED2
 62
     7
 10
50.10920395005018
 20
-19.862769304127688
 30
0.0
 11
51.925832542405033
 21
-22.311846129715029
 31
0.0
  0
LINE
  5
1B7B5
  8
KI
  6
DASHED2
 62
     7
 10
48.999020646629781
 20
-19.862769304127688
 30
0.0
 11
50.815649238984633
 21
-22.311846129715029
 31
0.0
  0
LINE
  5
1B7B6
  8
KI
  6
DASHED2
 62
     7
 10
47.888872338269941
 20
-19.862769304127688
 30
0.0
 11
49.705500930624339
 21
-22.311846129715029
 31
0.0
  0
LINE
  5
1B7B7
  8
KI
  6
DASHED2
 62
     7
 10
46.778689034849087
 20
-19.862769304127688
 30
0.0
 11
48.595317627203933
 21
-22.311846129715029
 31
0.0
  0
LINE
  5
1B7B8
  8
KI
  6
DASHED2
 62
     7
 10
61.21079201883208
 20
-19.862769304127688
 30
0.0
 11
63.027420611186919
 21
-22.311846129715029
 31
0.0
  0
LINE
  5
1B7B9
  8
KI
  6
DASHED2
 62
     7
 10
60.100643710471779
 20
-19.862769304127688
 30
0.0
 11
61.917272302827079
 21
-22.311846129715029
 31
0.0
  0
LINE
  5
1B7BA
  8
KI
  6
DASHED2
 62
     7
 10
58.990495402111939
 20
-19.862769304127688
 30
0.0
 11
60.807123994466792
 21
-22.311846129715029
 31
0.0
  0
LINE
  5
1B7BB
  8
KI
  6
DASHED2
 62
     7
 10
64.541306934033173
 20
-19.862769304127688
 30
0.0
 11
66.357900531327459
 21
-22.311846129715029
 31
0.0
  0
LINE
  5
1B7BC
  8
KI
  6
DASHED2
 62
     7
 10
63.431123630612319
 20
-19.862769304127688
 30
0.0
 11
65.24775222296762
 21
-22.311846129715029
 31
0.0
  0
LINE
  5
1B7BD
  8
KI
  6
DASHED2
 62
     7
 10
62.320975322252458
 20
-19.862769304127688
 30
0.0
 11
64.137603914607325
 21
-22.311846129715029
 31
0.0
  0
LINE
  5
1B7BE
  8
KI
  6
DASHED2
 62
     7
 10
57.88031209869154
 20
-19.862769308076711
 30
0.0
 11
59.696940691046393
 21
-22.311846133664041
 31
0.0
  0
LINE
  5
1B7BF
  8
KI
  6
DASHED2
 62
     7
 10
56.770163790331239
 20
-19.862769308076711
 30
0.0
 11
58.586792382686561
 21
-22.311846133664041
 31
0.0
  0
LINE
  5
1B7C0
  8
KI
  6
DASHED2
 62
     7
 10
55.659980486910847
 20
-19.862769308076711
 30
0.0
 11
57.4766090792657
 21
-22.311846133664041
 31
0.0
  0
LINE
  5
1B7C1
  8
KI
  6
DASHED2
 62
     7
 10
54.549832178551007
 20
-19.862769308076711
 30
0.0
 11
56.36646077090586
 21
-22.311846133664041
 31
0.0
  0
LINE
  5
1B7C2
  8
KI
  6
DASHED2
 62
     7
 10
53.439683870190713
 20
-19.862769308076711
 30
0.0
 11
55.256312462545559
 21
-22.311846133664041
 31
0.0
  0
LINE
  5
1B7C3
  8
KI
  6
DASHED2
 62
     7
 10
52.329500566770328
 20
-19.862769308076711
 30
0.0
 11
54.146129159125167
 21
-22.311846133664041
 31
0.0
  0
LINE
  5
1B7C4
  8
KI
  6
DASHED2
 62
     7
 10
51.219352258410467
 20
-19.862769308076711
 30
0.0
 11
53.035980850764872
 21
-22.311846133664041
 31
0.0
  0
LINE
  5
1B7C5
  8
KI
  6
DASHED2
 62
     7
 10
50.10920395005018
 20
-19.862769308076711
 30
0.0
 11
51.925832542405033
 21
-22.311846133664041
 31
0.0
  0
LINE
  5
1B7C6
  8
KI
  6
DASHED2
 62
     7
 10
48.999020646629781
 20
-19.862769308076711
 30
0.0
 11
50.815649238984633
 21
-22.311846133664041
 31
0.0
  0
LINE
  5
1B7C7
  8
KI
  6
DASHED2
 62
     7
 10
47.888872338269941
 20
-19.862769308076711
 30
0.0
 11
49.705500930624339
 21
-22.311846133664041
 31
0.0
  0
LINE
  5
1B7C8
  8
KI
  6
DASHED2
 62
     7
 10
46.778689034849087
 20
-19.862769308076711
 30
0.0
 11
48.595317627203933
 21
-22.311846133664041
 31
0.0
  0
LINE
  5
1B7C9
  8
KI
  6
DASHED2
 62
     7
 10
45.668540726488793
 20
-19.862769308076711
 30
0.0
 11
47.4851693188441
 21
-22.311846133664041
 31
0.0
  0
LINE
  5
1B7CA
  8
KI
  6
DASHED2
 62
     7
 10
44.55839241812896
 20
-19.862769308076711
 30
0.0
 11
46.375021010483792
 21
-22.311846133664041
 31
0.0
  0
LINE
  5
1B7CB
  8
KI
  6
DASHED2
 62
     7
 10
43.448209114708568
 20
-19.862769308076711
 30
0.0
 11
45.264837707063407
 21
-22.311846133664041
 31
0.0
  0
LINE
  5
1B7CC
  8
KI
  6
DASHED2
 62
     7
 10
42.338060806348267
 20
-19.862769308076711
 30
0.0
 11
44.154689398703567
 21
-22.311846133664041
 31
0.0
  0
LINE
  5
1B7CD
  8
KI
  6
DASHED2
 62
     7
 10
81.624250765664556
 20
-19.97324871448529
 30
0.0
 11
43.509625446113873
 21
-19.97324871448528
 31
0.0
  0
LINE
  5
1B7CE
  8
KI
  6
DASHED2
 62
     7
 10
43.509625446113873
 20
-19.97324871448528
 30
0.0
 11
34.921312641645038
 21
-21.01877864339221
 31
0.0
  0
LINE
  5
1B7CF
  8
KI
  6
DASHED2
 62
     7
 10
43.509625446113873
 20
-22.07323231276003
 30
0.0
 11
34.921312641645038
 21
-21.027702383853111
 31
0.0
  0
LINE
  5
1B7D0
  8
KI
  6
DASHED2
 62
     7
 10
81.624250765664556
 20
-22.07323231276003
 30
0.0
 11
43.509625446113873
 21
-22.07323231276003
 31
0.0
  0
LINE
  5
1B7D1
  8
KI
  6
DASHED2
 62
     7
 10
61.21079201883208
 20
-19.862769308076711
 30
0.0
 11
63.027420611186919
 21
-22.311846133664041
 31
0.0
  0
LINE
  5
1B7D2
  8
KI
  6
DASHED2
 62
     7
 10
60.100643710471779
 20
-19.862769308076711
 30
0.0
 11
61.917272302826632
 21
-22.311846133664041
 31
0.0
  0
LINE
  5
1B7D3
  8
KI
  6
DASHED2
 62
     7
 10
58.990495402111939
 20
-19.862769308076711
 30
0.0
 11
60.807123994466792
 21
-22.311846133664041
 31
0.0
  0
LINE
  5
1B7D4
  8
KI
  6
DASHED2
 62
     7
 10
64.541306934033173
 20
-19.862769308076711
 30
0.0
 11
66.357900531327459
 21
-22.311846133664041
 31
0.0
  0
LINE
  5
1B7D5
  8
KI
  6
DASHED2
 62
     7
 10
63.431123630612319
 20
-19.862769308076711
 30
0.0
 11
65.24775222296762
 21
-22.311846133664041
 31
0.0
  0
LINE
  5
1B7D6
  8
KI
  6
DASHED2
 62
     7
 10
62.320975322252458
 20
-19.862769308076711
 30
0.0
 11
64.137603914607325
 21
-22.311846133664041
 31
0.0
  0
LINE
  5
1B7D7
  8
KI
  6
CENTER2
 62
     7
 10
87.979213795798572
 20
-21.023240513622682
 30
0.0
 11
29.509011559696528
 21
-21.023240513622671
 31
0.0
  0
LINE
  5
1B7D8
  8
KI
  6
DASHED2
 62
     7
 10
243.6241807755429
 20
-22.07323231276003
 30
0.0
 11
241.62417806548771
 21
-23.571965774353529
 31
0.0
  0
LINE
  5
1B7D9
  8
KI
  6
DASHED2
 62
     7
 10
243.6241807755429
 20
-19.97324871448529
 30
0.0
 11
241.62417806548771
 21
-18.47451525289182
 31
0.0
  0
LINE
  5
1B7DA
  8
KI
  6
DASHED2
 62
     7
 10
267.36811944251622
 20
-19.862769304127688
 30
0.0
 11
265.55149085016097
 21
-22.311846129715029
 31
0.0
  0
LINE
  5
1B7DB
  8
KI
  6
DASHED2
 62
     7
 10
268.47826775087628
 20
-19.862769304127688
 30
0.0
 11
266.66163915852121
 21
-22.311846129715029
 31
0.0
  0
LINE
  5
1B7DC
  8
KI
  6
DASHED2
 62
     7
 10
269.58845105429663
 20
-19.862769304127688
 30
0.0
 11
267.77182246194189
 21
-22.311846129715029
 31
0.0
  0
LINE
  5
1B7DD
  8
KI
  6
DASHED2
 62
     7
 10
270.69859936265641
 20
-19.862769304127688
 30
0.0
 11
268.88197077030151
 21
-22.311846129715029
 31
0.0
  0
LINE
  5
1B7DE
  8
KI
  6
DASHED2
 62
     7
 10
271.80874767101699
 20
-19.862769304127688
 30
0.0
 11
269.99211907866191
 21
-22.311846129715029
 31
0.0
  0
LINE
  5
1B7DF
  8
KI
  6
DASHED2
 62
     7
 10
272.91893097443739
 20
-19.862769304127688
 30
0.0
 11
271.1023023820826
 21
-22.311846129715029
 31
0.0
  0
LINE
  5
1B7E0
  8
KI
  6
DASHED2
 62
     7
 10
274.02907928279723
 20
-19.862769304127688
 30
0.0
 11
272.21245069044289
 21
-22.311846129715029
 31
0.0
  0
LINE
  5
1B7E1
  8
KI
  6
DASHED2
 62
     7
 10
275.13922759115752
 20
-19.862769304127688
 30
0.0
 11
273.32259899880262
 21
-22.311846129715029
 31
0.0
  0
LINE
  5
1B7E2
  8
KI
  6
DASHED2
 62
     7
 10
276.24941089457792
 20
-19.862769304127688
 30
0.0
 11
274.43278230222302
 21
-22.311846129715029
 31
0.0
  0
LINE
  5
1B7E3
  8
KI
  6
DASHED2
 62
     7
 10
277.35955920293782
 20
-19.862769304127688
 30
0.0
 11
275.54293061058343
 21
-22.311846129715029
 31
0.0
  0
LINE
  5
1B7E4
  8
KI
  6
DASHED2
 62
     7
 10
278.46974250635861
 20
-19.862769304127688
 30
0.0
 11
276.65311391400382
 21
-22.311846129715029
 31
0.0
  0
LINE
  5
1B7E5
  8
KI
  6
DASHED2
 62
     7
 10
264.03763952237568
 20
-19.862769304127688
 30
0.0
 11
262.22101093002078
 21
-22.311846129715029
 31
0.0
  0
LINE
  5
1B7E6
  8
KI
  6
DASHED2
 62
     7
 10
265.14778783073598
 20
-19.862769304127688
 30
0.0
 11
263.33115923838062
 21
-22.311846129715029
 31
0.0
  0
LINE
  5
1B7E7
  8
KI
  6
DASHED2
 62
     7
 10
266.25793613909582
 20
-19.862769304127688
 30
0.0
 11
264.4413075467408
 21
-22.311846129715029
 31
0.0
  0
LINE
  5
1B7E8
  8
KI
  6
DASHED2
 62
     7
 10
260.70712460717459
 20
-19.862769304127688
 30
0.0
 11
258.89053100988031
 21
-22.311846129715029
 31
0.0
  0
LINE
  5
1B7E9
  8
KI
  6
DASHED2
 62
     7
 10
261.8173079105951
 20
-19.862769304127688
 30
0.0
 11
260.00067931824009
 21
-22.311846129715029
 31
0.0
  0
LINE
  5
1B7EA
  8
KI
  6
DASHED2
 62
     7
 10
262.92745621895511
 20
-19.862769304127688
 30
0.0
 11
261.11082762660038
 21
-22.311846129715029
 31
0.0
  0
LINE
  5
1B7EB
  8
KI
  6
DASHED2
 62
     7
 10
267.36811944251622
 20
-19.862769308076711
 30
0.0
 11
265.55149085016097
 21
-22.311846133664041
 31
0.0
  0
LINE
  5
1B7EC
  8
KI
  6
DASHED2
 62
     7
 10
268.47826775087628
 20
-19.862769308076711
 30
0.0
 11
266.66163915852121
 21
-22.311846133664041
 31
0.0
  0
LINE
  5
1B7ED
  8
KI
  6
DASHED2
 62
     7
 10
269.58845105429663
 20
-19.862769308076711
 30
0.0
 11
267.77182246194189
 21
-22.311846133664041
 31
0.0
  0
LINE
  5
1B7EE
  8
KI
  6
DASHED2
 62
     7
 10
270.69859936265641
 20
-19.862769308076711
 30
0.0
 11
268.88197077030151
 21
-22.311846133664041
 31
0.0
  0
LINE
  5
1B7EF
  8
KI
  6
DASHED2
 62
     7
 10
271.80874767101699
 20
-19.862769308076711
 30
0.0
 11
269.99211907866191
 21
-22.311846133664041
 31
0.0
  0
LINE
  5
1B7F0
  8
KI
  6
DASHED2
 62
     7
 10
272.91893097443739
 20
-19.862769308076711
 30
0.0
 11
271.1023023820826
 21
-22.311846133664041
 31
0.0
  0
LINE
  5
1B7F1
  8
KI
  6
DASHED2
 62
     7
 10
274.02907928279723
 20
-19.862769308076711
 30
0.0
 11
272.21245069044289
 21
-22.311846133664041
 31
0.0
  0
LINE
  5
1B7F2
  8
KI
  6
DASHED2
 62
     7
 10
275.13922759115752
 20
-19.862769308076711
 30
0.0
 11
273.32259899880262
 21
-22.311846133664041
 31
0.0
  0
LINE
  5
1B7F3
  8
KI
  6
DASHED2
 62
     7
 10
276.24941089457792
 20
-19.862769308076711
 30
0.0
 11
274.43278230222302
 21
-22.311846133664041
 31
0.0
  0
LINE
  5
1B7F4
  8
KI
  6
DASHED2
 62
     7
 10
277.35955920293782
 20
-19.862769308076711
 30
0.0
 11
275.54293061058343
 21
-22.311846133664041
 31
0.0
  0
LINE
  5
1B7F5
  8
KI
  6
DASHED2
 62
     7
 10
278.46974250635861
 20
-19.862769308076711
 30
0.0
 11
276.65311391400382
 21
-22.311846133664041
 31
0.0
  0
LINE
  5
1B7F6
  8
KI
  6
DASHED2
 62
     7
 10
279.57989081471879
 20
-19.862769308076711
 30
0.0
 11
277.76326222236361
 21
-22.311846133664041
 31
0.0
  0
LINE
  5
1B7F7
  8
KI
  6
DASHED2
 62
     7
 10
280.69003912307869
 20
-19.862769308076711
 30
0.0
 11
278.8734105307239
 21
-22.311846133664041
 31
0.0
  0
LINE
  5
1B7F8
  8
KI
  6
DASHED2
 62
     7
 10
281.8002224264992
 20
-19.862769308076711
 30
0.0
 11
279.9835938341443
 21
-22.311846133664041
 31
0.0
  0
LINE
  5
1B7F9
  8
KI
  6
DASHED2
 62
     7
 10
282.9103707348595
 20
-19.862769308076711
 30
0.0
 11
281.09374214250408
 21
-22.311846133664041
 31
0.0
  0
LINE
  5
1B7FA
  8
KI
  6
DASHED2
 62
     7
 10
243.6241807755429
 20
-19.97324871448529
 30
0.0
 11
281.73880609509382
 21
-19.973248714485301
 31
0.0
  0
LINE
  5
1B7FB
  8
KI
  6
DASHED2
 62
     7
 10
281.73880609509382
 20
-19.973248714485301
 30
0.0
 11
290.32711889956272
 21
-21.018778643392231
 31
0.0
  0
LINE
  5
1B7FC
  8
KI
  6
DASHED2
 62
     7
 10
281.73880609509382
 20
-22.073232312760041
 30
0.0
 11
290.32711889956272
 21
-21.027702383853121
 31
0.0
  0
LINE
  5
1B7FD
  8
KI
  6
DASHED2
 62
     7
 10
243.6241807755429
 20
-22.07323231276003
 30
0.0
 11
281.73880609509382
 21
-22.073232312760041
 31
0.0
  0
LINE
  5
1B7FE
  8
KI
  6
DASHED2
 62
     7
 10
264.03763952237568
 20
-19.862769308076711
 30
0.0
 11
262.22101093002078
 21
-22.311846133664041
 31
0.0
  0
LINE
  5
1B7FF
  8
KI
  6
DASHED2
 62
     7
 10
265.14778783073598
 20
-19.862769308076711
 30
0.0
 11
263.33115923838102
 21
-22.311846133664041
 31
0.0
  0
LINE
  5
1B800
  8
KI
  6
DASHED2
 62
     7
 10
266.25793613909582
 20
-19.862769308076711
 30
0.0
 11
264.4413075467408
 21
-22.311846133664041
 31
0.0
  0
LINE
  5
1B801
  8
KI
  6
DASHED2
 62
     7
 10
260.70712460717459
 20
-19.862769308076711
 30
0.0
 11
258.89053100988031
 21
-22.311846133664041
 31
0.0
  0
LINE
  5
1B802
  8
KI
  6
DASHED2
 62
     7
 10
261.8173079105951
 20
-19.862769308076711
 30
0.0
 11
260.00067931824009
 21
-22.311846133664041
 31
0.0
  0
LINE
  5
1B803
  8
KI
  6
DASHED2
 62
     7
 10
262.92745621895511
 20
-19.862769308076711
 30
0.0
 11
261.11082762660038
 21
-22.311846133664041
 31
0.0
  0
LINE
  5
1B804
  8
KI
  6
CENTER2
 62
     7
 10
237.26921774540901
 20
-21.023240513622682
 30
0.0
 11
295.73941998151122
 21
-21.023240513622682
 31
0.0
  0
LINE
  5
1B805
  8
SU
  6
CONTINUOUS
 62
     3
 10
101.6242157861904
 20
-9.0232417468720385
 30
0.0
 11
101.6242157861904
 21
21.476759015062701
 31
0.0
  0
LINE
  5
1B806
  8
SU
  6
CONTINUOUS
 62
     3
 10
81.624215770603968
 20
-8.0232417468720296
 30
0.0
 11
81.624215770603968
 21
66.976764745842459
 31
0.0
  0
LINE
  5
1B807
  8
SU
  6
CONTINUOUS
 62
     3
 10
61.62421578619071
 20
63.976764745842438
 30
0.0
 11
81.624215770603968
 21
63.976764745842438
 31
0.0
  0
LINE
  5
1B808
  8
SU
  6
CONTINUOUS
 62
     3
 10
263.62421577060348
 20
22.476759015062711
 30
0.0
 11
263.62421577060348
 21
66.976764745842459
 31
0.0
  0
LINE
  5
1B809
  8
SU
  6
CONTINUOUS
 62
     3
 10
243.6242157706036
 20
-8.0232417468720296
 30
0.0
 11
243.6242157706036
 21
66.976764745842459
 31
0.0
  0
LINE
  5
1B80A
  8
SU
  6
CONTINUOUS
 62
     3
 10
263.62421577060348
 20
63.976764745842438
 30
0.0
 11
243.6242157706036
 21
63.976764745842438
 31
0.0
  0
LINE
  5
1B80B
  8
SU
  6
CONTINUOUS
 62
     3
 10
101.6242157706039
 20
-44.023239272473901
 30
0.0
 11
101.6242157706039
 21
-33.023239272473909
 31
0.0
  0
LINE
  5
1B80C
  8
SU
  6
CONTINUOUS
 62
     3
 10
101.6242157706039
 20
-44.023239272473901
 30
0.0
 11
101.6242157706039
 21
-84.023240984919894
 31
0.0
  0
LINE
  5
1B80D
  8
KI
  6
CONTINUOUS
 62
     7
 10
60.544215770604012
 20
-90.103240984935965
 30
0.0
 11
60.544215770604069
 21
-91.51324098493626
 31
0.0
  0
LINE
  5
1B80E
  8
KI
  6
CONTINUOUS
 62
     7
 10
61.624215770603989
 20
-52.523240984936031
 30
0.0
 11
61.624215770603989
 21
-91.51324098493626
 31
0.0
  0
ARC
  5
1B80F
  8
KI
  6
CONTINUOUS
 62
     7
 10
60.544215770604069
 20
-91.51324098493626
 30
0.0
 40
1.0800000000000001
 50
297.90344809752992
 51
0.0
  0
LINE
  5
1B810
  8
KI
  6
CONTINUOUS
 62
     7
 10
58.58963740957347
 20
-93.770369957107619
 30
0.0
 11
61.049637409532139
 21
-92.467677450555229
 31
0.0
  0
LINE
  5
1B811
  8
KI
  6
CONTINUOUS
 62
     7
 10
58.084215770604033
 20
-92.815933491510435
 30
0.0
 11
58.58963740957347
 21
-93.770369957107619
 31
0.0
  0
LINE
  5
1B812
  8
KI
  6
CONTINUOUS
 62
     7
 10
58.084215770604033
 20
-92.815933491510435
 30
0.0
 11
60.544215770604069
 21
-91.51324098493626
 31
0.0
  0
LINE
  5
1B813
  8
KI
  6
DASHED2
 62
     7
 10
51.674215770604178
 20
-73.973240984936297
 30
0.0
 11
51.674215770604178
 21
-62.78698837189097
 31
0.0
  0
LINE
  5
1B814
  8
KI
  6
DASHED2
 62
     7
 10
52.674215770604171
 20
-74.973240984936297
 30
0.0
 11
61.624215770603989
 21
-74.973240984936297
 31
0.0
  0
LINE
  5
1B815
  8
KI
  6
DASHED2
 62
     7
 10
52.674215770604171
 20
-70.553240984936224
 30
0.0
 11
61.624215770603989
 21
-70.553240984936224
 31
0.0
  0
ARC
  5
1B816
  8
KI
  6
DASHED2
 62
     7
 10
52.674215770604171
 20
-73.973240984936297
 30
0.0
 40
1.0
 50
180.0
 51
270.0
  0
ARC
  5
1B817
  8
KI
  6
DASHED2
 62
     7
 10
52.674215770604171
 20
-69.553240984936224
 30
0.0
 40
1.0
 50
180.0
 51
270.0
  0
LINE
  5
1B818
  8
KI
  6
DASHED2
 62
     7
 10
60.544215770604069
 20
-52.523240984936031
 30
0.0
 11
61.624215770603989
 21
-52.523240984936031
 31
0.0
  0
LINE
  5
1B819
  8
KI
  6
DASHED2
 62
     7
 10
60.544215770604069
 20
-52.523240984936031
 30
0.0
 11
60.544215770604012
 21
-90.103240984935965
 31
0.0
  0
ARC
  5
1B81A
  8
KI
  6
CONTINUOUS
 62
     7
 10
68.676439920258645
 20
-73.19290551788265
 30
0.0
 40
16.06232918379629
 50
100.9541706765956
 51
116.0435154452659
  0
LINE
  5
1B81B
  8
KI
  6
CONTINUOUS
 62
     7
 10
65.624215770603996
 20
-57.423240126730548
 30
0.0
 11
66.954222978806001
 21
-57.423240126730548
 31
0.0
  0
LINE
  5
1B81C
  8
KI
  6
DASHED2
 62
     7
 10
52.62421577060401
 20
-72.623240126730821
 30
0.0
 11
61.624215770603982
 21
-72.623240126730821
 31
0.0
  0
ARC
  5
1B81D
  8
KI
  6
DASHED2
 62
     7
 10
68.676439920258645
 20
-73.19290551788265
 30
0.0
 40
16.06232918379629
 50
116.0435154452659
 51
177.96752584043799
  0
LINE
  5
1B81E
  8
KI
  6
CONTINUOUS
 62
     7
 10
61.624215770603982
 20
-72.623240126730821
 30
0.0
 11
66.194221981446617
 21
-72.623240126730821
 31
0.0
  0
LINE
  5
1B81F
  8
SU
  6
CONTINUOUS
 62
     3
 10
101.6242157706039
 20
-84.023240984919894
 30
0.0
 11
101.6242157706039
 21
-91.523240984936066
 31
0.0
  0
LINE
  5
1B820
  8
SU
  6
CONTINUOUS
 62
     3
 10
101.6242157706039
 20
-91.523240984936066
 30
0.0
 11
101.6242157706039
 21
-103.4794314611265
 31
0.0
  0
LINE
  5
1B821
  8
KI
  6
DASHED2
 62
     7
 10
253.62421577060351
 20
-51.023240980986998
 30
0.0
 11
253.62421577060351
 21
-84.023240980986998
 31
0.0
  0
LINE
  5
1B822
  8
KI
  6
DASHED2
 62
     7
 10
259.62421577060348
 20
-51.023240980986998
 30
0.0
 11
253.62421577060351
 21
-51.023240980986998
 31
0.0
  0
LINE
  5
1B823
  8
KI
  6
DASHED2
 62
     7
 10
247.62421577060351
 20
-81.273240980987026
 30
0.0
 11
253.62421577060351
 21
-81.273240980987026
 31
0.0
  0
LINE
  5
1B824
  8
KI
  6
DASHED2
 62
     7
 10
247.62421577060351
 20
-53.773240980986998
 30
0.0
 11
253.62421577060351
 21
-53.773240980986998
 31
0.0
  0
LINE
  5
1B825
  8
KI
  6
DASHED2
 62
     7
 10
241.6242157706036
 20
-55.523240980986998
 30
0.0
 11
247.62421577060351
 21
-55.523240980986998
 31
0.0
  0
LINE
  5
1B826
  8
KI
  6
DASHED2
 62
     7
 10
241.6242157706036
 20
-79.523240980986984
 30
0.0
 11
247.62421577060351
 21
-79.523240980986984
 31
0.0
  0
LINE
  5
1B827
  8
KI
  6
DASHED2
 62
     7
 10
247.62421577060351
 20
-53.773240980986998
 30
0.0
 11
247.62421577060351
 21
-81.273240980987026
 31
0.0
  0
LINE
  5
1B828
  8
KI
  6
DASHED2
 62
     7
 10
241.6242157706036
 20
-55.523240980986998
 30
0.0
 11
241.6242157706036
 21
-79.523240980986984
 31
0.0
  0
CIRCLE
  5
1B829
  8
KI
  6
CONTINUOUS
 62
     7
 10
260.6242157706036
 20
-102.023240980987
 30
0.0
 40
3.1931342056999981
  0
CIRCLE
  5
1B82A
  8
KI
  6
CONTINUOUS
 62
     7
 10
260.6242157706036
 20
-102.023240980987
 30
0.0
 40
4.0
  0
CIRCLE
  5
1B82B
  8
KI
  6
CONTINUOUS
 62
     7
 10
260.6242157706036
 20
-102.023240980987
 30
0.0
 40
6.939104820999999
  0
CIRCLE
  5
1B82C
  8
KI
  6
CONTINUOUS
 62
     7
 10
260.6242157706036
 20
-102.023240980987
 30
0.0
 40
8.0
  0
LINE
  5
1B82D
  8
KI
  6
CONTINUOUS
 62
     7
 10
263.62421577060348
 20
-47.523240980986991
 30
0.0
 11
263.62421577060348
 21
-94.607042493891271
 31
0.0
  0
LINE
  5
1B82E
  8
KI
  6
CONTINUOUS
 62
     7
 10
261.32421577060342
 20
-47.523240980986991
 30
0.0
 11
261.32421577060342
 21
-94.053924824628311
 31
0.0
  0
LINE
  5
1B82F
  8
KI
  6
CONTINUOUS
 62
     7
 10
259.74417347935503
 20
-94.071792964077417
 30
0.0
 11
258.63203004433211
 21
-84.023240980986998
 31
0.0
  0
LINE
  5
1B830
  8
KI
  6
CONTINUOUS
 62
     7
 10
257.49528699880551
 20
-94.660510187252044
 30
0.0
 11
256.31798611662612
 21
-84.023240980986998
 31
0.0
  0
LINE
  5
1B831
  8
KI
  6
CONTINUOUS
 62
     7
 10
263.62421577060348
 20
-47.523240980986991
 30
0.0
 11
261.32421577060342
 21
-47.523240980986991
 31
0.0
  0
LINE
  5
1B832
  8
KI
  6
CONTINUOUS
 62
     7
 10
268.12421577060348
 20
-15.02324174687203
 30
0.0
 11
268.12421577060348
 21
-27.02323927247437
 31
0.0
  0
LINE
  5
1B833
  8
KI
  6
CONTINUOUS
 62
     7
 10
268.12421577060348
 20
-27.02323927247437
 30
0.0
 11
263.62421577060348
 21
-27.02323927247437
 31
0.0
  0
LINE
  5
1B834
  8
KI
  6
CONTINUOUS
 62
     7
 10
263.62421577060348
 20
-27.023239272473941
 30
0.0
 11
263.62421577060348
 21
-33.023239272473909
 31
0.0
  0
LINE
  5
1B835
  8
KI
  6
CONTINUOUS
 62
     7
 10
268.12421577060348
 20
-15.02324174687203
 30
0.0
 11
263.62421577060348
 21
-15.02324174687203
 31
0.0
  0
LINE
  5
1B836
  8
KI
  6
CONTINUOUS
 62
     7
 10
263.62421577060348
 20
-9.0232417468720314
 30
0.0
 11
263.62421577060348
 21
-15.023241746871999
 31
0.0
  0
LINE
  5
1B837
  8
KI
  6
CONTINUOUS
 62
     7
 10
263.62421577060348
 20
-9.0232417468720314
 30
0.0
 11
243.6242157706036
 21
-9.0232417468720261
 31
0.0
  0
LINE
  5
1B838
  8
KI
  6
CONTINUOUS
 62
     7
 10
243.6242157706036
 20
-9.0232417468720261
 30
0.0
 11
243.6242157706036
 21
-33.023239272473909
 31
0.0
  0
LINE
  5
1B839
  8
KI
  6
CONTINUOUS
 62
     7
 10
263.62421577060348
 20
-33.023239272473909
 30
0.0
 11
243.6242157706036
 21
-33.023239272473909
 31
0.0
  0
LINE
  5
1B83A
  8
KI
  6
CONTINUOUS
 62
     7
 10
243.6241807755429
 20
-33.523245272474568
 30
0.0
 11
243.6241807755425
 21
-35.749338003703187
 31
0.0
  0
ARC
  5
1B83B
  8
KI
  6
CONTINUOUS
 62
     7
 10
255.185056665693
 20
-43.031268322130117
 30
0.0
 40
9.2190722294335075
 50
35.625868175516771
 51
87.195312659551448
  0
LINE
  5
1B83C
  8
KI
  6
CONTINUOUS
 62
     7
 10
245.79118550094501
 20
-33.023239272473461
 30
0.0
 11
245.62418077554139
 21
-33.190243997877239
 31
0.0
  0
LINE
  5
1B83D
  8
KI
  6
CONTINUOUS
 62
     7
 10
246.4892111130504
 20
-33.223239272474189
 30
0.0
 11
245.8892051130515
 21
-33.82324527247431
 31
0.0
  0
LINE
  5
1B83E
  8
KI
  6
CONTINUOUS
 62
     7
 10
246.6892111130519
 20
-33.023239272473909
 30
0.0
 11
246.48921111305111
 21
-33.223239272474189
 31
0.0
  0
LINE
  5
1B83F
  8
KI
  6
CONTINUOUS
 62
     7
 10
247.3872367251582
 20
-33.223239272474189
 30
0.0
 11
246.787230725158
 21
-33.82324527247431
 31
0.0
  0
LINE
  5
1B840
  8
KI
  6
CONTINUOUS
 62
     7
 10
247.58723672515839
 20
-33.023239272473461
 30
0.0
 11
247.3872367251582
 21
-33.223239272474189
 31
0.0
  0
LINE
  5
1B841
  8
KI
  6
CONTINUOUS
 62
     7
 10
248.28526233726501
 20
-33.223239272474189
 30
0.0
 11
247.6852563372648
 21
-33.82324527247431
 31
0.0
  0
LINE
  5
1B842
  8
KI
  6
CONTINUOUS
 62
     7
 10
248.4852623372652
 20
-33.023239272473461
 30
0.0
 11
248.28526233726501
 21
-33.223239272474189
 31
0.0
  0
LINE
  5
1B843
  8
KI
  6
CONTINUOUS
 62
     7
 10
249.1832879493721
 20
-33.223239272474189
 30
0.0
 11
248.58328194937161
 21
-33.823245272473841
 31
0.0
  0
LINE
  5
1B844
  8
KI
  6
CONTINUOUS
 62
     7
 10
249.38328794937229
 20
-33.023239272473461
 30
0.0
 11
249.1832879493721
 21
-33.223239272474189
 31
0.0
  0
LINE
  5
1B845
  8
KI
  6
CONTINUOUS
 62
     7
 10
250.08131356147871
 20
-33.223239272475091
 30
0.0
 11
249.4813075614791
 21
-33.823245272474757
 31
0.0
  0
LINE
  5
1B846
  8
KI
  6
CONTINUOUS
 62
     7
 10
250.28131356147961
 20
-33.02323927247437
 30
0.0
 11
250.08131356147871
 21
-33.223239272474643
 31
0.0
  0
LINE
  5
1B847
  8
KI
  6
CONTINUOUS
 62
     7
 10
250.9793391735854
 20
-33.223239272475091
 30
0.0
 11
250.6241807755423
 21
-33.578397670518029
 31
0.0
  0
LINE
  5
1B848
  8
KI
  6
CONTINUOUS
 62
     7
 10
250.6241807755423
 20
-33.578397670518029
 30
0.0
 11
250.39996863986741
 21
-33.802609806193331
 31
0.0
  0
LINE
  5
1B849
  8
KI
  6
CONTINUOUS
 62
     7
 10
251.1793391735859
 20
-33.023239272474811
 30
0.0
 11
250.9793391735854
 21
-33.223239272474643
 31
0.0
  0
LINE
  5
1B84A
  8
KI
  6
CONTINUOUS
 62
     7
 10
251.87736478569281
 20
-33.223239272474643
 30
0.0
 11
251.27736478569381
 21
-33.82323927247409
 31
0.0
  0
LINE
  5
1B84B
  8
KI
  6
CONTINUOUS
 62
     7
 10
252.07736478569231
 20
-33.023239272474811
 30
0.0
 11
251.87736478569281
 21
-33.223239272474643
 31
0.0
  0
LINE
  5
1B84C
  8
KI
  6
CONTINUOUS
 62
     7
 10
252.7753903977999
 20
-33.223239272474643
 30
0.0
 11
252.17539039779959
 21
-33.823239272474552
 31
0.0
  0
LINE
  5
1B84D
  8
KI
  6
CONTINUOUS
 62
     7
 10
252.9753903977998
 20
-33.02323927247437
 30
0.0
 11
252.7753903977999
 21
-33.223239272474643
 31
0.0
  0
LINE
  5
1B84E
  8
KI
  6
CONTINUOUS
 62
     7
 10
253.6241807755421
 20
-33.272474506838648
 30
0.0
 11
253.0734160099064
 21
-33.823239272474552
 31
0.0
  0
LINE
  5
1B84F
  8
KI
  6
CONTINUOUS
 62
     7
 10
253.6241807755421
 20
-33.02323927247437
 30
0.0
 11
253.6241807755421
 21
-33.823239272474552
 31
0.0
  0
LINE
  5
1B850
  8
KI
  6
CONTINUOUS
 62
     7
 10
245.6241807755429
 20
-33.023239272473909
 30
0.0
 11
245.6241807755421
 21
-33.823245272474757
 31
0.0
  0
LINE
  5
1B851
  8
KI
  6
CONTINUOUS
 62
     7
 10
254.6361595278122
 20
-33.823239272475
 30
0.0
 11
250.8741907755429
 21
-33.823239272474552
 31
0.0
  0
LINE
  5
1B852
  8
KI
  6
CONTINUOUS
 62
     7
 10
250.6241907755425
 20
-33.623239272474279
 30
0.0
 11
250.37418077554261
 21
-33.823239272474552
 31
0.0
  0
LINE
  5
1B853
  8
KI
  6
CONTINUOUS
 62
     7
 10
250.6241907755425
 20
-33.623245272474037
 30
0.0
 11
250.8741907755429
 21
-33.823239272474552
 31
0.0
  0
LINE
  5
1B854
  8
KI
  6
CONTINUOUS
 62
     7
 10
250.3741907755425
 20
-33.823245272474757
 30
0.0
 11
244.6241807755431
 21
-33.823245272474757
 31
0.0
  0
ARC
  5
1B855
  8
KI
  6
CONTINUOUS
 62
     7
 10
255.33615952781241
 20
-33.52323927247437
 30
0.0
 40
0.3
 50
359.99999999991371
 51
89.999999999651507
  0
LINE
  5
1B856
  8
KI
  6
CONTINUOUS
 62
     7
 10
255.6361595278122
 20
-33.823239272474552
 30
0.0
 11
255.6361595278124
 21
-33.52323927247437
 31
0.0
  0
ARC
  5
1B857
  8
KI
  6
CONTINUOUS
 62
     7
 10
254.93615952781309
 20
-33.523239272471642
 30
0.0
 40
0.3
 50
89.999999999651507
 51
179.9999999999136
  0
LINE
  5
1B858
  8
KI
  6
CONTINUOUS
 62
     7
 10
255.33615952781241
 20
-33.223239272474189
 30
0.0
 11
254.93615952781309
 21
-33.223239272471901
 31
0.0
  0
ARC
  5
1B859
  8
KI
  6
CONTINUOUS
 62
     7
 10
244.3241807755428
 20
-33.523239272471642
 30
0.0
 40
0.3
 50
359.99999999991371
 51
89.999999999651507
  0
ARC
  5
1B85A
  8
KI
  6
CONTINUOUS
 62
     7
 10
243.92418077554311
 20
-33.523239272469809
 30
0.0
 40
0.3
 50
89.999999999651507
 51
179.9999999999136
  0
LINE
  5
1B85B
  8
KI
  6
CONTINUOUS
 62
     7
 10
244.3241807755428
 20
-33.22323927247237
 30
0.0
 11
243.92418077554311
 21
-33.22323927246962
 31
0.0
  0
LINE
  5
1B85C
  8
KI
  6
CONTINUOUS
 62
     7
 10
244.6241807755431
 20
-33.823245272474757
 30
0.0
 11
244.6241807755431
 21
-33.523239272471642
 31
0.0
  0
LINE
  5
1B85D
  8
KI
  6
CONTINUOUS
 62
     7
 10
254.6361595278124
 20
-33.523239272471642
 30
0.0
 11
254.6361595278122
 21
-33.823239272475
 31
0.0
  0
LINE
  5
1B85E
  8
KI
  6
CONTINUOUS
 62
     7
 10
253.6241807755421
 20
-33.02323927247437
 30
0.0
 11
245.6241807755429
 21
-33.023239272473909
 31
0.0
  0
ARC
  5
1B85F
  8
KI
  6
CONTINUOUS
 62
     7
 10
245.06502271862871
 20
-41.016638121873811
 30
0.0
 40
0.5
 50
59.296923400935583
 51
153.98093263770701
  0
ARC
  5
1B860
  8
KI
  6
CONTINUOUS
 62
     7
 10
238.0768563739914
 20
-37.605402398123353
 30
0.0
 40
7.2763100519022599
 50
298.11323276635829
 51
333.98093263770693
  0
ARC
  5
1B861
  8
KI
  6
CONTINUOUS
 62
     7
 10
257.84077194549229
 20
-19.50245580734607
 30
0.0
 40
24.521586859558742
 50
239.29692340093581
 51
273.71118635343151
  0
ARC
  5
1B862
  8
KI
  6
CONTINUOUS
 62
     7
 10
238.0768563739914
 20
-37.605402398123353
 30
0.0
 40
5.776310051902259
 50
298.11323276635829
 51
343.81317179960399
  0
LINE
  5
1B863
  8
KI
  6
CONTINUOUS
 62
     7
 10
243.62418077554159
 20
-35.749338003703187
 30
0.0
 11
243.62418077554361
 21
-39.21566628943139
 31
0.0
  0
ARC
  5
1B864
  8
KI
  6
CONTINUOUS
 62
     7
 10
257.84077194549229
 20
-19.50245580734607
 30
0.0
 40
23.321944298558741
 50
238.41089939395661
 51
273.71118635343151
  0
LINE
  5
1B865
  8
KI
  6
CONTINUOUS
 62
     7
 10
245.6241807755421
 20
-36.323208703791011
 30
0.0
 11
245.6241807755421
 21
-39.368708248392629
 31
0.0
  0
LINE
  5
1B866
  8
KI
  6
CONTINUOUS
 62
     7
 10
259.18089918186342
 20
-36.638897705329889
 30
0.0
 11
259.18089898543622
 21
-36.638897464227853
 31
0.0
  0
LINE
  5
1B867
  8
KI
  6
CONTINUOUS
 62
     7
 10
256.13600384160162
 20
-35.823208703791011
 30
0.0
 11
246.1241807755423
 21
-35.823208703791011
 31
0.0
  0
ARC
  5
1B868
  8
KI
  6
CONTINUOUS
 62
     7
 10
246.1241807755423
 20
-36.323208703791011
 30
0.0
 40
0.5
 50
90.0
 51
180.00000000000151
  0
ARC
  5
1B869
  8
KI
  6
CONTINUOUS
 62
     7
 10
263.12785787012712
 20
-38.94070114285762
 30
0.0
 40
0.3
 50
282.850904373123
 51
106.2830629427703
  0
ARC
  5
1B86A
  8
KI
  6
CONTINUOUS
 62
     7
 10
261.76702713163422
 20
-37.825249791699321
 30
0.0
 40
0.5
 50
204.55739357395959
 51
220.67258802736049
  0
ARC
  5
1B86B
  8
KI
  6
CONTINUOUS
 62
     7
 10
253.49016387011079
 20
-41.607244148670922
 30
0.0
 40
10.0
 50
17.18458009630881
 51
19.803175794162041
  0
ARC
  5
1B86C
  8
KI
  6
CONTINUOUS
 62
     7
 10
262.7929243238936
 20
-37.93864115304234
 30
0.0
 40
0.3
 50
290.66264471901661
 51
112.3867008755925
  0
ARC
  5
1B86D
  8
KI
  6
CONTINUOUS
 62
     7
 10
259.26415456497119
 20
-39.975977323268218
 30
0.0
 40
4.0
 50
272.34734183586102
 51
295.7018087462551
  0
ARC
  5
1B86E
  8
KI
  6
CONTINUOUS
 62
     7
 10
253.49016387010121
 20
-41.607251186448707
 30
0.0
 40
8.7999999999999972
 50
15.77603774735195
 51
15.80191346986723
  0
ARC
  5
1B86F
  8
KI
  6
CONTINUOUS
 62
     7
 10
261.26415456497023
 20
-43.440078938405932
 30
0.0
 40
0.3
 50
207.8509043731396
 51
32.14909562682751
  0
ARC
  5
1B870
  8
KI
  6
CONTINUOUS
 62
     7
 10
259.26415456497119
 20
-39.975977323268218
 30
0.0
 40
4.0
 50
304.29819125370682
 51
310.7018087462971
  0
ARC
  5
1B871
  8
KI
  6
CONTINUOUS
 62
     7
 10
262.09258168971832
 20
-42.804404448013102
 30
0.0
 40
0.3
 50
222.85090437314679
 51
47.149095626876061
  0
ARC
  5
1B872
  8
KI
  6
CONTINUOUS
 62
     7
 10
263.26415456497119
 20
-39.975977323270051
 30
0.0
 40
0.3
 50
267.85090437314102
 51
92.149095626780564
  0
ARC
  5
1B873
  8
KI
  6
CONTINUOUS
 62
     7
 10
263.12785787012672
 20
-41.01125350368067
 30
0.0
 40
0.3
 50
252.8509043730698
 51
77.149095626823382
  0
ARC
  5
1B874
  8
KI
  6
CONTINUOUS
 62
     7
 10
259.26415456497119
 20
-39.975977323268218
 30
0.0
 40
4.0
 50
334.29819125373632
 51
340.7018087462269
  0
ARC
  5
1B875
  8
KI
  6
CONTINUOUS
 62
     7
 10
262.72825618010933
 20
-41.97597732326733
 30
0.0
 40
0.3
 50
237.85090437311911
 51
62.149095626886691
  0
ARC
  5
1B876
  8
KI
  6
CONTINUOUS
 62
     7
 10
259.26415456497119
 20
-39.975977323268218
 30
0.0
 40
4.0
 50
319.2981912537565
 51
325.70180874627903
  0
ARC
  5
1B877
  8
KI
  6
CONTINUOUS
 62
     7
 10
259.26415456497119
 20
-39.975977323268218
 30
0.0
 40
4.0
 50
4.298191253699688
 51
10.70180874628195
  0
ARC
  5
1B878
  8
KI
  6
CONTINUOUS
 62
     7
 10
259.26415456499382
 20
-39.975977323268218
 30
0.0
 40
4.0
 50
349.29819125367982
 51
355.70180874624123
  0
ARC
  5
1B879
  8
KI
  6
CONTINUOUS
 62
     7
 10
259.26415456497119
 20
-39.975977323268218
 30
0.0
 40
2.799999999999998
 50
272.34734183586102
 51
40.672588027355317
  0
ARC
  5
1B87A
  8
KI
  6
CONTINUOUS
 62
     7
 10
256.10113387938281
 20
-43.072131785456008
 30
0.0
 40
7.2490069497939373
 50
44.038429734718477
 51
89.724388542350269
  0
ARC
  5
1B87B
  8
KI
  6
CONTINUOUS
 62
     7
 10
241.24490137633589
 20
-43.312176502886018
 30
0.0
 40
0.7573354118943643
 50
126.0942255147736
 51
290.1322400179493
  0
ARC
  5
1B87C
  8
KI
  6
CONTINUOUS
 62
     7
 10
242.57376903567811
 20
-26.523746645888071
 30
0.0
 40
2.5000001067820641
 50
191.52508544921761
 51
271.1553192138681
  0
LINE
  5
1B87D
  8
KI
  6
CONTINUOUS
 62
     7
 10
242.6241969180459
 20
-29.02323385631291
 30
0.0
 11
243.6241807755429
 21
-29.02323385631291
 31
0.0
  0
LINE
  5
1B87E
  8
KI
  6
DASHED2
 62
     7
 10
241.62417806548771
 20
-26.523239217509051
 30
0.0
 11
242.6241969180459
 21
-27.773245285675891
 31
0.0
  0
LINE
  5
1B87F
  8
KI
  6
DASHED2
 62
     7
 10
243.6242157706036
 20
-26.523239213560029
 30
0.0
 11
242.6241969180459
 21
-27.773245281726869
 31
0.0
  0
LINE
  5
1B880
  8
KI
  6
DASHED2
 62
     7
 10
241.62417806548771
 20
-15.52324180973539
 30
0.0
 11
241.62417806548771
 21
-26.523239217509051
 31
0.0
  0
LINE
  5
1B881
  8
KI
  6
DASHED2
 62
     7
 10
242.6241969180459
 20
-14.27323574156855
 30
0.0
 11
242.6241969180459
 21
-27.773245285675891
 31
0.0
  0
LINE
  5
1B882
  8
KI
  6
DASHED2
 62
     7
 10
242.6241969180459
 20
-14.27323574156855
 30
0.0
 11
243.6241807755429
 21
-15.52324180973539
 31
0.0
  0
LINE
  5
1B883
  8
KI
  6
DASHED2
 62
     7
 10
242.6241969180459
 20
-14.27323574156855
 30
0.0
 11
241.62417806548771
 21
-15.52324180973539
 31
0.0
  0
LINE
  5
1B884
  8
KI
  6
CONTINUOUS
 62
     7
 10
240.1241847817117
 20
-27.023248643787721
 30
0.0
 11
240.1241847817117
 21
-15.023232383456721
 31
0.0
  0
ARC
  5
1B885
  8
KI
  6
CONTINUOUS
 62
     7
 10
242.57376903567811
 20
-15.522734381356351
 30
0.0
 40
2.5000001067820641
 50
88.844696044923452
 51
168.47492980957071
  0
LINE
  5
1B886
  8
KI
  6
CONTINUOUS
 62
     7
 10
242.6241969180459
 20
-13.02324717093199
 30
0.0
 11
243.6241807755429
 21
-13.02324717093199
 31
0.0
  0
LINE
  5
1B887
  8
KI
  6
CONTINUOUS
 62
     7
 10
57.124215770604003
 20
-15.02324174687203
 30
0.0
 11
57.124215770604003
 21
-27.02323927247437
 31
0.0
  0
LINE
  5
1B888
  8
KI
  6
CONTINUOUS
 62
     7
 10
57.124215770604003
 20
-27.02323927247437
 30
0.0
 11
61.624215770603989
 21
-27.02323927247437
 31
0.0
  0
LINE
  5
1B889
  8
KI
  6
CONTINUOUS
 62
     7
 10
61.624215770603989
 20
-27.023239272473941
 30
0.0
 11
61.624215770603989
 21
-33.023239272473909
 31
0.0
  0
LINE
  5
1B88A
  8
KI
  6
CONTINUOUS
 62
     7
 10
57.124215770604003
 20
-15.02324174687203
 30
0.0
 11
61.624215770603989
 21
-15.02324174687203
 31
0.0
  0
LINE
  5
1B88B
  8
KI
  6
CONTINUOUS
 62
     7
 10
61.624215770603989
 20
-9.0232417468720314
 30
0.0
 11
61.624215770603989
 21
-15.023241746871999
 31
0.0
  0
LINE
  5
1B88C
  8
KI
  6
CONTINUOUS
 62
     7
 10
61.624215770603989
 20
-9.0232417468720314
 30
0.0
 11
81.624215770603968
 21
-9.0232417468720314
 31
0.0
  0
LINE
  5
1B88D
  8
KI
  6
CONTINUOUS
 62
     7
 10
81.624215770603968
 20
-9.0232417468720314
 30
0.0
 11
81.624215770603968
 21
-33.023239272473923
 31
0.0
  0
LINE
  5
1B88E
  8
KI
  6
CONTINUOUS
 62
     7
 10
61.624215770603989
 20
-33.023239272473909
 30
0.0
 11
81.624215770603968
 21
-33.023239272473923
 31
0.0
  0
LINE
  5
1B88F
  8
KI
  6
CONTINUOUS
 62
     7
 10
81.624250765664556
 20
-33.52324527247459
 30
0.0
 11
81.62425076566501
 21
-35.749338003703201
 31
0.0
  0
ARC
  5
1B890
  8
KI
  6
CONTINUOUS
 62
     7
 10
70.063374875514683
 20
-43.031268322130117
 30
0.0
 40
9.2190722294335075
 50
92.804687340448481
 51
144.3741318244827
  0
LINE
  5
1B891
  8
KI
  6
CONTINUOUS
 62
     7
 10
79.457246040262589
 20
-33.023239272473461
 30
0.0
 11
79.624250765666375
 21
-33.190243997877239
 31
0.0
  0
LINE
  5
1B892
  8
KI
  6
CONTINUOUS
 62
     7
 10
78.75922042815705
 20
-33.223239272474189
 30
0.0
 11
79.359226428156262
 21
-33.823245272474317
 31
0.0
  0
LINE
  5
1B893
  8
KI
  6
CONTINUOUS
 62
     7
 10
78.559220428155868
 20
-33.023239272473923
 30
0.0
 11
78.759220428156596
 21
-33.223239272474189
 31
0.0
  0
LINE
  5
1B894
  8
KI
  6
CONTINUOUS
 62
     7
 10
77.861194816049405
 20
-33.223239272474189
 30
0.0
 11
78.461200816049541
 21
-33.823245272474317
 31
0.0
  0
LINE
  5
1B895
  8
KI
  6
CONTINUOUS
 62
     7
 10
77.661194816049132
 20
-33.023239272473461
 30
0.0
 11
77.861194816049405
 21
-33.223239272474189
 31
0.0
  0
LINE
  5
1B896
  8
KI
  6
CONTINUOUS
 62
     7
 10
76.963169203942684
 20
-33.223239272474189
 30
0.0
 11
77.563175203942819
 21
-33.823245272474317
 31
0.0
  0
LINE
  5
1B897
  8
KI
  6
CONTINUOUS
 62
     7
 10
76.763169203942425
 20
-33.023239272473461
 30
0.0
 11
76.963169203942684
 21
-33.223239272474189
 31
0.0
  0
LINE
  5
1B898
  8
KI
  6
CONTINUOUS
 62
     7
 10
76.065143591835522
 20
-33.223239272474189
 30
0.0
 11
76.665149591836084
 21
-33.823245272473841
 31
0.0
  0
LINE
  5
1B899
  8
KI
  6
CONTINUOUS
 62
     7
 10
75.865143591835235
 20
-33.023239272473461
 30
0.0
 11
76.065143591835522
 21
-33.223239272474189
 31
0.0
  0
LINE
  5
1B89A
  8
KI
  6
CONTINUOUS
 62
     7
 10
75.1671179797288
 20
-33.223239272475091
 30
0.0
 11
75.767123979728453
 21
-33.823245272474757
 31
0.0
  0
LINE
  5
1B89B
  8
KI
  6
CONTINUOUS
 62
     7
 10
74.967117979728059
 20
-33.02323927247437
 30
0.0
 11
75.1671179797288
 21
-33.223239272474643
 31
0.0
  0
LINE
  5
1B89C
  8
KI
  6
CONTINUOUS
 62
     7
 10
74.269092367622079
 20
-33.223239272475091
 30
0.0
 11
74.624250765665451
 21
-33.578397670518029
 31
0.0
  0
LINE
  5
1B89D
  8
KI
  6
CONTINUOUS
 62
     7
 10
74.624250765665451
 20
-33.578397670518029
 30
0.0
 11
74.848462901340284
 21
-33.802609806193331
 31
0.0
  0
LINE
  5
1B89E
  8
KI
  6
CONTINUOUS
 62
     7
 10
74.069092367621792
 20
-33.023239272474811
 30
0.0
 11
74.269092367622079
 21
-33.223239272474643
 31
0.0
  0
LINE
  5
1B89F
  8
KI
  6
CONTINUOUS
 62
     7
 10
73.371066755514903
 20
-33.223239272474643
 30
0.0
 11
73.971066755513903
 21
-33.82323927247409
 31
0.0
  0
LINE
  5
1B8A0
  8
KI
  6
CONTINUOUS
 62
     7
 10
73.171066755515056
 20
-33.023239272474811
 30
0.0
 11
73.371066755514903
 21
-33.223239272474643
 31
0.0
  0
LINE
  5
1B8A1
  8
KI
  6
CONTINUOUS
 62
     7
 10
72.473041143407713
 20
-33.223239272474643
 30
0.0
 11
73.073041143408105
 21
-33.823239272474552
 31
0.0
  0
LINE
  5
1B8A2
  8
KI
  6
CONTINUOUS
 62
     7
 10
72.273041143407923
 20
-33.02323927247437
 30
0.0
 11
72.473041143407713
 21
-33.223239272474643
 31
0.0
  0
LINE
  5
1B8A3
  8
KI
  6
CONTINUOUS
 62
     7
 10
71.624250765665451
 20
-33.272474506838648
 30
0.0
 11
72.175015531301369
 21
-33.823239272474552
 31
0.0
  0
LINE
  5
1B8A4
  8
KI
  6
CONTINUOUS
 62
     7
 10
71.624250765665451
 20
-33.02323927247437
 30
0.0
 11
71.624250765665451
 21
-33.823239272474552
 31
0.0
  0
LINE
  5
1B8A5
  8
KI
  6
CONTINUOUS
 62
     7
 10
79.624250765664556
 20
-33.023239272473923
 30
0.0
 11
79.624250765665451
 21
-33.823245272474772
 31
0.0
  0
LINE
  5
1B8A6
  8
KI
  6
CONTINUOUS
 62
     7
 10
70.612272013395568
 20
-33.823239272475
 30
0.0
 11
74.37424076566478
 21
-33.823239272474552
 31
0.0
  0
LINE
  5
1B8A7
  8
KI
  6
CONTINUOUS
 62
     7
 10
74.624240765665263
 20
-33.623239272474279
 30
0.0
 11
74.87425076566501
 21
-33.823239272474552
 31
0.0
  0
LINE
  5
1B8A8
  8
KI
  6
CONTINUOUS
 62
     7
 10
74.624240765665263
 20
-33.623245272474037
 30
0.0
 11
74.37424076566478
 21
-33.823239272474552
 31
0.0
  0
LINE
  5
1B8A9
  8
KI
  6
CONTINUOUS
 62
     7
 10
74.874240765665263
 20
-33.823245272474757
 30
0.0
 11
80.624250765664556
 21
-33.823245272474772
 31
0.0
  0
ARC
  5
1B8AA
  8
KI
  6
CONTINUOUS
 62
     7
 10
69.912272013395295
 20
-33.52323927247437
 30
0.0
 40
0.3
 50
90.000000000348507
 51
180.000000000086
  0
LINE
  5
1B8AB
  8
KI
  6
CONTINUOUS
 62
     7
 10
69.612272013395568
 20
-33.823239272474552
 30
0.0
 11
69.612272013395113
 21
-33.52323927247437
 31
0.0
  0
ARC
  5
1B8AC
  8
KI
  6
CONTINUOUS
 62
     7
 10
70.312272013394477
 20
-33.523239272471642
 30
0.0
 40
0.3
 50
0.0000000000863075
 51
90.000000000348507
  0
LINE
  5
1B8AD
  8
KI
  6
CONTINUOUS
 62
     7
 10
69.912272013395295
 20
-33.223239272474189
 30
0.0
 11
70.312272013394477
 21
-33.223239272471901
 31
0.0
  0
ARC
  5
1B8AE
  8
KI
  6
CONTINUOUS
 62
     7
 10
80.924250765664723
 20
-33.523239272471642
 30
0.0
 40
0.3
 50
90.000000000348507
 51
180.000000000086
  0
ARC
  5
1B8AF
  8
KI
  6
CONTINUOUS
 62
     7
 10
81.324250765664374
 20
-33.523239272469823
 30
0.0
 40
0.3
 50
0.0000000000863075
 51
90.000000000348507
  0
LINE
  5
1B8B0
  8
KI
  6
CONTINUOUS
 62
     7
 10
80.924250765664723
 20
-33.223239272472377
 30
0.0
 11
81.324250765664374
 21
-33.223239272469641
 31
0.0
  0
LINE
  5
1B8B1
  8
KI
  6
CONTINUOUS
 62
     7
 10
80.624250765664556
 20
-33.823245272474772
 30
0.0
 11
80.624250765664556
 21
-33.523239272471642
 31
0.0
  0
LINE
  5
1B8B2
  8
KI
  6
CONTINUOUS
 62
     7
 10
70.612272013395113
 20
-33.523239272471642
 30
0.0
 11
70.612272013395568
 21
-33.823239272475
 31
0.0
  0
LINE
  5
1B8B3
  8
KI
  6
CONTINUOUS
 62
     7
 10
71.624250765665451
 20
-33.02323927247437
 30
0.0
 11
79.624250765664556
 21
-33.023239272473923
 31
0.0
  0
ARC
  5
1B8B4
  8
KI
  6
CONTINUOUS
 62
     7
 10
80.183408822578912
 20
-41.016638121873811
 30
0.0
 40
0.5
 50
26.019067362292621
 51
120.7030765990647
  0
ARC
  5
1B8B5
  8
KI
  6
CONTINUOUS
 62
     7
 10
87.171575167216133
 20
-37.605402398123353
 30
0.0
 40
7.2763100519022599
 50
206.0190673622925
 51
241.88676723364111
  0
ARC
  5
1B8B6
  8
KI
  6
CONTINUOUS
 62
     7
 10
67.407659595715131
 20
-19.502455807346109
 30
0.0
 40
24.521586859558742
 50
266.28881364656843
 51
300.70307659906382
  0
ARC
  5
1B8B7
  8
KI
  6
CONTINUOUS
 62
     7
 10
87.171575167216133
 20
-37.605402398123353
 30
0.0
 40
5.776310051902259
 50
196.18682820039569
 51
241.88676723364111
  0
LINE
  5
1B8B8
  8
KI
  6
CONTINUOUS
 62
     7
 10
81.624250765665906
 20
-35.749338003703201
 30
0.0
 11
81.624250765664087
 21
-39.21566628943139
 31
0.0
  0
ARC
  5
1B8B9
  8
KI
  6
CONTINUOUS
 62
     7
 10
67.407659595715131
 20
-19.502455807346109
 30
0.0
 40
23.321944298558741
 50
266.28881364656843
 51
301.58910060604359
  0
LINE
  5
1B8BA
  8
KI
  6
CONTINUOUS
 62
     7
 10
79.624250765665451
 20
-36.323208703791018
 30
0.0
 11
79.624250765665451
 21
-39.368708248392629
 31
0.0
  0
LINE
  5
1B8BB
  8
KI
  6
CONTINUOUS
 62
     7
 10
66.067532359344341
 20
-36.638897705329889
 30
0.0
 11
66.06753255577155
 21
-36.638897464227853
 31
0.0
  0
LINE
  5
1B8BC
  8
KI
  6
CONTINUOUS
 62
     7
 10
69.11242769960586
 20
-35.823208703791011
 30
0.0
 11
79.124250765665451
 21
-35.823208703791011
 31
0.0
  0
ARC
  5
1B8BD
  8
KI
  6
CONTINUOUS
 62
     7
 10
79.124250765665451
 20
-36.323208703791018
 30
0.0
 40
0.5
 50
359.99999999999829
 51
90.0
  0
ARC
  5
1B8BE
  8
KI
  6
CONTINUOUS
 62
     7
 10
62.120573671080592
 20
-38.94070114285762
 30
0.0
 40
0.3
 50
73.716937057229572
 51
257.14909562687677
  0
ARC
  5
1B8BF
  8
KI
  6
CONTINUOUS
 62
     7
 10
63.481404409573543
 20
-37.825249791699321
 30
0.0
 40
0.5
 50
319.32741197263852
 51
335.44260642604002
  0
ARC
  5
1B8C0
  8
KI
  6
CONTINUOUS
 62
     7
 10
71.758267671096988
 20
-41.607244148670922
 30
0.0
 40
10.0
 50
160.1968242058378
 51
162.81541990369081
  0
ARC
  5
1B8C1
  8
KI
  6
CONTINUOUS
 62
     7
 10
62.4555072173141
 20
-37.93864115304234
 30
0.0
 40
0.3
 50
67.613299124407419
 51
249.3373552809833
  0
ARC
  5
1B8C2
  8
KI
  6
CONTINUOUS
 62
     7
 10
65.984276976236529
 20
-39.975977323268218
 30
0.0
 40
4.0
 50
244.29819125374479
 51
267.65265816413881
  0
ARC
  5
1B8C3
  8
KI
  6
CONTINUOUS
 62
     7
 10
71.758267671106523
 20
-41.607251186448707
 30
0.0
 40
8.7999999999999972
 50
164.19808653013251
 51
164.22396225264819
  0
ARC
  5
1B8C4
  8
KI
  6
CONTINUOUS
 62
     7
 10
63.984276976237403
 20
-43.440078938405932
 30
0.0
 40
0.3
 50
147.85090437317251
 51
332.1490956268604
  0
ARC
  5
1B8C5
  8
KI
  6
CONTINUOUS
 62
     7
 10
65.984276976236529
 20
-39.975977323268218
 30
0.0
 40
4.0
 50
229.29819125370301
 51
235.70180874629281
  0
ARC
  5
1B8C6
  8
KI
  6
CONTINUOUS
 62
     7
 10
63.155849851489357
 20
-42.804404448013102
 30
0.0
 40
0.3
 50
132.85090437312351
 51
317.14909562685312
  0
ARC
  5
1B8C7
  8
KI
  6
CONTINUOUS
 62
     7
 10
61.984276976236501
 20
-39.975977323270051
 30
0.0
 40
0.3
 50
87.850904373219379
 51
272.14909562685881
  0
ARC
  5
1B8C8
  8
KI
  6
CONTINUOUS
 62
     7
 10
62.12057367108104
 20
-41.01125350368067
 30
0.0
 40
0.3
 50
102.85090437317641
 51
287.14909562692998
  0
ARC
  5
1B8C9
  8
KI
  6
CONTINUOUS
 62
     7
 10
65.984276976236529
 20
-39.975977323268218
 30
0.0
 40
4.0
 50
199.29819125377281
 51
205.701808746263
  0
ARC
  5
1B8CA
  8
KI
  6
CONTINUOUS
 62
     7
 10
62.52017536109836
 20
-41.97597732326733
 30
0.0
 40
0.3
 50
117.8509043731132
 51
302.14909562688081
  0
ARC
  5
1B8CB
  8
KI
  6
CONTINUOUS
 62
     7
 10
65.984276976236529
 20
-39.975977323268218
 30
0.0
 40
4.0
 50
214.29819125372151
 51
220.7018087462435
  0
ARC
  5
1B8CC
  8
KI
  6
CONTINUOUS
 62
     7
 10
65.984276976236529
 20
-39.975977323268218
 30
0.0
 40
4.0
 50
169.29819125371779
 51
175.7018087463002
  0
ARC
  5
1B8CD
  8
KI
  6
CONTINUOUS
 62
     7
 10
65.984276976213778
 20
-39.975977323268218
 30
0.0
 40
4.0
 50
184.2981912537584
 51
190.70180874632001
  0
ARC
  5
1B8CE
  8
KI
  6
CONTINUOUS
 62
     7
 10
65.984276976236529
 20
-39.975977323268218
 30
0.0
 40
2.799999999999998
 50
139.32741197264451
 51
267.65265816413881
  0
ARC
  5
1B8CF
  8
KI
  6
CONTINUOUS
 62
     7
 10
69.14729766182495
 20
-43.072131785456008
 30
0.0
 40
7.2490069497939373
 50
90.275611457649703
 51
135.96157026528149
  0
ARC
  5
1B8D0
  8
KI
  6
CONTINUOUS
 62
     7
 10
84.003530164871549
 20
-43.312176502886032
 30
0.0
 40
0.7573354118943643
 50
249.86775998205039
 51
53.905774485226729
  0
ARC
  5
1B8D1
  8
KI
  6
CONTINUOUS
 62
     7
 10
82.674662505529554
 20
-26.523746645888071
 30
0.0
 40
2.5000001067820641
 50
268.84468078613151
 51
348.4749145507817
  0
LINE
  5
1B8D2
  8
KI
  6
CONTINUOUS
 62
     7
 10
82.624234623161783
 20
-29.02323385631292
 30
0.0
 11
81.624250765664556
 21
-29.02323385631292
 31
0.0
  0
LINE
  5
1B8D3
  8
KI
  6
DASHED2
 62
     7
 10
83.62425347572001
 20
-26.523239217509062
 30
0.0
 11
82.624234623161783
 21
-27.773245285675891
 31
0.0
  0
LINE
  5
1B8D4
  8
KI
  6
DASHED2
 62
     7
 10
81.624215770603968
 20
-26.523239213560029
 30
0.0
 11
82.624234623161783
 21
-27.773245281726869
 31
0.0
  0
LINE
  5
1B8D5
  8
KI
  6
DASHED2
 62
     7
 10
83.62425347572001
 20
-15.523241809735399
 30
0.0
 11
83.62425347572001
 21
-26.523239217509062
 31
0.0
  0
LINE
  5
1B8D6
  8
KI
  6
DASHED2
 62
     7
 10
82.624234623161783
 20
-14.273235741568559
 30
0.0
 11
82.624234623161783
 21
-27.773245285675891
 31
0.0
  0
LINE
  5
1B8D7
  8
KI
  6
DASHED2
 62
     7
 10
82.624234623161783
 20
-14.273235741568559
 30
0.0
 11
81.624250765664556
 21
-15.523241809735399
 31
0.0
  0
LINE
  5
1B8D8
  8
KI
  6
DASHED2
 62
     7
 10
82.624234623161783
 20
-14.273235741568559
 30
0.0
 11
83.62425347572001
 21
-15.523241809735399
 31
0.0
  0
LINE
  5
1B8D9
  8
KI
  6
CONTINUOUS
 62
     7
 10
85.124246759495904
 20
-27.023248643787731
 30
0.0
 11
85.124246759495904
 21
-15.02323238345673
 31
0.0
  0
ARC
  5
1B8DA
  8
KI
  6
CONTINUOUS
 62
     7
 10
82.674662505529554
 20
-15.522734381356351
 30
0.0
 40
2.5000001067820641
 50
11.52507019042889
 51
91.155303955076519
  0
LINE
  5
1B8DB
  8
KI
  6
CONTINUOUS
 62
     7
 10
82.624234623161783
 20
-13.023247170932001
 30
0.0
 11
81.624250765664556
 21
-13.023247170932001
 31
0.0
  0
LINE
  5
1B8DC
  8
SU
  6
CONTINUOUS
 62
     3
 10
82.624215770603996
 20
-33.023239272473909
 30
0.0
 11
104.6242157706039
 21
-33.023239272473909
 31
0.0
  0
LINE
  5
1B8DD
  8
SU
  6
CONTINUOUS
 62
     3
 10
82.624215770603996
 20
-9.0232417468720314
 30
0.0
 11
104.6242157706039
 21
-9.0232417468720385
 31
0.0
  0
LINE
  5
1B8DE
  8
SU
  6
CONTINUOUS
 62
     3
 10
101.6242157706039
 20
-33.023239272473909
 30
0.0
 11
101.6242157706039
 21
-9.0232417468720385
 31
0.0
  0
LINE
  5
1B8DF
  8
SU
  6
CONTINUOUS
 62
     3
 10
62.624215786190682
 20
21.476759015062701
 30
0.0
 11
118.62421823471961
 21
21.476759015062701
 31
0.0
  0
LINE
  5
1B8E0
  8
SU
  6
CONTINUOUS
 62
     3
 10
62.624215770603833
 20
-91.523240984935995
 30
0.0
 11
118.62421823471961
 21
-91.523240984936066
 31
0.0
  0
LINE
  5
1B8E1
  8
SU
  6
CONTINUOUS
 62
     3
 10
115.62421823471961
 20
21.476759015062701
 30
0.0
 11
115.62421823471961
 21
-91.523240984936066
 31
0.0
  0
LINE
  5
1B8E2
  8
KI
  6
CONTINUOUS
 62
     7
 10
-279.7853409390766
 20
-31.257131844397531
 30
0.0
 11
-251.78533922661481
 21
-31.257131844397531
 31
0.0
  0
LINE
  5
1B8E3
  8
KI
  6
CONTINUOUS
 62
     7
 10
-304.78533486696062
 20
-51.257131844397527
 30
0.0
 11
-279.7853409390766
 21
-31.257131844397531
 31
0.0
  0
LINE
  5
1B8E4
  8
KI
  6
CONTINUOUS
 62
     7
 10
-304.78533486696062
 20
-51.257131844397527
 30
0.0
 11
-304.78533486696062
 21
-66.257134672281211
 31
0.0
  0
LINE
  5
1B8E5
  8
KI
  6
CONTINUOUS
 62
     7
 10
-251.78533922661481
 20
-51.257131844397527
 30
0.0
 11
-194.78533922661481
 21
-51.257131844397527
 31
0.0
  0
LINE
  5
1B8E6
  8
KI
  6
CONTINUOUS
 62
     7
 10
-251.78533922661481
 20
-51.257131844397527
 30
0.0
 11
-251.78533922661481
 21
-31.257131844397531
 31
0.0
  0
LINE
  5
1B8E7
  8
KI
  6
CONTINUOUS
 62
     7
 10
-194.78533922661481
 20
-51.257131844397527
 30
0.0
 11
-194.78533922661481
 21
-66.257134672281211
 31
0.0
  0
LINE
  5
1B8E8
  8
KI
  6
CONTINUOUS
 62
     7
 10
-304.78533486696062
 20
-66.257134672281211
 30
0.0
 11
-194.78533922661481
 21
-66.257134672281211
 31
0.0
  0
LINE
  5
1B8E9
  8
KI
  6
CONTINUOUS
 62
     7
 10
-251.2853332263627
 20
-31.257096849336961
 30
0.0
 11
-249.05924049513399
 21
-31.25709684933652
 31
0.0
  0
ARC
  5
1B8EA
  8
KI
  6
CONTINUOUS
 62
     7
 10
-241.7773101767072
 20
-42.817972739486862
 30
0.0
 40
9.2190722294335075
 50
182.80468734044729
 51
234.37413182448421
  0
LINE
  5
1B8EB
  8
KI
  6
CONTINUOUS
 62
     7
 10
-251.58533922636309
 20
-35.918178411058811
 30
0.0
 11
-250.985333226363
 21
-35.318172411058711
 31
0.0
  0
LINE
  5
1B8EC
  8
KI
  6
CONTINUOUS
 62
     7
 10
-250.9853332263626
 20
-38.00710684933626
 30
0.0
 11
-250.9853332263626
 21
-32.257096849336968
 31
0.0
  0
LINE
  5
1B8ED
  8
KI
  6
CONTINUOUS
 62
     7
 10
-251.78533922636271
 20
-41.257096849336058
 30
0.0
 11
-251.7853392263635
 21
-33.257096849336968
 31
0.0
  0
LINE
  5
1B8EE
  8
KI
  6
CONTINUOUS
 62
     7
 10
-251.7853392263639
 20
-36.118178411059091
 30
0.0
 11
-251.58533922636309
 21
-35.918178411058811
 31
0.0
  0
LINE
  5
1B8EF
  8
KI
  6
CONTINUOUS
 62
     7
 10
-251.58533922636309
 20
-36.816204023165533
 30
0.0
 11
-250.98533322636351
 21
-36.216198023165433
 31
0.0
  0
LINE
  5
1B8F0
  8
KI
  6
CONTINUOUS
 62
     7
 10
-251.7853392263639
 20
-37.016204023166281
 30
0.0
 11
-251.58533922636309
 21
-36.816204023165533
 31
0.0
  0
LINE
  5
1B8F1
  8
KI
  6
CONTINUOUS
 62
     7
 10
-251.58533922636201
 20
-37.71422963527273
 30
0.0
 11
-250.9853332263626
 21
-37.114223635272602
 31
0.0
  0
LINE
  5
1B8F2
  8
KI
  6
CONTINUOUS
 62
     7
 10
-251.78533922636271
 20
-37.914229635272967
 30
0.0
 11
-251.58533922636241
 21
-37.71422963527273
 31
0.0
  0
LINE
  5
1B8F3
  8
KI
  6
CONTINUOUS
 62
     7
 10
-251.58533922636201
 20
-38.612255247378997
 30
0.0
 11
-251.23018082831919
 21
-38.257096849336058
 31
0.0
  0
LINE
  5
1B8F4
  8
KI
  6
CONTINUOUS
 62
     7
 10
-251.23018082831919
 20
-38.257096849336058
 30
0.0
 11
-251.00596869264399
 21
-38.032884713660728
 31
0.0
  0
LINE
  5
1B8F5
  8
KI
  6
CONTINUOUS
 62
     7
 10
-251.7853392263624
 20
-38.812255247379689
 30
0.0
 11
-251.58533922636241
 21
-38.612255247379451
 31
0.0
  0
LINE
  5
1B8F6
  8
KI
  6
CONTINUOUS
 62
     7
 10
-251.58533922636241
 20
-39.51028085948662
 30
0.0
 11
-250.9853392263631
 21
-38.910280859487173
 31
0.0
  0
LINE
  5
1B8F7
  8
KI
  6
CONTINUOUS
 62
     7
 10
-251.7853392263624
 20
-39.710280859486438
 30
0.0
 11
-251.58533922636241
 21
-39.51028085948662
 31
0.0
  0
LINE
  5
1B8F8
  8
KI
  6
CONTINUOUS
 62
     7
 10
-251.58533922636241
 20
-40.408306471593342
 30
0.0
 11
-250.98533922636281
 21
-39.808306471593411
 31
0.0
  0
LINE
  5
1B8F9
  8
KI
  6
CONTINUOUS
 62
     7
 10
-251.78533922636271
 20
-40.608306471593622
 30
0.0
 11
-251.58533922636241
 21
-40.408306471593342
 31
0.0
  0
LINE
  5
1B8FA
  8
KI
  6
CONTINUOUS
 62
     7
 10
-251.53610399199849
 20
-41.257096849335611
 30
0.0
 11
-250.98533922636281
 21
-40.70633208370014
 31
0.0
  0
LINE
  5
1B8FB
  8
KI
  6
CONTINUOUS
 62
     7
 10
-251.78533922636271
 20
-41.257096849336058
 30
0.0
 11
-250.98533922636281
 21
-41.257096849336058
 31
0.0
  0
LINE
  5
1B8FC
  8
KI
  6
CONTINUOUS
 62
     7
 10
-250.9853392263623
 20
-42.269075601605962
 30
0.0
 11
-250.98533922636281
 21
-38.507106849336722
 31
0.0
  0
LINE
  5
1B8FD
  8
KI
  6
CONTINUOUS
 62
     7
 10
-251.18533922636311
 20
-38.257106849336267
 30
0.0
 11
-250.98533922636281
 21
-38.00709684933652
 31
0.0
  0
LINE
  5
1B8FE
  8
KI
  6
CONTINUOUS
 62
     7
 10
-251.18533322636321
 20
-38.257106849336267
 30
0.0
 11
-250.98533922636281
 21
-38.507106849336722
 31
0.0
  0
ARC
  5
1B8FF
  8
KI
  6
CONTINUOUS
 62
     7
 10
-251.28533922636279
 20
-42.969075601606221
 30
0.0
 40
0.3
 50
180.00000000034751
 51
270.0000000000847
  0
LINE
  5
1B900
  8
KI
  6
CONTINUOUS
 62
     7
 10
-250.98533922636281
 20
-43.269075601605962
 30
0.0
 11
-251.28533922636279
 21
-43.269075601606389
 31
0.0
  0
ARC
  5
1B901
  8
KI
  6
CONTINUOUS
 62
     7
 10
-251.28533922636561
 20
-42.569075601606599
 30
0.0
 40
0.3
 50
90.000000000084668
 51
180.00000000034751
  0
LINE
  5
1B902
  8
KI
  6
CONTINUOUS
 62
     7
 10
-251.58533922636309
 20
-42.969075601606221
 30
0.0
 11
-251.58533922636531
 21
-42.569075601606599
 31
0.0
  0
LINE
  5
1B903
  8
KI
  6
CONTINUOUS
 62
     7
 10
-251.28533922636561
 20
-42.26907560160641
 30
0.0
 11
-250.9853392263623
 21
-42.269075601605962
 31
0.0
  0
LINE
  5
1B904
  8
KI
  6
CONTINUOUS
 62
     7
 10
-251.7853392263639
 20
-33.424101574738941
 30
0.0
 11
-251.61833450096
 21
-33.257096849335149
 31
0.0
  0
LINE
  5
1B905
  8
KI
  6
CONTINUOUS
 62
     7
 10
-251.58533922636309
 20
-34.12212718684448
 30
0.0
 11
-250.985333226363
 21
-33.522121186844799
 31
0.0
  0
LINE
  5
1B906
  8
KI
  6
CONTINUOUS
 62
     7
 10
-251.7853392263635
 20
-34.322127186845208
 30
0.0
 11
-251.58533922636309
 21
-34.122127186844928
 31
0.0
  0
LINE
  5
1B907
  8
KI
  6
CONTINUOUS
 62
     7
 10
-251.58533922636309
 20
-35.02015279895209
 30
0.0
 11
-250.985333226363
 21
-34.42014679895199
 31
0.0
  0
LINE
  5
1B908
  8
KI
  6
CONTINUOUS
 62
     7
 10
-251.7853392263639
 20
-35.220152798952363
 30
0.0
 11
-251.58533922636309
 21
-35.02015279895209
 31
0.0
  0
LINE
  5
1B909
  8
KI
  6
CONTINUOUS
 62
     7
 10
-251.7853392263635
 20
-33.257096849336968
 30
0.0
 11
-250.9853332263626
 21
-33.257096849335611
 31
0.0
  0
ARC
  5
1B90A
  8
KI
  6
CONTINUOUS
 62
     7
 10
-251.28533922636561
 20
-31.957096849336789
 30
0.0
 40
0.3
 50
180.00000000034751
 51
270.0000000000847
  0
ARC
  5
1B90B
  8
KI
  6
CONTINUOUS
 62
     7
 10
-251.28533922636751
 20
-31.557096849337132
 30
0.0
 40
0.3
 50
90.000000000084668
 51
180.00000000034751
  0
LINE
  5
1B90C
  8
KI
  6
CONTINUOUS
 62
     7
 10
-251.58533922636479
 20
-31.957096849336789
 30
0.0
 11
-251.58533922636761
 21
-31.557096849337132
 31
0.0
  0
LINE
  5
1B90D
  8
KI
  6
CONTINUOUS
 62
     7
 10
-250.9853332263626
 20
-32.257096849336968
 30
0.0
 11
-251.28533922636561
 21
-32.257096849336968
 31
0.0
  0
ARC
  5
1B90E
  8
KI
  6
CONTINUOUS
 62
     7
 10
-265.30612269149123
 20
-45.473688019286392
 30
0.0
 40
24.521586859558742
 50
356.28881364656843
 51
30.70307659906474
  0
ARC
  5
1B90F
  8
KI
  6
CONTINUOUS
 62
     7
 10
-265.30612269149123
 20
-45.473688019286392
 30
0.0
 40
23.321944298558741
 50
356.28881364656843
 51
31.589100606046561
  0
LINE
  5
1B910
  8
KI
  6
CONTINUOUS
 62
     7
 10
-248.9853697950463
 20
-43.768919915395671
 30
0.0
 11
-248.9853697950463
 21
-33.757096849336051
 31
0.0
  0
LINE
  5
1B911
  8
KI
  6
CONTINUOUS
 62
     7
 10
-248.1696807935075
 20
-46.813815255657182
 30
0.0
 11
-248.16968103460951
 21
-46.813815059229519
 31
0.0
  0
ARC
  5
1B912
  8
KI
  6
CONTINUOUS
 62
     7
 10
-245.86787735597969
 20
-50.760773943920917
 30
0.0
 40
0.3
 50
163.71693705722581
 51
347.14909562687671
  0
ARC
  5
1B913
  8
KI
  6
CONTINUOUS
 62
     7
 10
-246.9833287071379
 20
-49.399943205427981
 30
0.0
 40
0.5
 50
49.327411972635872
 51
65.442606426039717
  0
ARC
  5
1B914
  8
KI
  6
CONTINUOUS
 62
     7
 10
-243.20133435016629
 20
-41.123079943904543
 30
0.0
 40
10.0
 50
250.19682420583459
 51
252.8154199036874
  0
ARC
  5
1B915
  8
KI
  6
CONTINUOUS
 62
     7
 10
-246.8699373457948
 20
-50.425840397687423
 30
0.0
 40
0.3
 50
157.61329912440891
 51
339.33735528098799
  0
ARC
  5
1B916
  8
KI
  6
CONTINUOUS
 62
     7
 10
-244.8326011755689
 20
-46.897070638764973
 30
0.0
 40
4.0
 50
334.29819125374712
 51
357.65265816413881
  0
ARC
  5
1B917
  8
KI
  6
CONTINUOUS
 62
     7
 10
-243.20132731238871
 20
-41.123079943895
 30
0.0
 40
8.7999999999999972
 50
254.1980865301289
 51
254.2239622526468
  0
ARC
  5
1B918
  8
KI
  6
CONTINUOUS
 62
     7
 10
-241.3684995604313
 20
-48.897070638764113
 30
0.0
 40
0.3
 50
237.85090437317649
 51
62.149095626857182
  0
ARC
  5
1B919
  8
KI
  6
CONTINUOUS
 62
     7
 10
-244.8326011755689
 20
-46.897070638764973
 30
0.0
 40
4.0
 50
319.29819125370602
 51
325.70180874629273
  0
ARC
  5
1B91A
  8
KI
  6
CONTINUOUS
 62
     7
 10
-242.0041740508243
 20
-49.725497763512152
 30
0.0
 40
0.3
 50
222.8509043731234
 51
47.149095626849288
  0
ARC
  5
1B91B
  8
KI
  6
CONTINUOUS
 62
     7
 10
-244.83260117556711
 20
-50.897070638765022
 30
0.0
 40
0.3
 50
177.85090437321941
 51
2.1490956268587862
  0
ARC
  5
1B91C
  8
KI
  6
CONTINUOUS
 62
     7
 10
-243.79732499515671
 20
-50.760773943920469
 30
0.0
 40
0.3
 50
192.85090437317689
 51
17.149095626924652
  0
ARC
  5
1B91D
  8
KI
  6
CONTINUOUS
 62
     7
 10
-244.8326011755689
 20
-46.897070638764973
 30
0.0
 40
4.0
 50
289.29819125377082
 51
295.70180874626232
  0
ARC
  5
1B91E
  8
KI
  6
CONTINUOUS
 62
     7
 10
-242.83260117557001
 20
-50.361172253903142
 30
0.0
 40
0.3
 50
207.8509043731074
 51
32.149095626878427
  0
ARC
  5
1B91F
  8
KI
  6
CONTINUOUS
 62
     7
 10
-244.8326011755689
 20
-46.897070638764973
 30
0.0
 40
4.0
 50
304.29819125372239
 51
310.70180874624589
  0
ARC
  5
1B920
  8
KI
  6
CONTINUOUS
 62
     7
 10
-244.8326011755689
 20
-46.897070638764973
 30
0.0
 40
4.0
 50
259.29819125371961
 51
265.7018087463
  0
ARC
  5
1B921
  8
KI
  6
CONTINUOUS
 62
     7
 10
-244.8326011755689
 20
-46.897070638787298
 30
0.0
 40
4.0
 50
274.29819125375832
 51
280.7018087463199
  0
ARC
  5
1B922
  8
KI
  6
CONTINUOUS
 62
     7
 10
-244.8326011755689
 20
-46.897070638764973
 30
0.0
 40
2.799999999999998
 50
229.327411972644
 51
357.65265816413881
  0
ARC
  5
1B923
  8
KI
  6
CONTINUOUS
 62
     7
 10
-241.7364467133813
 20
-43.734049953176573
 30
0.0
 40
7.2490069497939373
 50
180.2756114576494
 51
225.96157026527959
  0
ARC
  5
1B924
  8
KI
  6
CONTINUOUS
 62
     7
 10
-243.79194037696351
 20
-32.69793879242259
 30
0.0
 40
0.5
 50
116.0190673622885
 51
210.70307659906439
  0
ARC
  5
1B925
  8
KI
  6
CONTINUOUS
 62
     7
 10
-247.2031761007139
 20
-25.70977244778539
 30
0.0
 40
7.2763100519022599
 50
296.01906736228852
 51
331.8867672336433
  0
ARC
  5
1B926
  8
KI
  6
CONTINUOUS
 62
     7
 10
-247.2031761007139
 20
-25.70977244778539
 30
0.0
 40
5.776310051902259
 50
286.18682820039362
 51
331.8867672336433
  0
LINE
  5
1B927
  8
KI
  6
CONTINUOUS
 62
     7
 10
-249.05924049513399
 20
-31.257096849335611
 30
0.0
 11
-245.59291220940599
 21
-31.257096849337429
 31
0.0
  0
LINE
  5
1B928
  8
KI
  6
CONTINUOUS
 62
     7
 10
-248.4853697950463
 20
-33.257096849336058
 30
0.0
 11
-245.43987025044461
 21
-33.257096849336058
 31
0.0
  0
ARC
  5
1B929
  8
KI
  6
CONTINUOUS
 62
     7
 10
-248.4853697950463
 20
-33.757096849336051
 30
0.0
 40
0.5
 50
90.0
 51
180.0
  0
ARC
  5
1B92A
  8
KI
  6
CONTINUOUS
 62
     7
 10
-241.4964019959512
 20
-28.877817450129509
 30
0.0
 40
0.7573354118943643
 50
339.86775998205133
 51
143.90577448523041
  0
LINE
  5
1B92B
  8
SU
  6
CONTINUOUS
 62
     3
 10
-307.28533910398443
 20
140.23902199813111
 30
0.0
 11
-351.78533910398448
 21
140.23902199813111
 31
0.0
  0
LINE
  5
1B92C
  8
SU
  6
CONTINUOUS
 62
     3
 10
-276.78533675221593
 20
120.2389894774691
 30
0.0
 11
-351.78533910398471
 21
120.2389894774691
 31
0.0
  0
LINE
  5
1B92D
  8
SU
  6
CONTINUOUS
 62
     3
 10
-348.7853391039846
 20
140.23902199813111
 30
0.0
 11
-348.78533910398471
 21
120.2389894774691
 31
0.0
  0
LINE
  5
1B92E
  8
SU
  6
CONTINUOUS
 62
     3
 10
-200.78533751785011
 20
98.739021998133126
 30
0.0
 11
-193.2853391040853
 21
98.739021998133126
 31
0.0
  0
LINE
  5
1B92F
  8
SU
  6
CONTINUOUS
 62
     3
 10
-193.2853391040853
 20
98.739021998133126
 30
0.0
 11
-181.32914862789511
 21
98.739021998133126
 31
0.0
  0
LINE
  5
1B930
  8
SU
  6
CONTINUOUS
 62
     3
 10
-200.78533751785011
 20
136.23898947746881
 30
0.0
 11
-200.78533751785011
 21
95.739021998133126
 31
0.0
  0
LINE
  5
1B931
  8
SU
  6
CONTINUOUS
 62
     3
 10
-240.78533922636319
 20
136.238989477469
 30
0.0
 11
-240.78533922636319
 21
95.739021998133126
 31
0.0
  0
LINE
  5
1B932
  8
SU
  6
CONTINUOUS
 62
     3
 10
-200.78533751785011
 20
98.739021998133126
 30
0.0
 11
-240.78533922636319
 21
98.739021998133126
 31
0.0
  0
LINE
  5
1B933
  8
SU
  6
CONTINUOUS
 62
     3
 10
-275.7853367522161
 20
119.2389894774691
 30
0.0
 11
-275.7853367522161
 21
95.739021998133126
 31
0.0
  0
LINE
  5
1B934
  8
SU
  6
CONTINUOUS
 62
     3
 10
-306.28533910398443
 20
139.23902199813111
 30
0.0
 11
-306.28533910398443
 21
95.739021998133126
 31
0.0
  0
LINE
  5
1B935
  8
SU
  6
CONTINUOUS
 62
     3
 10
-275.7853367522161
 20
98.739021998133126
 30
0.0
 11
-306.28533910398443
 21
98.739021998133126
 31
0.0
  0
LINE
  5
1B936
  8
SU
  6
CONTINUOUS
 62
     3
 10
-193.2853391040853
 20
139.23902199813151
 30
0.0
 11
-193.2853391040853
 21
80.739021998132586
 31
0.0
  0
LINE
  5
1B937
  8
SU
  6
CONTINUOUS
 62
     3
 10
-306.28533910398443
 20
139.23902199813151
 30
0.0
 11
-306.28533910398443
 21
80.739021998132586
 31
0.0
  0
LINE
  5
1B938
  8
SU
  6
CONTINUOUS
 62
     3
 10
-193.2853391040853
 20
83.739021998132586
 30
0.0
 11
-306.28533910398443
 21
83.739021998132586
 31
0.0
  0
LINE
  5
1B939
  8
KI
  6
DASHED2
 62
     7
 10
-262.73534619002641
 20
120.2389544824085
 30
0.0
 11
-261.23661272843282
 21
118.238951772353
 31
0.0
  0
LINE
  5
1B93A
  8
KI
  6
DASHED2
 62
     7
 10
-264.83532978830129
 20
120.2389544824085
 30
0.0
 11
-266.33406324989471
 21
118.238951772353
 31
0.0
  0
LINE
  5
1B93B
  8
KI
  6
DASHED2
 62
     7
 10
-264.94580919865882
 20
143.98289314938151
 30
0.0
 11
-262.49673237307138
 21
142.16626455702681
 31
0.0
  0
LINE
  5
1B93C
  8
KI
  6
DASHED2
 62
     7
 10
-264.94580919865882
 20
145.0930414577418
 30
0.0
 11
-262.49673237307138
 21
143.2764128653865
 31
0.0
  0
LINE
  5
1B93D
  8
KI
  6
DASHED2
 62
     7
 10
-264.94580919865882
 20
146.20322476116201
 30
0.0
 11
-262.49673237307138
 21
144.3865961688075
 31
0.0
  0
LINE
  5
1B93E
  8
KI
  6
DASHED2
 62
     7
 10
-264.94580919865882
 20
147.3133730695221
 30
0.0
 11
-262.49673237307138
 21
145.49674447716731
 31
0.0
  0
LINE
  5
1B93F
  8
KI
  6
DASHED2
 62
     7
 10
-264.94580919865882
 20
148.42352137788231
 30
0.0
 11
-262.49673237307138
 21
146.60689278552761
 31
0.0
  0
LINE
  5
1B940
  8
KI
  6
DASHED2
 62
     7
 10
-264.94580919865882
 20
149.53370468130279
 30
0.0
 11
-262.49673237307138
 21
147.71707608894801
 31
0.0
  0
LINE
  5
1B941
  8
KI
  6
DASHED2
 62
     7
 10
-264.94580919865882
 20
150.64385298966269
 30
0.0
 11
-262.49673237307138
 21
148.8272243973083
 31
0.0
  0
LINE
  5
1B942
  8
KI
  6
DASHED2
 62
     7
 10
-264.94580919865882
 20
151.75400129802281
 30
0.0
 11
-262.49673237307138
 21
149.93737270566811
 31
0.0
  0
LINE
  5
1B943
  8
KI
  6
DASHED2
 62
     7
 10
-264.94580919865882
 20
152.86418460144341
 30
0.0
 11
-262.49673237307138
 21
151.04755600908851
 31
0.0
  0
LINE
  5
1B944
  8
KI
  6
DASHED2
 62
     7
 10
-264.94580919865882
 20
153.97433290980311
 30
0.0
 11
-262.49673237307138
 21
152.1577043174488
 31
0.0
  0
LINE
  5
1B945
  8
KI
  6
DASHED2
 62
     7
 10
-264.94580919865882
 20
155.08451621322379
 30
0.0
 11
-262.49673237307138
 21
153.267887620869
 31
0.0
  0
LINE
  5
1B946
  8
KI
  6
DASHED2
 62
     7
 10
-264.94580919865882
 20
140.65241322924101
 30
0.0
 11
-262.49673237307138
 21
138.8357846368861
 31
0.0
  0
LINE
  5
1B947
  8
KI
  6
DASHED2
 62
     7
 10
-264.94580919865882
 20
141.76256153760141
 30
0.0
 11
-262.49673237307138
 21
139.94593294524611
 31
0.0
  0
LINE
  5
1B948
  8
KI
  6
DASHED2
 62
     7
 10
-264.94580919865882
 20
142.8727098459612
 30
0.0
 11
-262.49673237307138
 21
141.05608125360641
 31
0.0
  0
LINE
  5
1B949
  8
KI
  6
DASHED2
 62
     7
 10
-264.94580919865882
 20
137.32189831404
 30
0.0
 11
-262.49673237307138
 21
135.50530471674571
 31
0.0
  0
LINE
  5
1B94A
  8
KI
  6
DASHED2
 62
     7
 10
-264.94580919865882
 20
138.43208161746071
 30
0.0
 11
-262.49673237307138
 21
136.61545302510541
 31
0.0
  0
LINE
  5
1B94B
  8
KI
  6
DASHED2
 62
     7
 10
-264.94580919865882
 20
139.54222992582069
 30
0.0
 11
-262.49673237307138
 21
137.72560133346579
 31
0.0
  0
LINE
  5
1B94C
  8
KI
  6
DASHED2
 62
     7
 10
-264.9458091947098
 20
143.98289314938151
 30
0.0
 11
-262.49673236912253
 21
142.16626455702681
 31
0.0
  0
LINE
  5
1B94D
  8
KI
  6
DASHED2
 62
     7
 10
-264.9458091947098
 20
145.0930414577418
 30
0.0
 11
-262.49673236912253
 21
143.2764128653865
 31
0.0
  0
LINE
  5
1B94E
  8
KI
  6
DASHED2
 62
     7
 10
-264.9458091947098
 20
146.20322476116201
 30
0.0
 11
-262.49673236912253
 21
144.3865961688075
 31
0.0
  0
LINE
  5
1B94F
  8
KI
  6
DASHED2
 62
     7
 10
-264.9458091947098
 20
147.3133730695221
 30
0.0
 11
-262.49673236912253
 21
145.49674447716731
 31
0.0
  0
LINE
  5
1B950
  8
KI
  6
DASHED2
 62
     7
 10
-264.9458091947098
 20
148.42352137788231
 30
0.0
 11
-262.49673236912253
 21
146.60689278552761
 31
0.0
  0
LINE
  5
1B951
  8
KI
  6
DASHED2
 62
     7
 10
-264.9458091947098
 20
149.53370468130279
 30
0.0
 11
-262.49673236912253
 21
147.71707608894801
 31
0.0
  0
LINE
  5
1B952
  8
KI
  6
DASHED2
 62
     7
 10
-264.9458091947098
 20
150.64385298966269
 30
0.0
 11
-262.49673236912253
 21
148.8272243973083
 31
0.0
  0
LINE
  5
1B953
  8
KI
  6
DASHED2
 62
     7
 10
-264.9458091947098
 20
151.75400129802281
 30
0.0
 11
-262.49673236912253
 21
149.93737270566811
 31
0.0
  0
LINE
  5
1B954
  8
KI
  6
DASHED2
 62
     7
 10
-264.9458091947098
 20
152.86418460144341
 30
0.0
 11
-262.49673236912253
 21
151.04755600908851
 31
0.0
  0
LINE
  5
1B955
  8
KI
  6
DASHED2
 62
     7
 10
-264.9458091947098
 20
153.97433290980311
 30
0.0
 11
-262.49673236912253
 21
152.1577043174488
 31
0.0
  0
LINE
  5
1B956
  8
KI
  6
DASHED2
 62
     7
 10
-264.9458091947098
 20
155.08451621322379
 30
0.0
 11
-262.49673236912253
 21
153.267887620869
 31
0.0
  0
LINE
  5
1B957
  8
KI
  6
DASHED2
 62
     7
 10
-264.9458091947098
 20
156.1946645215844
 30
0.0
 11
-262.49673236912253
 21
154.3780359292289
 31
0.0
  0
LINE
  5
1B958
  8
KI
  6
DASHED2
 62
     7
 10
-264.9458091947098
 20
157.30481282994421
 30
0.0
 11
-262.49673236912253
 21
155.48818423758931
 31
0.0
  0
LINE
  5
1B959
  8
KI
  6
DASHED2
 62
     7
 10
-264.9458091947098
 20
158.41499613336461
 30
0.0
 11
-262.49673236912253
 21
156.59836754100971
 31
0.0
  0
LINE
  5
1B95A
  8
KI
  6
DASHED2
 62
     7
 10
-264.9458091947098
 20
159.52514444172479
 30
0.0
 11
-262.49673236912253
 21
157.70851584936941
 31
0.0
  0
LINE
  5
1B95B
  8
KI
  6
DASHED2
 62
     7
 10
-264.83532978830129
 20
120.2389544824085
 30
0.0
 11
-264.83532978830129
 21
158.35357980195931
 31
0.0
  0
LINE
  5
1B95C
  8
KI
  6
DASHED2
 62
     7
 10
-264.83532978830129
 20
158.35357980195931
 30
0.0
 11
-263.78979985939412
 21
166.9418926064281
 31
0.0
  0
LINE
  5
1B95D
  8
KI
  6
DASHED2
 62
     7
 10
-262.73534619002641
 20
158.35357980195931
 30
0.0
 11
-263.78087611893329
 21
166.9418926064281
 31
0.0
  0
LINE
  5
1B95E
  8
KI
  6
DASHED2
 62
     7
 10
-262.73534619002641
 20
120.2389544824085
 30
0.0
 11
-262.73534619002641
 21
158.35357980195931
 31
0.0
  0
LINE
  5
1B95F
  8
KI
  6
DASHED2
 62
     7
 10
-264.9458091947098
 20
140.65241322924101
 30
0.0
 11
-262.49673236912253
 21
138.8357846368861
 31
0.0
  0
LINE
  5
1B960
  8
KI
  6
DASHED2
 62
     7
 10
-264.9458091947098
 20
141.76256153760141
 30
0.0
 11
-262.49673236912253
 21
139.94593294524651
 31
0.0
  0
LINE
  5
1B961
  8
KI
  6
DASHED2
 62
     7
 10
-264.9458091947098
 20
142.8727098459612
 30
0.0
 11
-262.49673236912253
 21
141.05608125360641
 31
0.0
  0
LINE
  5
1B962
  8
KI
  6
DASHED2
 62
     7
 10
-264.9458091947098
 20
137.32189831404
 30
0.0
 11
-262.49673236912253
 21
135.50530471674571
 31
0.0
  0
LINE
  5
1B963
  8
KI
  6
DASHED2
 62
     7
 10
-264.9458091947098
 20
138.43208161746071
 30
0.0
 11
-262.49673236912253
 21
136.61545302510541
 31
0.0
  0
LINE
  5
1B964
  8
KI
  6
DASHED2
 62
     7
 10
-264.9458091947098
 20
139.54222992582069
 30
0.0
 11
-262.49673236912253
 21
137.72560133346579
 31
0.0
  0
LINE
  5
1B965
  8
KI
  6
CENTER2
 62
     7
 10
-263.78533798916391
 20
113.8839914522745
 30
0.0
 11
-263.78533798916391
 21
172.35419368837651
 31
0.0
  0
LINE
  5
1B966
  8
SU
  6
CONTINUOUS
 62
     3
 10
-240.78533922636319
 20
136.238989477469
 30
0.0
 11
-240.78533922636319
 21
95.739021998133225
 31
0.0
  0
LINE
  5
1B967
  8
SU
  6
CONTINUOUS
 62
     3
 10
-251.78533922661461
 20
119.2389894774691
 30
0.0
 11
-251.78533922661461
 21
95.739021998133225
 31
0.0
  0
LINE
  5
1B968
  8
SU
  6
CONTINUOUS
 62
     3
 10
-240.78533922636319
 20
98.739021998133239
 30
0.0
 11
-251.78533922661461
 21
98.739021998133239
 31
0.0
  0
LINE
  5
1B969
  8
SU
  6
CONTINUOUS
 62
     3
 10
-251.78533922661461
 20
119.2389894774691
 30
0.0
 11
-251.78533922661461
 21
95.73902199813341
 31
0.0
  0
LINE
  5
1B96A
  8
SU
  6
CONTINUOUS
 62
     3
 10
-275.7853367522161
 20
119.2389894774691
 30
0.0
 11
-275.7853367522161
 21
95.73902199813341
 31
0.0
  0
LINE
  5
1B96B
  8
SU
  6
CONTINUOUS
 62
     3
 10
-251.78533922661461
 20
98.739021998133424
 30
0.0
 11
-275.7853367522161
 21
98.739021998133424
 31
0.0
  0
LINE
  5
1B96C
  8
KI
  6
CONTINUOUS
 62
     7
 10
-269.78533675196502
 20
144.7389894774692
 30
0.0
 11
-257.78533922636262
 21
144.7389894774692
 31
0.0
  0
LINE
  5
1B96D
  8
KI
  6
CONTINUOUS
 62
     7
 10
-257.78533922636262
 20
144.7389894774692
 30
0.0
 11
-257.78533922636262
 21
140.2389894774692
 31
0.0
  0
LINE
  5
1B96E
  8
KI
  6
CONTINUOUS
 62
     7
 10
-257.78533922636302
 20
140.2389894774692
 30
0.0
 11
-251.78533922636311
 21
140.2389894774692
 31
0.0
  0
LINE
  5
1B96F
  8
KI
  6
CONTINUOUS
 62
     7
 10
-269.78533675196502
 20
144.7389894774692
 30
0.0
 11
-269.78533675196502
 21
140.2389894774692
 31
0.0
  0
LINE
  5
1B970
  8
KI
  6
CONTINUOUS
 62
     7
 10
-275.78533675196502
 20
140.2389894774692
 30
0.0
 11
-269.78533675196502
 21
140.2389894774692
 31
0.0
  0
LINE
  5
1B971
  8
KI
  6
CONTINUOUS
 62
     7
 10
-275.78533675196502
 20
140.2389894774692
 30
0.0
 11
-275.78533675196502
 21
120.2389894774691
 31
0.0
  0
LINE
  5
1B972
  8
KI
  6
CONTINUOUS
 62
     7
 10
-275.78533675196502
 20
120.2389894774691
 30
0.0
 11
-251.78533922636311
 21
120.2389894774691
 31
0.0
  0
LINE
  5
1B973
  8
KI
  6
CONTINUOUS
 62
     7
 10
-251.78533922636311
 20
140.2389894774692
 30
0.0
 11
-251.78533922636311
 21
120.2389894774691
 31
0.0
  0
LINE
  5
1B974
  8
KI
  6
CONTINUOUS
 62
     7
 10
-251.2853332263623
 20
120.2389544824085
 30
0.0
 11
-249.05924049513391
 21
120.2389544824082
 31
0.0
  0
ARC
  5
1B975
  8
KI
  6
CONTINUOUS
 62
     7
 10
-241.77731017670681
 20
131.7998303725584
 30
0.0
 40
9.2190722294335075
 50
125.62586817551571
 51
177.1953126595514
  0
LINE
  5
1B976
  8
KI
  6
CONTINUOUS
 62
     7
 10
-251.7853392263635
 20
122.4059592078104
 30
0.0
 11
-251.6183345009598
 21
122.2389544824067
 31
0.0
  0
LINE
  5
1B977
  8
KI
  6
CONTINUOUS
 62
     7
 10
-251.58533922636289
 20
123.10398481991611
 30
0.0
 11
-250.98533322636271
 21
122.5039788199169
 31
0.0
  0
LINE
  5
1B978
  8
KI
  6
CONTINUOUS
 62
     7
 10
-251.78533922636311
 20
123.3039848199173
 30
0.0
 11
-251.58533922636289
 21
123.1039848199166
 31
0.0
  0
LINE
  5
1B979
  8
KI
  6
CONTINUOUS
 62
     7
 10
-251.58533922636289
 20
124.0020104320237
 30
0.0
 11
-250.98533322636271
 21
123.4020044320236
 31
0.0
  0
LINE
  5
1B97A
  8
KI
  6
CONTINUOUS
 62
     7
 10
-251.7853392263635
 20
124.2020104320239
 30
0.0
 11
-251.58533922636289
 21
124.0020104320237
 31
0.0
  0
LINE
  5
1B97B
  8
KI
  6
CONTINUOUS
 62
     7
 10
-251.58533922636289
 20
124.9000360441305
 30
0.0
 11
-250.98533322636271
 21
124.3000300441303
 31
0.0
  0
LINE
  5
1B97C
  8
KI
  6
CONTINUOUS
 62
     7
 10
-251.7853392263635
 20
125.1000360441307
 30
0.0
 11
-251.58533922636289
 21
124.9000360441305
 31
0.0
  0
LINE
  5
1B97D
  8
KI
  6
CONTINUOUS
 62
     7
 10
-251.58533922636289
 20
125.79806165623761
 30
0.0
 11
-250.98533322636311
 21
125.1980556562369
 31
0.0
  0
LINE
  5
1B97E
  8
KI
  6
CONTINUOUS
 62
     7
 10
-251.7853392263635
 20
125.9980616562377
 30
0.0
 11
-251.58533922636289
 21
125.79806165623761
 31
0.0
  0
LINE
  5
1B97F
  8
KI
  6
CONTINUOUS
 62
     7
 10
-251.58533922636201
 20
126.6960872683444
 30
0.0
 11
-250.9853332263622
 21
126.0960812683447
 31
0.0
  0
LINE
  5
1B980
  8
KI
  6
CONTINUOUS
 62
     7
 10
-251.78533922636271
 20
126.896087268345
 30
0.0
 11
-251.58533922636241
 21
126.6960872683444
 31
0.0
  0
LINE
  5
1B981
  8
KI
  6
CONTINUOUS
 62
     7
 10
-251.58533922636201
 20
127.59411288045111
 30
0.0
 11
-251.23018082831879
 21
127.23895448240771
 31
0.0
  0
LINE
  5
1B982
  8
KI
  6
CONTINUOUS
 62
     7
 10
-251.23018082831879
 20
127.23895448240771
 30
0.0
 11
-251.00596869264371
 21
127.0147423467328
 31
0.0
  0
LINE
  5
1B983
  8
KI
  6
CONTINUOUS
 62
     7
 10
-251.78533922636231
 20
127.79411288045119
 30
0.0
 11
-251.58533922636241
 21
127.59411288045111
 31
0.0
  0
LINE
  5
1B984
  8
KI
  6
CONTINUOUS
 62
     7
 10
-251.58533922636241
 20
128.49213849255821
 30
0.0
 11
-250.9853392263629
 21
127.8921384925592
 31
0.0
  0
LINE
  5
1B985
  8
KI
  6
CONTINUOUS
 62
     7
 10
-251.78533922636231
 20
128.692138492558
 30
0.0
 11
-251.58533922636241
 21
128.49213849255821
 31
0.0
  0
LINE
  5
1B986
  8
KI
  6
CONTINUOUS
 62
     7
 10
-251.58533922636241
 20
129.39016410466539
 30
0.0
 11
-250.9853392263625
 21
128.79016410466511
 31
0.0
  0
LINE
  5
1B987
  8
KI
  6
CONTINUOUS
 62
     7
 10
-251.78533922636271
 20
129.59016410466521
 30
0.0
 11
-251.58533922636241
 21
129.39016410466539
 31
0.0
  0
LINE
  5
1B988
  8
KI
  6
CONTINUOUS
 62
     7
 10
-251.5361039919984
 20
130.23895448240771
 30
0.0
 11
-250.9853392263625
 21
129.6881897167718
 31
0.0
  0
LINE
  5
1B989
  8
KI
  6
CONTINUOUS
 62
     7
 10
-251.78533922636271
 20
130.23895448240771
 30
0.0
 11
-250.9853392263625
 21
130.23895448240771
 31
0.0
  0
LINE
  5
1B98A
  8
KI
  6
CONTINUOUS
 62
     7
 10
-251.78533922636311
 20
122.2389544824086
 30
0.0
 11
-250.9853332263622
 21
122.23895448240771
 31
0.0
  0
LINE
  5
1B98B
  8
KI
  6
CONTINUOUS
 62
     7
 10
-250.9853392263619
 20
131.2509332346776
 30
0.0
 11
-250.9853392263625
 21
127.48896448240831
 31
0.0
  0
LINE
  5
1B98C
  8
KI
  6
CONTINUOUS
 62
     7
 10
-251.1853392263628
 20
127.2389644824077
 30
0.0
 11
-250.9853392263625
 21
126.9889544824081
 31
0.0
  0
LINE
  5
1B98D
  8
KI
  6
CONTINUOUS
 62
     7
 10
-251.1853332263629
 20
127.2389644824077
 30
0.0
 11
-250.9853392263625
 21
127.48896448240831
 31
0.0
  0
LINE
  5
1B98E
  8
KI
  6
CONTINUOUS
 62
     7
 10
-250.9853332263622
 20
126.9889644824077
 30
0.0
 11
-250.9853332263622
 21
121.2389544824086
 31
0.0
  0
ARC
  5
1B98F
  8
KI
  6
CONTINUOUS
 62
     7
 10
-251.28533922636271
 20
131.9509332346779
 30
0.0
 40
0.3
 50
89.999999999912077
 51
179.99999999965141
  0
LINE
  5
1B990
  8
KI
  6
CONTINUOUS
 62
     7
 10
-250.9853392263625
 20
132.2509332346776
 30
0.0
 11
-251.28533922636271
 21
132.250933234678
 31
0.0
  0
ARC
  5
1B991
  8
KI
  6
CONTINUOUS
 62
     7
 10
-251.28533922636541
 20
131.55093323467869
 30
0.0
 40
0.3
 50
179.99999999965141
 51
269.99999999991189
  0
LINE
  5
1B992
  8
KI
  6
CONTINUOUS
 62
     7
 10
-251.58533922636289
 20
131.9509332346779
 30
0.0
 11
-251.58533922636519
 21
131.55093323467869
 31
0.0
  0
ARC
  5
1B993
  8
KI
  6
CONTINUOUS
 62
     7
 10
-251.28533922636541
 20
120.93895448240841
 30
0.0
 40
0.3
 50
89.999999999912077
 51
179.99999999965141
  0
ARC
  5
1B994
  8
KI
  6
CONTINUOUS
 62
     7
 10
-251.28533922636711
 20
120.5389544824087
 30
0.0
 40
0.3
 50
179.99999999965141
 51
269.99999999991189
  0
LINE
  5
1B995
  8
KI
  6
CONTINUOUS
 62
     7
 10
-251.58533922636471
 20
120.93895448240841
 30
0.0
 11
-251.58533922636741
 21
120.5389544824087
 31
0.0
  0
LINE
  5
1B996
  8
KI
  6
CONTINUOUS
 62
     7
 10
-250.9853332263622
 20
121.2389544824086
 30
0.0
 11
-251.28533922636541
 21
121.2389544824086
 31
0.0
  0
LINE
  5
1B997
  8
KI
  6
CONTINUOUS
 62
     7
 10
-251.28533922636541
 20
131.250933234678
 30
0.0
 11
-250.9853392263619
 21
131.2509332346776
 31
0.0
  0
LINE
  5
1B998
  8
KI
  6
CONTINUOUS
 62
     7
 10
-251.78533922636271
 20
130.23895448240771
 30
0.0
 11
-251.78533922636311
 21
122.2389544824086
 31
0.0
  0
ARC
  5
1B999
  8
KI
  6
CONTINUOUS
 62
     7
 10
-243.79194037696311
 20
121.6797964254942
 30
0.0
 40
0.5
 50
149.29692340093499
 51
243.98093263770789
  0
ARC
  5
1B99A
  8
KI
  6
CONTINUOUS
 62
     7
 10
-247.2031761007137
 20
114.6916300808569
 30
0.0
 40
7.2763100519022599
 50
28.113232766357871
 51
63.980932637708079
  0
ARC
  5
1B99B
  8
KI
  6
CONTINUOUS
 62
     7
 10
-265.306122691491
 20
134.45554565235801
 30
0.0
 40
24.521586859558742
 50
329.2969234009351
 51
3.7111863534315721
  0
ARC
  5
1B99C
  8
KI
  6
CONTINUOUS
 62
     7
 10
-247.2031761007137
 20
114.6916300808569
 30
0.0
 40
5.776310051902259
 50
28.113232766357871
 51
73.813171799602614
  0
LINE
  5
1B99D
  8
KI
  6
CONTINUOUS
 62
     7
 10
-249.05924049513391
 20
120.23895448240719
 30
0.0
 11
-245.5929122094056
 21
120.2389544824091
 31
0.0
  0
ARC
  5
1B99E
  8
KI
  6
CONTINUOUS
 62
     7
 10
-265.306122691491
 20
134.45554565235801
 30
0.0
 40
23.321944298558741
 50
328.4108993939571
 51
3.7111863534315721
  0
LINE
  5
1B99F
  8
KI
  6
CONTINUOUS
 62
     7
 10
-248.48536979504601
 20
122.23895448240771
 30
0.0
 11
-245.43987025044439
 21
122.23895448240771
 31
0.0
  0
LINE
  5
1B9A0
  8
KI
  6
CONTINUOUS
 62
     7
 10
-248.16968079350721
 20
135.7956728887288
 30
0.0
 11
-248.16968103460911
 21
135.79567269230151
 31
0.0
  0
LINE
  5
1B9A1
  8
KI
  6
CONTINUOUS
 62
     7
 10
-248.98536979504601
 20
132.75077754846731
 30
0.0
 11
-248.98536979504601
 21
122.73895448240771
 31
0.0
  0
ARC
  5
1B9A2
  8
KI
  6
CONTINUOUS
 62
     7
 10
-248.48536979504601
 20
122.73895448240771
 30
0.0
 40
0.5
 50
180.0
 51
270.0
  0
ARC
  5
1B9A3
  8
KI
  6
CONTINUOUS
 62
     7
 10
-245.8678773559794
 20
139.74263157699241
 30
0.0
 40
0.3
 50
12.850904373123271
 51
196.28306294276999
  0
ARC
  5
1B9A4
  8
KI
  6
CONTINUOUS
 62
     7
 10
-246.98332870713759
 20
138.3818008384996
 30
0.0
 40
0.5
 50
294.55739357396061
 51
310.67258802736001
  0
ARC
  5
1B9A5
  8
KI
  6
CONTINUOUS
 62
     7
 10
-243.20133435016581
 20
130.1049375769762
 30
0.0
 40
10.0
 50
107.18458009630901
 51
109.803175794162
  0
ARC
  5
1B9A6
  8
KI
  6
CONTINUOUS
 62
     7
 10
-246.86993734579471
 20
139.40769803075881
 30
0.0
 40
0.3
 50
20.662644719016761
 51
202.3867008755924
  0
ARC
  5
1B9A7
  8
KI
  6
CONTINUOUS
 62
     7
 10
-244.83260117556881
 20
135.8789282718366
 30
0.0
 40
4.0
 50
2.3473418358611311
 51
25.701808746255711
  0
ARC
  5
1B9A8
  8
KI
  6
CONTINUOUS
 62
     7
 10
-243.2013273123882
 20
130.10493757696651
 30
0.0
 40
8.7999999999999972
 50
105.7760377473525
 51
105.8019134698674
  0
ARC
  5
1B9A9
  8
KI
  6
CONTINUOUS
 62
     7
 10
-241.36849956043099
 20
137.8789282718356
 30
0.0
 40
0.3
 50
297.8509043731396
 51
122.14909562682701
  0
ARC
  5
1B9AA
  8
KI
  6
CONTINUOUS
 62
     7
 10
-244.83260117556881
 20
135.8789282718366
 30
0.0
 40
4.0
 50
34.29819125370711
 51
40.7018087462979
  0
ARC
  5
1B9AB
  8
KI
  6
CONTINUOUS
 62
     7
 10
-242.00417405082399
 20
138.70735539658381
 30
0.0
 40
0.3
 50
312.8509043731467
 51
137.1490956268762
  0
ARC
  5
1B9AC
  8
KI
  6
CONTINUOUS
 62
     7
 10
-244.83260117556679
 20
139.8789282718366
 30
0.0
 40
0.3
 50
357.85090437314102
 51
182.14909562678051
  0
ARC
  5
1B9AD
  8
KI
  6
CONTINUOUS
 62
     7
 10
-243.7973249951564
 20
139.74263157699201
 30
0.0
 40
0.3
 50
342.85090437306962
 51
167.149095626823
  0
ARC
  5
1B9AE
  8
KI
  6
CONTINUOUS
 62
     7
 10
-244.83260117556881
 20
135.8789282718366
 30
0.0
 40
4.0
 50
64.298191253737713
 51
70.701808746225552
  0
ARC
  5
1B9AF
  8
KI
  6
CONTINUOUS
 62
     7
 10
-242.83260117556969
 20
139.34302988697479
 30
0.0
 40
0.3
 50
327.85090437311823
 51
152.14909562688661
  0
ARC
  5
1B9B0
  8
KI
  6
CONTINUOUS
 62
     7
 10
-244.83260117556881
 20
135.8789282718366
 30
0.0
 40
4.0
 50
49.298191253757572
 51
55.70180874627755
  0
ARC
  5
1B9B1
  8
KI
  6
CONTINUOUS
 62
     7
 10
-244.83260117556881
 20
135.8789282718366
 30
0.0
 40
4.0
 50
94.298191253699784
 51
100.7018087462834
  0
ARC
  5
1B9B2
  8
KI
  6
CONTINUOUS
 62
     7
 10
-244.83260117556881
 20
135.87892827185931
 30
0.0
 40
4.0
 50
79.298191253680031
 51
85.701808746241468
  0
ARC
  5
1B9B3
  8
KI
  6
CONTINUOUS
 62
     7
 10
-244.83260117556881
 20
135.8789282718366
 30
0.0
 40
2.799999999999998
 50
2.3473418358611311
 51
130.67258802735509
  0
ARC
  5
1B9B4
  8
KI
  6
CONTINUOUS
 62
     7
 10
-241.73644671338101
 20
132.71590758624819
 30
0.0
 40
7.2490069497939373
 50
134.0384297347197
 51
179.72438854235031
  0
ARC
  5
1B9B5
  8
KI
  6
CONTINUOUS
 62
     7
 10
-241.49640199595089
 20
117.8596750832014
 30
0.0
 40
0.7573354118943643
 50
216.094225514774
 51
20.132240017949432
  0
ARC
  5
1B9B6
  8
KI
  6
CONTINUOUS
 62
     7
 10
-258.28483185294903
 20
119.1885427425436
 30
0.0
 40
2.5000001067820641
 50
281.5250854492183
 51
1.155319213868458
  0
LINE
  5
1B9B7
  8
KI
  6
CONTINUOUS
 62
     7
 10
-255.785344642524
 20
119.2389706249112
 30
0.0
 11
-255.785344642524
 21
120.2389544824085
 31
0.0
  0
LINE
  5
1B9B8
  8
KI
  6
DASHED2
 62
     7
 10
-258.28533928132799
 20
118.238951772353
 30
0.0
 11
-257.03533321316121
 21
119.2389706249112
 31
0.0
  0
LINE
  5
1B9B9
  8
KI
  6
DASHED2
 62
     7
 10
-258.28533928527702
 20
120.2389894774691
 30
0.0
 11
-257.03533321711012
 21
119.2389706249112
 31
0.0
  0
LINE
  5
1B9BA
  8
KI
  6
DASHED2
 62
     7
 10
-269.2853366891016
 20
118.238951772353
 30
0.0
 11
-258.28533928132799
 21
118.238951772353
 31
0.0
  0
LINE
  5
1B9BB
  8
KI
  6
DASHED2
 62
     7
 10
-270.53534275726838
 20
119.2389706249112
 30
0.0
 11
-257.03533321316121
 21
119.2389706249112
 31
0.0
  0
LINE
  5
1B9BC
  8
KI
  6
DASHED2
 62
     7
 10
-270.53534275726838
 20
119.2389706249112
 30
0.0
 11
-269.2853366891016
 21
120.2389544824085
 31
0.0
  0
LINE
  5
1B9BD
  8
KI
  6
DASHED2
 62
     7
 10
-270.53534275726838
 20
119.2389706249112
 30
0.0
 11
-269.2853366891016
 21
118.238951772353
 31
0.0
  0
LINE
  5
1B9BE
  8
KI
  6
CONTINUOUS
 62
     7
 10
-257.78532985504933
 20
116.7389584885772
 30
0.0
 11
-269.78534611538032
 21
116.7389584885772
 31
0.0
  0
ARC
  5
1B9BF
  8
KI
  6
CONTINUOUS
 62
     7
 10
-269.28584411748062
 20
119.1885427425436
 30
0.0
 40
2.5000001067820641
 50
178.8446960449235
 51
258.47492980957082
  0
LINE
  5
1B9C0
  8
KI
  6
CONTINUOUS
 62
     7
 10
-271.785331327905
 20
119.2389706249112
 30
0.0
 11
-271.785331327905
 21
120.2389544824085
 31
0.0
  0
LINE
  5
1B9C1
  8
SU
  6
CONTINUOUS
 62
     3
 10
-199.78533751784991
 20
137.23898947746881
 30
0.0
 11
-132.78533910398301
 21
137.23898947746881
 31
0.0
  0
LINE
  5
1B9C2
  8
SU
  6
CONTINUOUS
 62
     3
 10
-135.78533910398301
 20
137.23898947746881
 30
0.0
 11
-135.78533910398301
 21
140.23902199813151
 31
0.0
  0
LINE
  5
1B9C3
  8
SU
  6
CONTINUOUS
 62
     3
 10
-135.78533910398301
 20
138.7390057378004
 30
0.0
 11
-150.7853391039838
 21
147.3081940833828
 31
0.0
  0
LINE
  5
1B9C4
  8
SU
  6
CONTINUOUS
 62
     3
 10
-150.7853391039838
 20
147.3081940833828
 30
0.0
 11
-150.7853391039838
 21
152.12152741671611
 31
0.0
  0
LINE
  5
1B9C5
  8
SU
  6
CONTINUOUS
 62
     3
 10
-192.2853391040853
 20
140.23902199813151
 30
0.0
 11
-132.78533910398301
 21
140.23902199813151
 31
0.0
  0
LINE
  5
1B9C6
  8
SU
  6
CONTINUOUS
 62
     3
 10
-135.78533910398301
 20
140.23902199813151
 30
0.0
 11
-135.78533910398301
 21
164.23902199813151
 31
0.0
  0
LINE
  5
1B9C7
  8
SU
  6
CONTINUOUS
 62
     3
 10
-126.7853391039843
 20
154.23902199813151
 30
0.0
 11
-120.7853391039843
 21
164.23902199813151
 31
0.0
  0
LINE
  5
1B9C8
  8
SU
  6
CONTINUOUS
 62
     3
 10
-114.7853391039842
 20
154.23902199813151
 30
0.0
 11
-120.7853391039843
 21
164.23902199813151
 31
0.0
  0
LINE
  5
1B9C9
  8
SU
  6
CONTINUOUS
 62
     3
 10
-126.7853391039843
 20
154.23902199813151
 30
0.0
 11
-114.7853391039842
 21
154.23902199813151
 31
0.0
  0
LINE
  5
1B9CA
  8
SU
  6
CONTINUOUS
 62
     3
 10
-193.7853391039844
 20
-51.257131844397009
 30
0.0
 11
-132.78533910397911
 21
-51.25713184439703
 31
0.0
  0
LINE
  5
1B9CB
  8
SU
  6
CONTINUOUS
 62
     3
 10
-135.78533910397911
 20
-51.25713184439703
 30
0.0
 11
-135.78533910397911
 21
-66.257134672280699
 31
0.0
  0
LINE
  5
1B9CC
  8
SU
  6
CONTINUOUS
 62
     3
 10
-135.78533910398301
 20
-46.257131844397023
 30
0.0
 11
-135.78533910398301
 21
-51.25713184439703
 31
0.0
  0
LINE
  5
1B9CD
  8
SU
  6
CONTINUOUS
 62
     3
 10
-193.28533910408521
 20
-67.257134672272514
 30
0.0
 11
-193.28533910408521
 21
-89.257134672288288
 31
0.0
  0
LINE
  5
1B9CE
  8
SU
  6
CONTINUOUS
 62
     3
 10
-193.28533910408521
 20
-86.257134672288302
 30
0.0
 11
-178.72248197025471
 21
-86.257134672288302
 31
0.0
  0
LINE
  5
1B9CF
  8
SU
  6
CONTINUOUS
 62
     3
 10
-194.78533922661481
 20
-86.257134672288302
 30
0.0
 11
-193.28533910408521
 21
-86.257134672288302
 31
0.0
  0
LINE
  5
1B9D0
  8
SU
  6
CONTINUOUS
 62
     3
 10
-126.7853391039843
 20
-56.257134672280699
 30
0.0
 11
-120.7853391039843
 21
-66.257134672280699
 31
0.0
  0
LINE
  5
1B9D1
  8
SU
  6
CONTINUOUS
 62
     3
 10
-114.7853391039842
 20
-56.257134672280699
 30
0.0
 11
-120.7853391039843
 21
-66.257134672280699
 31
0.0
  0
LINE
  5
1B9D2
  8
SU
  6
CONTINUOUS
 62
     3
 10
-126.7853391039843
 20
-56.257134672280699
 30
0.0
 11
-114.7853391039842
 21
-56.257134672280699
 31
0.0
  0
LINE
  5
1B9D3
  8
SU
  6
CONTINUOUS
 62
     3
 10
-198.28533910793391
 20
-198.08455641742719
 30
0.0
 11
-132.78533910398301
 21
-198.08455641742719
 31
0.0
  0
LINE
  5
1B9D4
  8
SU
  6
CONTINUOUS
 62
     3
 10
-135.78533910398301
 20
-198.08455641742719
 30
0.0
 11
-135.78533910398301
 21
-206.08455641742711
 31
0.0
  0
LINE
  5
1B9D5
  8
SU
  6
CONTINUOUS
 62
     3
 10
-165.28533853177979
 20
-218.08455641742711
 30
0.0
 11
-117.7853391039842
 21
-218.08455641742711
 31
0.0
  0
LINE
  5
1B9D6
  8
SU
  6
CONTINUOUS
 62
     3
 10
-120.7853391039843
 20
-206.08455641742711
 30
0.0
 11
-120.7853391039843
 21
-218.08455641742711
 31
0.0
  0
LINE
  5
1B9D7
  8
SU
  6
CONTINUOUS
 62
     3
 10
-230.53533996219031
 20
-201.58455641742711
 30
0.0
 11
-232.4549252752586
 21
-203.05750603387261
 31
0.0
  0
LINE
  5
1B9D8
  8
SU
  6
CONTINUOUS
 62
     3
 10
-230.53533996219031
 20
-201.58455641742711
 30
0.0
 11
-232.00869380878439
 21
-203.50466853348181
 31
0.0
  0
ARC
  5
1B9D9
  8
KI
  6
CONTINUOUS
 62
     7
 10
-208.9820859010317
 20
-205.136392481071
 30
0.0
 40
0.9481639363564127
 50
176.8660808498669
 51
3.133919150132968
  0
LINE
  5
1B9DA
  8
KI
  6
CONTINUOUS
 62
     7
 10
-228.53533996219031
 20
-200.08455641742751
 30
0.0
 11
-228.53533996219031
 21
-205.08455641742751
 31
0.0
  0
LINE
  5
1B9DB
  8
KI
  6
CONTINUOUS
 62
     7
 10
-209.9288318398734
 20
-200.08455641742751
 30
0.0
 11
-209.9288318398734
 21
-205.08455641742751
 31
0.0
  0
LINE
  5
1B9DC
  8
KI
  6
CONTINUOUS
 62
     7
 10
-208.03533996219051
 20
-198.08455641742711
 30
0.0
 11
-208.03533996219051
 21
-205.08455641742751
 31
0.0
  0
LINE
  5
1B9DD
  8
KI
  6
CONTINUOUS
 62
     7
 10
-230.53533996219031
 20
-198.08455641742711
 30
0.0
 11
-230.53533996219031
 21
-205.08455641742751
 31
0.0
  0
ARC
  5
1B9DE
  8
KI
  6
CONTINUOUS
 62
     7
 10
-229.53533996219031
 20
-205.08455641742751
 30
0.0
 40
1.0
 50
180.0
 51
0.0
  0
LINE
  5
1B9DF
  8
KI
  6
CONTINUOUS
 62
     7
 10
-230.53533996219031
 20
-198.08455641742711
 30
0.0
 11
-208.03533996219051
 21
-198.08455641742711
 31
0.0
  0
LINE
  5
1B9E0
  8
KI
  6
CONTINUOUS
 62
     7
 10
-209.9288318398734
 20
-200.08455641742751
 30
0.0
 11
-228.53533996219031
 21
-200.08455641742751
 31
0.0
  0
LINE
  5
1B9E1
  8
SU
  6
CONTINUOUS
 62
     3
 10
-126.7853391039843
 20
-196.08455641742711
 30
0.0
 11
-120.7853391039843
 21
-206.08455641742711
 31
0.0
  0
LINE
  5
1B9E2
  8
SU
  6
CONTINUOUS
 62
     3
 10
-114.7853391039842
 20
-196.08455641742711
 30
0.0
 11
-120.7853391039843
 21
-206.08455641742711
 31
0.0
  0
LINE
  5
1B9E3
  8
SU
  6
CONTINUOUS
 62
     3
 10
-126.7853391039843
 20
-196.08455641742711
 30
0.0
 11
-114.7853391039842
 21
-196.08455641742711
 31
0.0
  0
LINE
  5
1B9E4
  8
SU
  6
CONTINUOUS
 62
     3
 10
-198.28533910793391
 20
-198.08455641742719
 30
0.0
 11
-132.78533910398261
 21
-198.08455641742719
 31
0.0
  0
LINE
  5
1B9E5
  8
SU
  6
CONTINUOUS
 62
     3
 10
-135.78533910398261
 20
-107.4364940610219
 30
0.0
 11
-135.78533910398261
 21
-198.08455641742719
 31
0.0
  0
LINE
  5
1B9E6
  8
SU
  6
CONTINUOUS
 62
     3
 10
-165.28533853177979
 20
-206.08455641742711
 30
0.0
 11
-117.7853391039842
 21
-206.08455641742711
 31
0.0
  0
LINE
  5
1B9E7
  8
SU
  6
CONTINUOUS
 62
     3
 10
-120.7853391039843
 20
-107.4364940610219
 30
0.0
 11
-120.7853391039843
 21
-206.08455641742711
 31
0.0
  0
LINE
  5
1B9E8
  8
SU
  6
CONTINUOUS
 62
     3
 10
-299.34580125645681
 20
-46.905503303996639
 30
0.0
 11
-300.64584297118768
 21
-44.864846574732383
 31
0.0
  0
LINE
  5
1B9E9
  8
SU
  6
CONTINUOUS
 62
     3
 10
-299.34580125645681
 20
-46.905503303996639
 30
0.0
 11
-301.13019551738199
 21
-45.270407215973179
 31
0.0
  0
LINE
  5
1B9EA
  8
SU
  6
CONTINUOUS
 62
     3
 10
-305.78533486696062
 20
-51.257131844397527
 30
0.0
 11
-351.78533910398471
 21
-51.257131844397527
 31
0.0
  0
LINE
  5
1B9EB
  8
SU
  6
CONTINUOUS
 62
     3
 10
-280.78534093907638
 20
-31.257131844397531
 30
0.0
 11
-351.78533910398471
 21
-31.257131844397509
 31
0.0
  0
LINE
  5
1B9EC
  8
SU
  6
CONTINUOUS
 62
     3
 10
-348.78533910398471
 20
-51.257131844397527
 30
0.0
 11
-348.78533910398471
 21
-31.257131844397509
 31
0.0
  0
LINE
  5
1B9ED
  8
SU
  6
CONTINUOUS
 62
     3
 10
-348.7853391040868
 20
-66.257134672283172
 30
0.0
 11
-351.78533910398471
 21
-66.257134672283172
 31
0.0
  0
LINE
  5
1B9EE
  8
SU
  6
CONTINUOUS
 62
     3
 10
-305.78533486696062
 20
-51.257131844397527
 30
0.0
 11
-351.78533910398471
 21
-51.257131844397527
 31
0.0
  0
LINE
  5
1B9EF
  8
SU
  6
CONTINUOUS
 62
     3
 10
-348.78533910398471
 20
-66.257134672283172
 30
0.0
 11
-348.78533910398471
 21
-51.257131844397527
 31
0.0
  0
TEXT
  5
1B9F0
  8
SU
  6
CONTINUOUS
 62
     3
 10
-370.8297993821904
 20
-5.4919708241454499
 30
0.0
 40
4.0
  1
下枠沓摺（四方枠用）
 41
0.8299999999999999
  0
LINE
  5
1B9F1
  8
SU
  6
CONTINUOUS
 62
     3
 10
-304.78533486696062
 20
-67.25713467228934
 30
0.0
 11
-304.78533486696062
 21
-89.257134672291144
 31
0.0
  0
LINE
  5
1B9F2
  8
SU
  6
CONTINUOUS
 62
     3
 10
-306.28533910398562
 20
-67.257134672272699
 30
0.0
 11
-306.28533910398562
 21
-89.257134672291144
 31
0.0
  0
LINE
  5
1B9F3
  8
SU
  6
CONTINUOUS
 62
     3
 10
-302.3853348669607
 20
-86.257134672291158
 30
0.0
 11
-299.98533486696073
 21
-86.257134672291158
 31
0.0
  0
LINE
  5
1B9F4
  8
SU
  6
CONTINUOUS
 62
     3
 10
-306.28533910398562
 20
-86.257134672291158
 30
0.0
 11
-320.16724386589033
 21
-86.257134672291158
 31
0.0
  0
LINE
  5
1B9F5
  8
SU
  6
CONTINUOUS
 62
     3
 10
-304.78533486696062
 20
-86.257134672291158
 30
0.0
 11
-306.28533910398562
 21
-86.257134672291158
 31
0.0
  0
LINE
  5
1B9F6
  8
SU
  6
CONTINUOUS
 62
     3
 10
-348.7853391040868
 20
-66.257134672283172
 30
0.0
 11
-366.78533910398471
 21
-66.257134672283144
 31
0.0
  0
LINE
  5
1B9F7
  8
SU
  6
CONTINUOUS
 62
     3
 10
-280.78534093907638
 20
-31.257131844397531
 30
0.0
 11
-366.78533910398471
 21
-31.257131844397509
 31
0.0
  0
LINE
  5
1B9F8
  8
SU
  6
CONTINUOUS
 62
     3
 10
-363.78533910398471
 20
-66.257134672283144
 30
0.0
 11
-363.78533910398471
 21
-31.257131844397509
 31
0.0
  0
LINE
  5
1B9F9
  8
SU
  6
CONTINUOUS
 62
     3
 10
-304.78533486696062
 20
-67.257134672281211
 30
0.0
 11
-304.78533486696062
 21
-89.257134672288558
 31
0.0
  0
LINE
  5
1B9FA
  8
SU
  6
CONTINUOUS
 62
     3
 10
-194.78533922661481
 20
-67.257134672288899
 30
0.0
 11
-194.78533922661481
 21
-89.257134672288558
 31
0.0
  0
LINE
  5
1B9FB
  8
SU
  6
CONTINUOUS
 62
     3
 10
-304.78533486696062
 20
-86.257134672288544
 30
0.0
 11
-194.78533922661481
 21
-86.257134672288544
 31
0.0
  0
TEXT
  5
1B9FC
  8
SU
  6
CONTINUOUS
 62
     3
 10
-313.955537049714
 20
-229.0123509066494
 30
0.0
 40
4.0
  1
ボトムタイトナー（三方枠用）
 41
0.8299999999999999
  0
TEXT
  5
1B9FD
  8
SU
  6
CONTINUOUS
 62
     3
 10
-299.04715609733319
 20
-235.67901757331609
 30
0.0
 40
4.0
  1
〔オプション〕
 41
0.8299999999999999
  0
LINE
  5
1B9FE
  8
SU
  6
CONTINUOUS
 62
     3
 10
-199.78533751784991
 20
-46.257131844397009
 30
0.0
 11
-132.78533910398301
 21
-46.257131844397023
 31
0.0
  0
LINE
  5
1B9FF
  8
SU
  6
CONTINUOUS
 62
     3
 10
-135.78533910398261
 20
137.23898947746881
 30
0.0
 11
-135.78533910398301
 21
-46.257131844397023
 31
0.0
  0
LINE
  5
1BA00
  8
SU
  6
CONTINUOUS
 62
     3
 10
-190.7853391039844
 20
164.23902199813151
 30
0.0
 11
-117.7853391039842
 21
164.23902199813151
 31
0.0
  0
LINE
  5
1BA01
  8
SU
  6
CONTINUOUS
 62
     3
 10
-150.7853391040866
 20
-66.257134672280699
 30
0.0
 11
-117.7853391039842
 21
-66.257134672280699
 31
0.0
  0
LINE
  5
1BA02
  8
SU
  6
CONTINUOUS
 62
     3
 10
-120.7853391039842
 20
164.23902199813151
 30
0.0
 11
-120.7853391039843
 21
-66.257134672280699
 31
0.0
  0
LINE
  5
1BA03
  8
KI
  6
CONTINUOUS
 62
     7
 10
287.6242157861895
 20
-91.523240984937388
 30
0.0
 11
287.6242157861895
 21
21.476759015062701
 31
0.0
  0
LINE
  5
1BA04
  8
KI
  6
CONTINUOUS
 62
     7
 10
272.6242157861895
 20
-91.523240984937388
 30
0.0
 11
272.6242157861895
 21
-80.523240984937374
 31
0.0
  0
LINE
  5
1BA05
  8
KI
  6
CONTINUOUS
 62
     7
 10
272.6242157861895
 20
-80.523240984937374
 30
0.0
 11
280.12421578618978
 21
-80.523240984937374
 31
0.0
  0
LINE
  5
1BA06
  8
KI
  6
CONTINUOUS
 62
     7
 10
280.12421578618978
 20
-80.523240984937374
 30
0.0
 11
280.12421578618978
 21
-90.023240984937388
 31
0.0
  0
LINE
  5
1BA07
  8
KI
  6
CONTINUOUS
 62
     7
 10
263.62421578618938
 20
21.476759015062701
 30
0.0
 11
263.62421578618938
 21
-13.023241746872021
 31
0.0
  0
LINE
  5
1BA08
  8
KI
  6
CONTINUOUS
 62
     7
 10
280.12421578618978
 20
10.47675901506271
 30
0.0
 11
272.6242157861895
 21
10.47675901506271
 31
0.0
  0
LINE
  5
1BA09
  8
KI
  6
CONTINUOUS
 62
     7
 10
280.12421578618978
 20
19.976759015062711
 30
0.0
 11
280.12421578618978
 21
10.47675901506271
 31
0.0
  0
LINE
  5
1BA0A
  8
KI
  6
CONTINUOUS
 62
     7
 10
287.6242157861895
 20
21.476759015062701
 30
0.0
 11
281.62421578618961
 21
21.476759015062701
 31
0.0
  0
LINE
  5
1BA0B
  8
KI
  6
CONTINUOUS
 62
     7
 10
281.62421578618961
 20
21.476759015062701
 30
0.0
 11
280.12421578618978
 21
19.976759015062711
 31
0.0
1001
GENIUS_GENFIL_13
1070
     0
1040
1.5
1040
1.5
1040
20.0
1040
0.0
1002
{
1002
}
1001
GENIUS_GENOBJ-N-CHA_13
1002
{
1000
OWNER
1000
GEN
1002
}
1001
GENIUS_GENODEF_13
1002
{
1000
HIER
1070
     0
1002
}
1002
{
1000
MANEDIT
1070
     0
1002
}
1002
{
1000
NOSEL
1070
     0
1002
}
1002
{
1000
BEHIND
1070
     0
1002
}
1002
{
1000
OTHER
1070
     0
1002
}
1002
{
1000
REACTOR
1002
}
  0
LINE
  5
1BA0C
  8
KI
  6
CONTINUOUS
 62
     7
 10
272.6242157861895
 20
10.47675901506271
 30
0.0
 11
272.6242157861895
 21
21.476759015062701
 31
0.0
  0
LINE
  5
1BA0D
  8
KI
  6
CONTINUOUS
 62
     7
 10
272.6242157861895
 20
21.476759015062701
 30
0.0
 11
263.62421578618938
 21
21.476759015062701
 31
0.0
  0
LINE
  5
1BA0E
  8
KI
  6
CONTINUOUS
 62
     7
 10
263.62421578618938
 20
-91.523240984937388
 30
0.0
 11
272.6242157861895
 21
-91.523240984937388
 31
0.0
  0
LINE
  5
1BA0F
  8
KI
  6
CONTINUOUS
 62
     7
 10
281.62421578618961
 20
-91.523240984937388
 30
0.0
 11
287.6242157861895
 21
-91.523240984937388
 31
0.0
  0
LINE
  5
1BA10
  8
KI
  6
CONTINUOUS
 62
     7
 10
281.62421578618961
 20
-91.523240984937388
 30
0.0
 11
280.12421578618978
 21
-90.023240984937388
 31
0.0
1001
GENIUS_GENFIL_13
1070
     0
1040
1.5
1040
1.5
1040
20.0
1040
0.0
1002
{
1002
}
1001
GENIUS_GENOBJ-N-CHA_13
1002
{
1000
OWNER
1000
GEN
1002
}
1001
GENIUS_GENODEF_13
1002
{
1000
HIER
1070
     0
1002
}
1002
{
1000
MANEDIT
1070
     0
1002
}
1002
{
1000
NOSEL
1070
     0
1002
}
1002
{
1000
BEHIND
1070
     0
1002
}
1002
{
1000
OTHER
1070
     0
1002
}
1002
{
1000
REACTOR
1002
}
  0
LINE
  5
1BA11
  8
OS
  6
CONTINUOUS
 62
     2
 10
284.71404627414069
 20
21.476759015062701
 30
0.0
 11
287.6242157861895
 21
18.566589503013802
 31
0.0
1001
GENIUS_GENODEF_13
1002
{
1000
HIER
1070
     0
1002
}
1002
{
1000
MANEDIT
1070
     0
1002
}
1002
{
1000
NOSEL
1070
     0
1002
}
1002
{
1000
BEHIND
1070
     0
1002
}
1002
{
1000
OTHER
1070
     0
1002
}
1002
{
1000
REACTOR
1002
}
1001
GENIUS_GENOBJ-N-HTC_13
1002
{
1000
OWNER
1000
GEN
1002
}
1001
GENIUS_GENHATCH_13
1002
{
1000
DATA
1040
45.0
1042
1.0
1000
_U
1070
     0
1011
6801.5395565887347
1021
0.0
1031
0.0
1021
-839.78674514272984
1031
0.0
1002
}
1002
{
1000
UCS
1010
0.0
1020
0.0
1030
0.0
1010
1.0
1020
0.0
1030
0.0
1010
0.0
1020
1.0
1030
0.0
1002
}
  0
LINE
  5
1BA12
  8
OS
  6
CONTINUOUS
 62
     2
 10
280.12421578618978
 20
16.167094566402039
 30
0.0
 11
287.6242157861895
 21
8.6670945664020564
 31
0.0
1001
GENIUS_GENODEF_13
1002
{
1000
HIER
1070
     0
1002
}
1002
{
1000
MANEDIT
1070
     0
1002
}
1002
{
1000
NOSEL
1070
     0
1002
}
1002
{
1000
BEHIND
1070
     0
1002
}
1002
{
1000
OTHER
1070
     0
1002
}
1002
{
1000
REACTOR
1002
}
1001
GENIUS_GENOBJ-N-HTC_13
1002
{
1000
OWNER
1000
GEN
1002
}
1001
GENIUS_GENHATCH_13
1002
{
1000
DATA
1040
45.0
1042
1.0
1000
_U
1070
     0
1011
6801.5395565887347
1021
0.0
1031
0.0
1021
-839.78674514272984
1031
0.0
1002
}
1002
{
1000
UCS
1010
0.0
1020
0.0
1030
0.0
1010
1.0
1020
0.0
1030
0.0
1010
0.0
1020
1.0
1030
0.0
1002
}
  0
LINE
  5
1BA13
  8
OS
  6
CONTINUOUS
 62
     2
 10
264.91505640091788
 20
21.476759015062701
 30
0.0
 11
272.6242157861895
 21
13.7675996297903
 31
0.0
1001
GENIUS_GENODEF_13
1002
{
1000
HIER
1070
     0
1002
}
1002
{
1000
MANEDIT
1070
     0
1002
}
1002
{
1000
NOSEL
1070
     0
1002
}
1002
{
1000
BEHIND
1070
     0
1002
}
1002
{
1000
OTHER
1070
     0
1002
}
1002
{
1000
REACTOR
1002
}
1001
GENIUS_GENOBJ-N-HTC_13
1002
{
1000
OWNER
1000
GEN
1002
}
1001
GENIUS_GENHATCH_13
1002
{
1000
DATA
1040
45.0
1042
1.0
1000
_U
1070
     0
1011
6801.5395565887347
1021
0.0
1031
0.0
1021
-839.78674514272984
1031
0.0
1002
}
1002
{
1000
UCS
1010
0.0
1020
0.0
1030
0.0
1010
1.0
1020
0.0
1030
0.0
1010
0.0
1020
1.0
1030
0.0
1002
}
  0
LINE
  5
1BA14
  8
OS
  6
CONTINUOUS
 62
     2
 10
275.91505640091782
 20
10.47675901506271
 30
0.0
 11
287.6242157861895
 21
-1.232400370209574
 31
0.0
1001
GENIUS_GENODEF_13
1002
{
1000
HIER
1070
     0
1002
}
1002
{
1000
MANEDIT
1070
     0
1002
}
1002
{
1000
NOSEL
1070
     0
1002
}
1002
{
1000
BEHIND
1070
     0
1002
}
1002
{
1000
OTHER
1070
     0
1002
}
1002
{
1000
REACTOR
1002
}
1001
GENIUS_GENOBJ-N-HTC_13
1002
{
1000
OWNER
1000
GEN
1002
}
1001
GENIUS_GENHATCH_13
1002
{
1000
DATA
1040
45.0
1042
1.0
1000
_U
1070
     0
1011
6801.5395565887347
1021
0.0
1031
0.0
1021
-839.78674514272984
1031
0.0
1002
}
1002
{
1000
UCS
1010
0.0
1020
0.0
1030
0.0
1010
1.0
1020
0.0
1030
0.0
1010
0.0
1020
1.0
1030
0.0
1002
}
  0
LINE
  5
1BA15
  8
OS
  6
CONTINUOUS
 62
     2
 10
263.62421578618938
 20
12.86810469317879
 30
0.0
 11
287.6242157861895
 21
-11.131895306821191
 31
0.0
1001
GENIUS_GENODEF_13
1002
{
1000
HIER
1070
     0
1002
}
1002
{
1000
MANEDIT
1070
     0
1002
}
1002
{
1000
NOSEL
1070
     0
1002
}
1002
{
1000
BEHIND
1070
     0
1002
}
1002
{
1000
OTHER
1070
     0
1002
}
1002
{
1000
REACTOR
1002
}
1001
GENIUS_GENOBJ-N-HTC_13
1002
{
1000
OWNER
1000
GEN
1002
}
1001
GENIUS_GENHATCH_13
1002
{
1000
DATA
1040
45.0
1042
1.0
1000
_U
1070
     0
1011
6801.5395565887347
1021
0.0
1031
0.0
1021
-839.78674514272984
1031
0.0
1002
}
1002
{
1000
UCS
1010
0.0
1020
0.0
1030
0.0
1010
1.0
1020
0.0
1030
0.0
1010
0.0
1020
1.0
1030
0.0
1002
}
  0
LINE
  5
1BA16
  8
OS
  6
CONTINUOUS
 62
     2
 10
263.62421578618938
 20
2.9686097565670471
 30
0.0
 11
287.6242157861895
 21
-21.031390243432948
 31
0.0
1001
GENIUS_GENODEF_13
1002
{
1000
HIER
1070
     0
1002
}
1002
{
1000
MANEDIT
1070
     0
1002
}
1002
{
1000
NOSEL
1070
     0
1002
}
1002
{
1000
BEHIND
1070
     0
1002
}
1002
{
1000
OTHER
1070
     0
1002
}
1002
{
1000
REACTOR
1002
}
1001
GENIUS_GENOBJ-N-HTC_13
1002
{
1000
OWNER
1000
GEN
1002
}
1001
GENIUS_GENHATCH_13
1002
{
1000
DATA
1040
45.0
1042
1.0
1000
_U
1070
     0
1011
6801.5395565887347
1021
0.0
1031
0.0
1021
-839.78674514272984
1031
0.0
1002
}
1002
{
1000
UCS
1010
0.0
1020
0.0
1030
0.0
1010
1.0
1020
0.0
1030
0.0
1010
0.0
1020
1.0
1030
0.0
1002
}
  0
LINE
  5
1BA17
  8
OS
  6
CONTINUOUS
 62
     2
 10
263.62421578618938
 20
-6.9308851800446947
 30
0.0
 11
287.6242157861895
 21
-30.93088518004469
 31
0.0
1001
GENIUS_GENODEF_13
1002
{
1000
HIER
1070
     0
1002
}
1002
{
1000
MANEDIT
1070
     0
1002
}
1002
{
1000
NOSEL
1070
     0
1002
}
1002
{
1000
BEHIND
1070
     0
1002
}
1002
{
1000
OTHER
1070
     0
1002
}
1002
{
1000
REACTOR
1002
}
1001
GENIUS_GENOBJ-N-HTC_13
1002
{
1000
OWNER
1000
GEN
1002
}
1001
GENIUS_GENHATCH_13
1002
{
1000
DATA
1040
45.0
1042
1.0
1000
_U
1070
     0
1011
6801.5395565887347
1021
0.0
1031
0.0
1021
-839.78674514272984
1031
0.0
1002
}
1002
{
1000
UCS
1010
0.0
1020
0.0
1030
0.0
1010
1.0
1020
0.0
1030
0.0
1010
0.0
1020
1.0
1030
0.0
1002
}
  0
LINE
  5
1BA18
  8
OS
  6
CONTINUOUS
 62
     2
 10
265.91758000539602
 20
-29.02323927247437
 30
0.0
 11
287.6242157861895
 21
-50.729875053267961
 31
0.0
1001
GENIUS_GENODEF_13
1002
{
1000
HIER
1070
     0
1002
}
1002
{
1000
MANEDIT
1070
     0
1002
}
1002
{
1000
NOSEL
1070
     0
1002
}
1002
{
1000
BEHIND
1070
     0
1002
}
1002
{
1000
OTHER
1070
     0
1002
}
1002
{
1000
REACTOR
1002
}
1001
GENIUS_GENOBJ-N-HTC_13
1002
{
1000
OWNER
1000
GEN
1002
}
1001
GENIUS_GENHATCH_13
1002
{
1000
DATA
1040
45.0
1042
1.0
1000
_U
1070
     0
1011
6801.5395565887347
1021
0.0
1031
0.0
1021
-839.78674514272984
1031
0.0
1002
}
1002
{
1000
UCS
1010
0.0
1020
0.0
1030
0.0
1010
1.0
1020
0.0
1030
0.0
1010
0.0
1020
1.0
1030
0.0
1002
}
  0
LINE
  5
1BA19
  8
OS
  6
CONTINUOUS
 62
     2
 10
263.62421578618938
 20
-46.52886492649133
 30
0.0
 11
287.6242157861895
 21
-70.528864926491295
 31
0.0
1001
GENIUS_GENODEF_13
1002
{
1000
HIER
1070
     0
1002
}
1002
{
1000
MANEDIT
1070
     0
1002
}
1002
{
1000
NOSEL
1070
     0
1002
}
1002
{
1000
BEHIND
1070
     0
1002
}
1002
{
1000
OTHER
1070
     0
1002
}
1002
{
1000
REACTOR
1002
}
1001
GENIUS_GENOBJ-N-HTC_13
1002
{
1000
OWNER
1000
GEN
1002
}
1001
GENIUS_GENHATCH_13
1002
{
1000
DATA
1040
45.0
1042
1.0
1000
_U
1070
     0
1011
6801.5395565887347
1021
0.0
1031
0.0
1021
-839.78674514272984
1031
0.0
1002
}
1002
{
1000
UCS
1010
0.0
1020
0.0
1030
0.0
1010
1.0
1020
0.0
1030
0.0
1010
0.0
1020
1.0
1030
0.0
1002
}
  0
LINE
  5
1BA1A
  8
OS
  6
CONTINUOUS
 62
     2
 10
263.62421578618938
 20
-56.428359863102969
 30
0.0
 11
287.6242157861895
 21
-80.428359863102983
 31
0.0
1001
GENIUS_GENODEF_13
1002
{
1000
HIER
1070
     0
1002
}
1002
{
1000
MANEDIT
1070
     0
1002
}
1002
{
1000
NOSEL
1070
     0
1002
}
1002
{
1000
BEHIND
1070
     0
1002
}
1002
{
1000
OTHER
1070
     0
1002
}
1002
{
1000
REACTOR
1002
}
1001
GENIUS_GENOBJ-N-HTC_13
1002
{
1000
OWNER
1000
GEN
1002
}
1001
GENIUS_GENHATCH_13
1002
{
1000
DATA
1040
45.0
1042
1.0
1000
_U
1070
     0
1011
6801.5395565887347
1021
0.0
1031
0.0
1021
-839.78674514272984
1031
0.0
1002
}
1002
{
1000
UCS
1010
0.0
1020
0.0
1030
0.0
1010
1.0
1020
0.0
1030
0.0
1010
0.0
1020
1.0
1030
0.0
1002
}
  0
LINE
  5
1BA1B
  8
OS
  6
CONTINUOUS
 62
     2
 10
263.62421578618938
 20
-66.327854799714601
 30
0.0
 11
277.81960197141223
 21
-80.523240984937374
 31
0.0
1001
GENIUS_GENODEF_13
1002
{
1000
HIER
1070
     0
1002
}
1002
{
1000
MANEDIT
1070
     0
1002
}
1002
{
1000
NOSEL
1070
     0
1002
}
1002
{
1000
BEHIND
1070
     0
1002
}
1002
{
1000
OTHER
1070
     0
1002
}
1002
{
1000
REACTOR
1002
}
1001
GENIUS_GENOBJ-N-HTC_13
1002
{
1000
OWNER
1000
GEN
1002
}
1001
GENIUS_GENHATCH_13
1002
{
1000
DATA
1040
45.0
1042
1.0
1000
_U
1070
     0
1011
6801.5395565887347
1021
0.0
1031
0.0
1021
-839.78674514272984
1031
0.0
1002
}
1002
{
1000
UCS
1010
0.0
1020
0.0
1030
0.0
1010
1.0
1020
0.0
1030
0.0
1010
0.0
1020
1.0
1030
0.0
1002
}
  0
LINE
  5
1BA1C
  8
OS
  6
CONTINUOUS
 62
     2
 10
280.12421578618978
 20
-82.827854799714601
 30
0.0
 11
287.6242157861895
 21
-90.327854799714714
 31
0.0
1001
GENIUS_GENODEF_13
1002
{
1000
HIER
1070
     0
1002
}
1002
{
1000
MANEDIT
1070
     0
1002
}
1002
{
1000
NOSEL
1070
     0
1002
}
1002
{
1000
BEHIND
1070
     0
1002
}
1002
{
1000
OTHER
1070
     0
1002
}
1002
{
1000
REACTOR
1002
}
1001
GENIUS_GENOBJ-N-HTC_13
1002
{
1000
OWNER
1000
GEN
1002
}
1001
GENIUS_GENHATCH_13
1002
{
1000
DATA
1040
45.0
1042
1.0
1000
_U
1070
     0
1011
6801.5395565887347
1021
0.0
1031
0.0
1021
-839.78674514272984
1031
0.0
1002
}
1002
{
1000
UCS
1010
0.0
1020
0.0
1030
0.0
1010
1.0
1020
0.0
1030
0.0
1010
0.0
1020
1.0
1030
0.0
1002
}
  0
LINE
  5
1BA1D
  8
OS
  6
CONTINUOUS
 62
     2
 10
263.62421578618938
 20
-76.227349736326346
 30
0.0
 11
272.6242157861895
 21
-85.227349736326204
 31
0.0
1001
GENIUS_GENODEF_13
1002
{
1000
HIER
1070
     0
1002
}
1002
{
1000
MANEDIT
1070
     0
1002
}
1002
{
1000
NOSEL
1070
     0
1002
}
1002
{
1000
BEHIND
1070
     0
1002
}
1002
{
1000
OTHER
1070
     0
1002
}
1002
{
1000
REACTOR
1002
}
1001
GENIUS_GENOBJ-N-HTC_13
1002
{
1000
OWNER
1000
GEN
1002
}
1001
GENIUS_GENHATCH_13
1002
{
1000
DATA
1040
45.0
1042
1.0
1000
_U
1070
     0
1011
6801.5395565887347
1021
0.0
1031
0.0
1021
-839.78674514272984
1031
0.0
1002
}
1002
{
1000
UCS
1010
0.0
1020
0.0
1030
0.0
1010
1.0
1020
0.0
1030
0.0
1010
0.0
1020
1.0
1030
0.0
1002
}
  0
LINE
  5
1BA1E
  8
OS
  6
CONTINUOUS
 62
     2
 10
263.62421578618938
 20
-86.126844672937978
 30
0.0
 11
269.0206120981893
 21
-91.523240984937388
 31
0.0
1001
GENIUS_GENODEF_13
1002
{
1000
HIER
1070
     0
1002
}
1002
{
1000
MANEDIT
1070
     0
1002
}
1002
{
1000
NOSEL
1070
     0
1002
}
1002
{
1000
BEHIND
1070
     0
1002
}
1002
{
1000
OTHER
1070
     0
1002
}
1002
{
1000
REACTOR
1002
}
1001
GENIUS_GENOBJ-N-HTC_13
1002
{
1000
OWNER
1000
GEN
1002
}
1001
GENIUS_GENHATCH_13
1002
{
1000
DATA
1040
45.0
1042
1.0
1000
_U
1070
     0
1011
6801.5395565887347
1021
0.0
1031
0.0
1021
-839.78674514272984
1031
0.0
1002
}
1002
{
1000
UCS
1010
0.0
1020
0.0
1030
0.0
1010
1.0
1020
0.0
1030
0.0
1010
0.0
1020
1.0
1030
0.0
1002
}
  0
LINE
  5
1BA1F
  8
OS
  6
CONTINUOUS
 62
     2
 10
263.62421578618938
 20
-36.629369989879592
 30
0.0
 11
287.6242157861895
 21
-60.62936998987972
 31
0.0
1001
GENIUS_GENODEF_13
1002
{
1000
HIER
1070
     0
1002
}
1002
{
1000
MANEDIT
1070
     0
1002
}
1002
{
1000
NOSEL
1070
     0
1002
}
1002
{
1000
BEHIND
1070
     0
1002
}
1002
{
1000
OTHER
1070
     0
1002
}
1002
{
1000
REACTOR
1002
}
1001
GENIUS_GENOBJ-N-HTC_13
1002
{
1000
OWNER
1000
GEN
1002
}
1001
GENIUS_GENHATCH_13
1002
{
1000
DATA
1040
45.0
1042
1.0
1000
_U
1070
     0
1011
6801.5395565887347
1021
0.0
1031
0.0
1021
-839.78674514272984
1031
0.0
1002
}
1002
{
1000
UCS
1010
0.0
1020
0.0
1030
0.0
1010
1.0
1020
0.0
1030
0.0
1010
0.0
1020
1.0
1030
0.0
1002
}
  0
LINE
  5
1BA20
  8
OS
  6
CONTINUOUS
 62
     2
 10
268.6242157861895
 20
-21.83038011665619
 30
0.0
 11
287.6242157861895
 21
-40.830380116656329
 31
0.0
1001
GENIUS_GENODEF_13
1002
{
1000
HIER
1070
     0
1002
}
1002
{
1000
MANEDIT
1070
     0
1002
}
1002
{
1000
NOSEL
1070
     0
1002
}
1002
{
1000
BEHIND
1070
     0
1002
}
1002
{
1000
OTHER
1070
     0
1002
}
1002
{
1000
REACTOR
1002
}
1001
GENIUS_GENOBJ-N-HTC_13
1002
{
1000
OWNER
1000
GEN
1002
}
1001
GENIUS_GENHATCH_13
1002
{
1000
DATA
1040
45.0
1042
1.0
1000
_U
1070
     0
1011
6801.5395565887347
1021
0.0
1031
0.0
1021
-839.78674514272984
1031
0.0
1002
}
1002
{
1000
UCS
1010
0.0
1020
0.0
1030
0.0
1010
1.0
1020
0.0
1030
0.0
1010
0.0
1020
1.0
1030
0.0
1002
}
  0
LINE
  5
1BA21
  8
KI
  6
CONTINUOUS
 62
     7
 10
263.62421578618938
 20
-13.023241746872021
 30
0.0
 11
268.6242157861895
 21
-13.023241746872021
 31
0.0
  0
LINE
  5
1BA22
  8
KI
  6
CONTINUOUS
 62
     7
 10
268.6242157861895
 20
-29.02323927247437
 30
0.0
 11
268.6242157861895
 21
-13.023241746872021
 31
0.0
  0
LINE
  5
1BA23
  8
KI
  6
CONTINUOUS
 62
     7
 10
263.62421578618938
 20
-29.02323927247437
 30
0.0
 11
268.6242157861895
 21
-29.02323927247437
 31
0.0
  0
LINE
  5
1BA24
  8
KI
  6
CONTINUOUS
 62
     7
 10
263.62421578618938
 20
-29.02323927247437
 30
0.0
 11
263.62421578618938
 21
-91.523240984937388
 31
0.0
  0
LINE
  5
1BA25
  8
KI
  6
CONTINUOUS
 62
     7
 10
37.624215786190682
 20
-91.523240984937388
 30
0.0
 11
37.624215786190682
 21
21.476759015062701
 31
0.0
  0
LINE
  5
1BA26
  8
KI
  6
CONTINUOUS
 62
     7
 10
52.624215786190682
 20
-91.523240984937388
 30
0.0
 11
52.624215786190682
 21
-80.523240984937374
 31
0.0
  0
LINE
  5
1BA27
  8
KI
  6
CONTINUOUS
 62
     7
 10
52.624215786190682
 20
-80.523240984937374
 30
0.0
 11
45.124215786190682
 21
-80.523240984937374
 31
0.0
  0
LINE
  5
1BA28
  8
KI
  6
CONTINUOUS
 62
     7
 10
45.124215786190682
 20
-80.523240984937374
 30
0.0
 11
45.124215786190682
 21
-90.023240984937388
 31
0.0
  0
LINE
  5
1BA29
  8
KI
  6
CONTINUOUS
 62
     7
 10
61.624215786190689
 20
21.476759015062701
 30
0.0
 11
61.624215786190689
 21
-13.023241746872021
 31
0.0
  0
LINE
  5
1BA2A
  8
KI
  6
CONTINUOUS
 62
     7
 10
45.124215786190682
 20
10.47675901506271
 30
0.0
 11
52.624215786190682
 21
10.47675901506271
 31
0.0
  0
LINE
  5
1BA2B
  8
KI
  6
CONTINUOUS
 62
     7
 10
45.124215786190682
 20
19.976759015062711
 30
0.0
 11
45.124215786190682
 21
10.47675901506271
 31
0.0
  0
LINE
  5
1BA2C
  8
KI
  6
CONTINUOUS
 62
     7
 10
37.624215786190682
 20
21.476759015062701
 30
0.0
 11
43.624215786190689
 21
21.476759015062701
 31
0.0
  0
LINE
  5
1BA2D
  8
KI
  6
CONTINUOUS
 62
     7
 10
43.624215786190689
 20
21.476759015062701
 30
0.0
 11
45.124215786190682
 21
19.976759015062711
 31
0.0
1001
GENIUS_GENFIL_13
1070
     0
1040
1.5
1040
1.5
1040
20.0
1040
0.0
1002
{
1002
}
1001
GENIUS_GENOBJ-N-CHA_13
1002
{
1000
OWNER
1000
GEN
1002
}
1001
GENIUS_GENODEF_13
1002
{
1000
HIER
1070
     0
1002
}
1002
{
1000
MANEDIT
1070
     0
1002
}
1002
{
1000
NOSEL
1070
     0
1002
}
1002
{
1000
BEHIND
1070
     0
1002
}
1002
{
1000
OTHER
1070
     0
1002
}
1002
{
1000
REACTOR
1002
}
  0
LINE
  5
1BA2E
  8
KI
  6
CONTINUOUS
 62
     7
 10
52.624215786190682
 20
10.47675901506271
 30
0.0
 11
52.624215786190682
 21
21.476759015062701
 31
0.0
  0
LINE
  5
1BA2F
  8
KI
  6
CONTINUOUS
 62
     7
 10
52.624215786190682
 20
21.476759015062701
 30
0.0
 11
61.624215786190689
 21
21.476759015062701
 31
0.0
  0
LINE
  5
1BA30
  8
KI
  6
CONTINUOUS
 62
     7
 10
61.624215786190689
 20
-91.523240984937388
 30
0.0
 11
52.624215786190682
 21
-91.523240984937388
 31
0.0
  0
LINE
  5
1BA31
  8
KI
  6
CONTINUOUS
 62
     7
 10
43.624215786190689
 20
-91.523240984937388
 30
0.0
 11
37.624215786190682
 21
-91.523240984937388
 31
0.0
  0
LINE
  5
1BA32
  8
KI
  6
CONTINUOUS
 62
     7
 10
43.624215786190689
 20
-91.523240984937388
 30
0.0
 11
45.124215786190682
 21
-90.023240984937388
 31
0.0
1001
GENIUS_GENFIL_13
1070
     0
1040
1.5
1040
1.5
1040
20.0
1040
0.0
1002
{
1002
}
1001
GENIUS_GENOBJ-N-CHA_13
1002
{
1000
OWNER
1000
GEN
1002
}
1001
GENIUS_GENODEF_13
1002
{
1000
HIER
1070
     0
1002
}
1002
{
1000
MANEDIT
1070
     0
1002
}
1002
{
1000
NOSEL
1070
     0
1002
}
1002
{
1000
BEHIND
1070
     0
1002
}
1002
{
1000
OTHER
1070
     0
1002
}
1002
{
1000
REACTOR
1002
}
  0
LINE
  5
1BA33
  8
OS
  6
CONTINUOUS
 62
     2
 10
40.534385298239599
 20
21.476759015062701
 30
0.0
 11
37.624215786190682
 21
18.566589503013802
 31
0.0
1001
GENIUS_GENODEF_13
1002
{
1000
HIER
1070
     0
1002
}
1002
{
1000
MANEDIT
1070
     0
1002
}
1002
{
1000
NOSEL
1070
     0
1002
}
1002
{
1000
BEHIND
1070
     0
1002
}
1002
{
1000
OTHER
1070
     0
1002
}
1002
{
1000
REACTOR
1002
}
1001
GENIUS_GENOBJ-N-HTC_13
1002
{
1000
OWNER
1000
GEN
1002
}
1001
GENIUS_GENHATCH_13
1002
{
1000
DATA
1040
45.0
1042
1.0
1000
_U
1070
     0
1011
47.771415145575702
1021
0.0
1031
0.0
1021
-61.386584884104757
1031
0.0
1002
}
1002
{
1000
UCS
1010
0.0
1020
0.0
1030
0.0
1010
1.0
1020
0.0
1030
0.0
1010
0.0
1020
1.0
1030
0.0
1002
}
  0
LINE
  5
1BA34
  8
OS
  6
CONTINUOUS
 62
     2
 10
45.124215786190682
 20
16.167094566402039
 30
0.0
 11
37.624215786190682
 21
8.6670945664020564
 31
0.0
1001
GENIUS_GENODEF_13
1002
{
1000
HIER
1070
     0
1002
}
1002
{
1000
MANEDIT
1070
     0
1002
}
1002
{
1000
NOSEL
1070
     0
1002
}
1002
{
1000
BEHIND
1070
     0
1002
}
1002
{
1000
OTHER
1070
     0
1002
}
1002
{
1000
REACTOR
1002
}
1001
GENIUS_GENOBJ-N-HTC_13
1002
{
1000
OWNER
1000
GEN
1002
}
1001
GENIUS_GENHATCH_13
1002
{
1000
DATA
1040
45.0
1042
1.0
1000
_U
1070
     0
1011
47.771415145575702
1021
0.0
1031
0.0
1021
-61.386584884104757
1031
0.0
1002
}
1002
{
1000
UCS
1010
0.0
1020
0.0
1030
0.0
1010
1.0
1020
0.0
1030
0.0
1010
0.0
1020
1.0
1030
0.0
1002
}
  0
LINE
  5
1BA35
  8
OS
  6
CONTINUOUS
 62
     2
 10
60.333375171462642
 20
21.476759015062701
 30
0.0
 11
52.624215786190682
 21
13.7675996297903
 31
0.0
1001
GENIUS_GENODEF_13
1002
{
1000
HIER
1070
     0
1002
}
1002
{
1000
MANEDIT
1070
     0
1002
}
1002
{
1000
NOSEL
1070
     0
1002
}
1002
{
1000
BEHIND
1070
     0
1002
}
1002
{
1000
OTHER
1070
     0
1002
}
1002
{
1000
REACTOR
1002
}
1001
GENIUS_GENOBJ-N-HTC_13
1002
{
1000
OWNER
1000
GEN
1002
}
1001
GENIUS_GENHATCH_13
1002
{
1000
DATA
1040
45.0
1042
1.0
1000
_U
1070
     0
1011
47.771415145575702
1021
0.0
1031
0.0
1021
-61.386584884104757
1031
0.0
1002
}
1002
{
1000
UCS
1010
0.0
1020
0.0
1030
0.0
1010
1.0
1020
0.0
1030
0.0
1010
0.0
1020
1.0
1030
0.0
1002
}
  0
LINE
  5
1BA36
  8
OS
  6
CONTINUOUS
 62
     2
 10
49.333375171462649
 20
10.47675901506271
 30
0.0
 11
37.624215786190682
 21
-1.232400370209574
 31
0.0
1001
GENIUS_GENODEF_13
1002
{
1000
HIER
1070
     0
1002
}
1002
{
1000
MANEDIT
1070
     0
1002
}
1002
{
1000
NOSEL
1070
     0
1002
}
1002
{
1000
BEHIND
1070
     0
1002
}
1002
{
1000
OTHER
1070
     0
1002
}
1002
{
1000
REACTOR
1002
}
1001
GENIUS_GENOBJ-N-HTC_13
1002
{
1000
OWNER
1000
GEN
1002
}
1001
GENIUS_GENHATCH_13
1002
{
1000
DATA
1040
45.0
1042
1.0
1000
_U
1070
     0
1011
47.771415145575702
1021
0.0
1031
0.0
1021
-61.386584884104757
1031
0.0
1002
}
1002
{
1000
UCS
1010
0.0
1020
0.0
1030
0.0
1010
1.0
1020
0.0
1030
0.0
1010
0.0
1020
1.0
1030
0.0
1002
}
  0
LINE
  5
1BA37
  8
OS
  6
CONTINUOUS
 62
     2
 10
61.624215786190689
 20
12.86810469317879
 30
0.0
 11
37.624215786190682
 21
-11.131895306821191
 31
0.0
1001
GENIUS_GENODEF_13
1002
{
1000
HIER
1070
     0
1002
}
1002
{
1000
MANEDIT
1070
     0
1002
}
1002
{
1000
NOSEL
1070
     0
1002
}
1002
{
1000
BEHIND
1070
     0
1002
}
1002
{
1000
OTHER
1070
     0
1002
}
1002
{
1000
REACTOR
1002
}
1001
GENIUS_GENOBJ-N-HTC_13
1002
{
1000
OWNER
1000
GEN
1002
}
1001
GENIUS_GENHATCH_13
1002
{
1000
DATA
1040
45.0
1042
1.0
1000
_U
1070
     0
1011
47.771415145575702
1021
0.0
1031
0.0
1021
-61.386584884104757
1031
0.0
1002
}
1002
{
1000
UCS
1010
0.0
1020
0.0
1030
0.0
1010
1.0
1020
0.0
1030
0.0
1010
0.0
1020
1.0
1030
0.0
1002
}
  0
LINE
  5
1BA38
  8
OS
  6
CONTINUOUS
 62
     2
 10
61.624215786190689
 20
2.9686097565670471
 30
0.0
 11
37.624215786190682
 21
-21.031390243432948
 31
0.0
1001
GENIUS_GENODEF_13
1002
{
1000
HIER
1070
     0
1002
}
1002
{
1000
MANEDIT
1070
     0
1002
}
1002
{
1000
NOSEL
1070
     0
1002
}
1002
{
1000
BEHIND
1070
     0
1002
}
1002
{
1000
OTHER
1070
     0
1002
}
1002
{
1000
REACTOR
1002
}
1001
GENIUS_GENOBJ-N-HTC_13
1002
{
1000
OWNER
1000
GEN
1002
}
1001
GENIUS_GENHATCH_13
1002
{
1000
DATA
1040
45.0
1042
1.0
1000
_U
1070
     0
1011
47.771415145575702
1021
0.0
1031
0.0
1021
-61.386584884104757
1031
0.0
1002
}
1002
{
1000
UCS
1010
0.0
1020
0.0
1030
0.0
1010
1.0
1020
0.0
1030
0.0
1010
0.0
1020
1.0
1030
0.0
1002
}
  0
LINE
  5
1BA39
  8
OS
  6
CONTINUOUS
 62
     2
 10
61.624215786190689
 20
-6.9308851800446947
 30
0.0
 11
37.624215786190682
 21
-30.93088518004469
 31
0.0
1001
GENIUS_GENODEF_13
1002
{
1000
HIER
1070
     0
1002
}
1002
{
1000
MANEDIT
1070
     0
1002
}
1002
{
1000
NOSEL
1070
     0
1002
}
1002
{
1000
BEHIND
1070
     0
1002
}
1002
{
1000
OTHER
1070
     0
1002
}
1002
{
1000
REACTOR
1002
}
1001
GENIUS_GENOBJ-N-HTC_13
1002
{
1000
OWNER
1000
GEN
1002
}
1001
GENIUS_GENHATCH_13
1002
{
1000
DATA
1040
45.0
1042
1.0
1000
_U
1070
     0
1011
47.771415145575702
1021
0.0
1031
0.0
1021
-61.386584884104757
1031
0.0
1002
}
1002
{
1000
UCS
1010
0.0
1020
0.0
1030
0.0
1010
1.0
1020
0.0
1030
0.0
1010
0.0
1020
1.0
1030
0.0
1002
}
  0
LINE
  5
1BA3A
  8
OS
  6
CONTINUOUS
 62
     2
 10
59.330851566984173
 20
-29.02323927247437
 30
0.0
 11
37.624215786190682
 21
-50.729875053267961
 31
0.0
1001
GENIUS_GENODEF_13
1002
{
1000
HIER
1070
     0
1002
}
1002
{
1000
MANEDIT
1070
     0
1002
}
1002
{
1000
NOSEL
1070
     0
1002
}
1002
{
1000
BEHIND
1070
     0
1002
}
1002
{
1000
OTHER
1070
     0
1002
}
1002
{
1000
REACTOR
1002
}
1001
GENIUS_GENOBJ-N-HTC_13
1002
{
1000
OWNER
1000
GEN
1002
}
1001
GENIUS_GENHATCH_13
1002
{
1000
DATA
1040
45.0
1042
1.0
1000
_U
1070
     0
1011
47.771415145575702
1021
0.0
1031
0.0
1021
-61.386584884104757
1031
0.0
1002
}
1002
{
1000
UCS
1010
0.0
1020
0.0
1030
0.0
1010
1.0
1020
0.0
1030
0.0
1010
0.0
1020
1.0
1030
0.0
1002
}
  0
LINE
  5
1BA3B
  8
OS
  6
CONTINUOUS
 62
     2
 10
61.624215786190689
 20
-46.52886492649133
 30
0.0
 11
37.624215786190682
 21
-70.528864926491295
 31
0.0
1001
GENIUS_GENODEF_13
1002
{
1000
HIER
1070
     0
1002
}
1002
{
1000
MANEDIT
1070
     0
1002
}
1002
{
1000
NOSEL
1070
     0
1002
}
1002
{
1000
BEHIND
1070
     0
1002
}
1002
{
1000
OTHER
1070
     0
1002
}
1002
{
1000
REACTOR
1002
}
1001
GENIUS_GENOBJ-N-HTC_13
1002
{
1000
OWNER
1000
GEN
1002
}
1001
GENIUS_GENHATCH_13
1002
{
1000
DATA
1040
45.0
1042
1.0
1000
_U
1070
     0
1011
47.771415145575702
1021
0.0
1031
0.0
1021
-61.386584884104757
1031
0.0
1002
}
1002
{
1000
UCS
1010
0.0
1020
0.0
1030
0.0
1010
1.0
1020
0.0
1030
0.0
1010
0.0
1020
1.0
1030
0.0
1002
}
  0
LINE
  5
1BA3C
  8
OS
  6
CONTINUOUS
 62
     2
 10
61.624215786190689
 20
-56.428359863102969
 30
0.0
 11
37.624215786190682
 21
-80.428359863102983
 31
0.0
1001
GENIUS_GENODEF_13
1002
{
1000
HIER
1070
     0
1002
}
1002
{
1000
MANEDIT
1070
     0
1002
}
1002
{
1000
NOSEL
1070
     0
1002
}
1002
{
1000
BEHIND
1070
     0
1002
}
1002
{
1000
OTHER
1070
     0
1002
}
1002
{
1000
REACTOR
1002
}
1001
GENIUS_GENOBJ-N-HTC_13
1002
{
1000
OWNER
1000
GEN
1002
}
1001
GENIUS_GENHATCH_13
1002
{
1000
DATA
1040
45.0
1042
1.0
1000
_U
1070
     0
1011
47.771415145575702
1021
0.0
1031
0.0
1021
-61.386584884104757
1031
0.0
1002
}
1002
{
1000
UCS
1010
0.0
1020
0.0
1030
0.0
1010
1.0
1020
0.0
1030
0.0
1010
0.0
1020
1.0
1030
0.0
1002
}
  0
LINE
  5
1BA3D
  8
OS
  6
CONTINUOUS
 62
     2
 10
61.624215786190689
 20
-66.327854799714601
 30
0.0
 11
47.428829600968129
 21
-80.523240984937374
 31
0.0
1001
GENIUS_GENODEF_13
1002
{
1000
HIER
1070
     0
1002
}
1002
{
1000
MANEDIT
1070
     0
1002
}
1002
{
1000
NOSEL
1070
     0
1002
}
1002
{
1000
BEHIND
1070
     0
1002
}
1002
{
1000
OTHER
1070
     0
1002
}
1002
{
1000
REACTOR
1002
}
1001
GENIUS_GENOBJ-N-HTC_13
1002
{
1000
OWNER
1000
GEN
1002
}
1001
GENIUS_GENHATCH_13
1002
{
1000
DATA
1040
45.0
1042
1.0
1000
_U
1070
     0
1011
47.771415145575702
1021
0.0
1031
0.0
1021
-61.386584884104757
1031
0.0
1002
}
1002
{
1000
UCS
1010
0.0
1020
0.0
1030
0.0
1010
1.0
1020
0.0
1030
0.0
1010
0.0
1020
1.0
1030
0.0
1002
}
  0
LINE
  5
1BA3E
  8
OS
  6
CONTINUOUS
 62
     2
 10
45.124215786190682
 20
-82.827854799714601
 30
0.0
 11
37.624215786190682
 21
-90.327854799714714
 31
0.0
1001
GENIUS_GENODEF_13
1002
{
1000
HIER
1070
     0
1002
}
1002
{
1000
MANEDIT
1070
     0
1002
}
1002
{
1000
NOSEL
1070
     0
1002
}
1002
{
1000
BEHIND
1070
     0
1002
}
1002
{
1000
OTHER
1070
     0
1002
}
1002
{
1000
REACTOR
1002
}
1001
GENIUS_GENOBJ-N-HTC_13
1002
{
1000
OWNER
1000
GEN
1002
}
1001
GENIUS_GENHATCH_13
1002
{
1000
DATA
1040
45.0
1042
1.0
1000
_U
1070
     0
1011
47.771415145575702
1021
0.0
1031
0.0
1021
-61.386584884104757
1031
0.0
1002
}
1002
{
1000
UCS
1010
0.0
1020
0.0
1030
0.0
1010
1.0
1020
0.0
1030
0.0
1010
0.0
1020
1.0
1030
0.0
1002
}
  0
LINE
  5
1BA3F
  8
OS
  6
CONTINUOUS
 62
     2
 10
61.624215786190689
 20
-76.227349736326346
 30
0.0
 11
52.624215786190682
 21
-85.227349736326204
 31
0.0
1001
GENIUS_GENODEF_13
1002
{
1000
HIER
1070
     0
1002
}
1002
{
1000
MANEDIT
1070
     0
1002
}
1002
{
1000
NOSEL
1070
     0
1002
}
1002
{
1000
BEHIND
1070
     0
1002
}
1002
{
1000
OTHER
1070
     0
1002
}
1002
{
1000
REACTOR
1002
}
1001
GENIUS_GENOBJ-N-HTC_13
1002
{
1000
OWNER
1000
GEN
1002
}
1001
GENIUS_GENHATCH_13
1002
{
1000
DATA
1040
45.0
1042
1.0
1000
_U
1070
     0
1011
47.771415145575702
1021
0.0
1031
0.0
1021
-61.386584884104757
1031
0.0
1002
}
1002
{
1000
UCS
1010
0.0
1020
0.0
1030
0.0
1010
1.0
1020
0.0
1030
0.0
1010
0.0
1020
1.0
1030
0.0
1002
}
  0
LINE
  5
1BA40
  8
OS
  6
CONTINUOUS
 62
     2
 10
61.624215786190689
 20
-86.126844672937978
 30
0.0
 11
56.227819474191172
 21
-91.523240984937388
 31
0.0
1001
GENIUS_GENODEF_13
1002
{
1000
HIER
1070
     0
1002
}
1002
{
1000
MANEDIT
1070
     0
1002
}
1002
{
1000
NOSEL
1070
     0
1002
}
1002
{
1000
BEHIND
1070
     0
1002
}
1002
{
1000
OTHER
1070
     0
1002
}
1002
{
1000
REACTOR
1002
}
1001
GENIUS_GENOBJ-N-HTC_13
1002
{
1000
OWNER
1000
GEN
1002
}
1001
GENIUS_GENHATCH_13
1002
{
1000
DATA
1040
45.0
1042
1.0
1000
_U
1070
     0
1011
47.771415145575702
1021
0.0
1031
0.0
1021
-61.386584884104757
1031
0.0
1002
}
1002
{
1000
UCS
1010
0.0
1020
0.0
1030
0.0
1010
1.0
1020
0.0
1030
0.0
1010
0.0
1020
1.0
1030
0.0
1002
}
  0
LINE
  5
1BA41
  8
OS
  6
CONTINUOUS
 62
     2
 10
61.624215786190689
 20
-36.629369989879592
 30
0.0
 11
37.624215786190682
 21
-60.62936998987972
 31
0.0
1001
GENIUS_GENODEF_13
1002
{
1000
HIER
1070
     0
1002
}
1002
{
1000
MANEDIT
1070
     0
1002
}
1002
{
1000
NOSEL
1070
     0
1002
}
1002
{
1000
BEHIND
1070
     0
1002
}
1002
{
1000
OTHER
1070
     0
1002
}
1002
{
1000
REACTOR
1002
}
1001
GENIUS_GENOBJ-N-HTC_13
1002
{
1000
OWNER
1000
GEN
1002
}
1001
GENIUS_GENHATCH_13
1002
{
1000
DATA
1040
45.0
1042
1.0
1000
_U
1070
     0
1011
47.771415145575702
1021
0.0
1031
0.0
1021
-61.386584884104757
1031
0.0
1002
}
1002
{
1000
UCS
1010
0.0
1020
0.0
1030
0.0
1010
1.0
1020
0.0
1030
0.0
1010
0.0
1020
1.0
1030
0.0
1002
}
  0
LINE
  5
1BA42
  8
OS
  6
CONTINUOUS
 62
     2
 10
56.624215786190689
 20
-21.83038011665619
 30
0.0
 11
37.624215786190682
 21
-40.830380116656329
 31
0.0
1001
GENIUS_GENODEF_13
1002
{
1000
HIER
1070
     0
1002
}
1002
{
1000
MANEDIT
1070
     0
1002
}
1002
{
1000
NOSEL
1070
     0
1002
}
1002
{
1000
BEHIND
1070
     0
1002
}
1002
{
1000
OTHER
1070
     0
1002
}
1002
{
1000
REACTOR
1002
}
1001
GENIUS_GENOBJ-N-HTC_13
1002
{
1000
OWNER
1000
GEN
1002
}
1001
GENIUS_GENHATCH_13
1002
{
1000
DATA
1040
45.0
1042
1.0
1000
_U
1070
     0
1011
47.771415145575702
1021
0.0
1031
0.0
1021
-61.386584884104757
1031
0.0
1002
}
1002
{
1000
UCS
1010
0.0
1020
0.0
1030
0.0
1010
1.0
1020
0.0
1030
0.0
1010
0.0
1020
1.0
1030
0.0
1002
}
  0
LINE
  5
1BA43
  8
KI
  6
CONTINUOUS
 62
     7
 10
61.624215786190689
 20
-13.023241746872021
 30
0.0
 11
56.624215786190689
 21
-13.023241746872021
 31
0.0
  0
LINE
  5
1BA44
  8
KI
  6
CONTINUOUS
 62
     7
 10
56.624215786190689
 20
-29.02323927247437
 30
0.0
 11
56.624215786190689
 21
-13.023241746872021
 31
0.0
  0
LINE
  5
1BA45
  8
KI
  6
CONTINUOUS
 62
     7
 10
61.624215786190689
 20
-29.02323927247437
 30
0.0
 11
56.624215786190689
 21
-29.02323927247437
 31
0.0
  0
LINE
  5
1BA46
  8
KI
  6
CONTINUOUS
 62
     7
 10
61.624215786190689
 20
-29.02323927247437
 30
0.0
 11
61.624215786190689
 21
-91.523240984937388
 31
0.0
  0
LINE
  5
1BA47
  8
SU
  6
CONTINUOUS
 62
     3
 10
263.6242157861895
 20
22.476759015062608
 30
0.0
 11
263.6242157861895
 21
66.976764745842416
 31
0.0
  0
LINE
  5
1BA48
  8
SU
  6
CONTINUOUS
 62
     3
 10
272.6242157861895
 20
63.976764745842402
 30
0.0
 11
263.6242157861895
 21
63.976764745842402
 31
0.0
  0
LINE
  5
1BA49
  8
SU
  6
CONTINUOUS
 62
     3
 10
272.6242157861895
 20
44.976764745842409
 30
0.0
 11
272.6242157861895
 21
66.976764745842289
 31
0.0
  0
LINE
  5
1BA4A
  8
SU
  6
CONTINUOUS
 62
     3
 10
296.62421578618978
 20
44.976764745842409
 30
0.0
 11
296.62421578618978
 21
66.976764745842289
 31
0.0
  0
LINE
  5
1BA4B
  8
SU
  6
CONTINUOUS
 62
     3
 10
272.6242157861895
 20
63.976764745842303
 30
0.0
 11
296.62421578618978
 21
63.976764745842303
 31
0.0
  0
LINE
  5
1BA4C
  8
OS
  6
CONTINUOUS
 62
     2
 10
338.6242182533806
 20
-100.0232386007505
 30
0.0
 11
287.62421578619012
 21
-100.0232386007505
 31
0.0
  0
LINE
  5
1BA4D
  8
OS
  6
CONTINUOUS
 62
     2
 10
338.6242182533806
 20
-98.023238600750787
 30
0.0
 11
287.62421578619012
 21
-98.023238600750787
 31
0.0
  0
LINE
  5
1BA4E
  8
OS
  6
CONTINUOUS
 62
     2
 10
338.6242182533806
 20
-89.523238600750815
 30
0.0
 11
287.62421578619012
 21
-89.523238600750815
 31
0.0
  0
LINE
  5
1BA4F
  8
OS
  6
CONTINUOUS
 62
     2
 10
338.6242182533806
 20
-87.523238600750787
 30
0.0
 11
287.62421578619012
 21
-87.523238600750787
 31
0.0
  0
LINE
  5
1BA50
  8
OS
  6
CONTINUOUS
 62
     2
 10
292.62407845708032
 20
17.476822434405161
 30
0.0
 11
338.6242182533806
 21
-28.523308263108909
 31
0.0
  0
LINE
  5
1BA51
  8
OS
  6
CONTINUOUS
 62
     2
 10
338.6242182533806
 20
-41.523065122089271
 30
0.0
 11
292.62409371587012
 21
-87.523189009685822
 31
0.0
  0
LINE
  5
1BA52
  8
OS
  6
CONTINUOUS
 62
     2
 10
338.6242182533806
 20
19.476761399249199
 30
0.0
 11
287.62421578619012
 21
19.476761399249199
 31
0.0
  0
LINE
  5
1BA53
  8
OS
  6
CONTINUOUS
 62
     2
 10
338.6242182533806
 20
17.476761399249192
 30
0.0
 11
287.62421578619012
 21
17.476761399249192
 31
0.0
  0
LINE
  5
1BA54
  8
OS
  6
CONTINUOUS
 62
     2
 10
338.6242182533806
 20
29.976761399249249
 30
0.0
 11
287.62421578619012
 21
29.976761399249249
 31
0.0
  0
LINE
  5
1BA55
  8
OS
  6
CONTINUOUS
 62
     2
 10
338.6242182533806
 20
27.976761399249249
 30
0.0
 11
287.62421578619012
 21
27.976761399249249
 31
0.0
  0
LINE
  5
1BA56
  8
OS
  6
CONTINUOUS
 62
     2
 10
292.62421578619012
 20
17.476761399249192
 30
0.0
 11
292.62421578619012
 21
-87.523238600750787
 31
0.0
  0
LINE
  5
1BA57
  8
OS
  6
CONTINUOUS
 62
     2
 10
287.6242463037604
 20
17.47676521394618
 30
0.0
 11
292.6242463037604
 21
-87.523242415447783
 31
0.0
  0
LINE
  5
1BA58
  8
OS
  6
CONTINUOUS
 62
     2
 10
287.62421578619012
 20
29.976761399249249
 30
0.0
 11
287.62421578619012
 21
-100.0232386007505
 31
0.0
  0
LINE
  5
1BA59
  8
OS
  6
CONTINUOUS
 62
     2
 10
-13.375786681000021
 20
-100.0232386007505
 30
0.0
 11
37.624215786190149
 21
-100.0232386007505
 31
0.0
  0
LINE
  5
1BA5A
  8
OS
  6
CONTINUOUS
 62
     2
 10
-13.375786681000021
 20
-98.023238600750787
 30
0.0
 11
37.624215786190149
 21
-98.023238600750787
 31
0.0
  0
LINE
  5
1BA5B
  8
OS
  6
CONTINUOUS
 62
     2
 10
-13.375786681000021
 20
-89.523238600750815
 30
0.0
 11
37.624215786190149
 21
-89.523238600750815
 31
0.0
  0
LINE
  5
1BA5C
  8
OS
  6
CONTINUOUS
 62
     2
 10
-13.375786681000021
 20
-87.523238600750787
 30
0.0
 11
37.624215786190149
 21
-87.523238600750787
 31
0.0
  0
LINE
  5
1BA5D
  8
OS
  6
CONTINUOUS
 62
     2
 10
32.624353115300153
 20
17.476822434405161
 30
0.0
 11
-13.375786681000021
 21
-28.523308263108909
 31
0.0
  0
LINE
  5
1BA5E
  8
OS
  6
CONTINUOUS
 62
     2
 10
-13.375786681000021
 20
-41.523065122089271
 30
0.0
 11
32.624337856510138
 21
-87.523189009685822
 31
0.0
  0
LINE
  5
1BA5F
  8
OS
  6
CONTINUOUS
 62
     2
 10
-13.375786681000021
 20
19.476761399249199
 30
0.0
 11
37.624215786190149
 21
19.476761399249199
 31
0.0
  0
LINE
  5
1BA60
  8
OS
  6
CONTINUOUS
 62
     2
 10
-13.375786681000021
 20
17.476761399249192
 30
0.0
 11
37.624215786190149
 21
17.476761399249192
 31
0.0
  0
LINE
  5
1BA61
  8
OS
  6
CONTINUOUS
 62
     2
 10
-13.375786681000021
 20
29.976761399249249
 30
0.0
 11
37.624215786190149
 21
29.976761399249249
 31
0.0
  0
LINE
  5
1BA62
  8
OS
  6
CONTINUOUS
 62
     2
 10
-13.375786681000021
 20
27.976761399249249
 30
0.0
 11
37.624215786190149
 21
27.976761399249249
 31
0.0
  0
LINE
  5
1BA63
  8
OS
  6
CONTINUOUS
 62
     2
 10
32.624215786190149
 20
17.476761399249192
 30
0.0
 11
32.624215786190149
 21
-87.523238600750787
 31
0.0
  0
LINE
  5
1BA64
  8
OS
  6
CONTINUOUS
 62
     2
 10
37.624185268620131
 20
17.47676521394618
 30
0.0
 11
32.62418526862016
 21
-87.523242415447783
 31
0.0
  0
LINE
  5
1BA65
  8
OS
  6
CONTINUOUS
 62
     2
 10
37.624215786190149
 20
29.976761399249249
 30
0.0
 11
37.624215786190149
 21
-100.0232386007505
 31
0.0
  0
LINE
  5
1BA66
  8
OS
  6
CONTINUOUS
 62
     2
 10
-197.2853391039844
 20
169.23902199813111
 30
0.0
 11
-302.28533910398443
 21
169.23902199813111
 31
0.0
  0
LINE
  5
1BA67
  8
OS
  6
CONTINUOUS
 62
     2
 10
-197.28533147459041
 20
164.23906638655481
 30
0.0
 11
-302.28533910398443
 21
169.23906682082429
 31
0.0
  0
LINE
  5
1BA68
  8
OS
  6
CONTINUOUS
 62
     2
 10
-184.7853391039844
 20
164.23902199813119
 30
0.0
 11
-314.78533910398443
 21
164.23902199813119
 31
0.0
  0
LINE
  5
1BA69
  8
OS
  6
CONTINUOUS
 62
     2
 10
-314.78533910398471
 20
205.23902199813111
 30
0.0
 11
-314.78533910398443
 21
164.23902199813119
 31
0.0
  0
LINE
  5
1BA6A
  8
OS
  6
CONTINUOUS
 62
     2
 10
-312.78533910398443
 20
205.23902199813111
 30
0.0
 11
-312.78533910398443
 21
164.23902199813119
 31
0.0
  0
LINE
  5
1BA6B
  8
OS
  6
CONTINUOUS
 62
     2
 10
-302.28533910398443
 20
205.23902199813111
 30
0.0
 11
-302.28533910398443
 21
164.23902199813119
 31
0.0
  0
LINE
  5
1BA6C
  8
OS
  6
CONTINUOUS
 62
     2
 10
-304.28533910398471
 20
205.23902199813111
 30
0.0
 11
-304.28533910398443
 21
164.23902199813119
 31
0.0
  0
LINE
  5
1BA6D
  8
OS
  6
CONTINUOUS
 62
     2
 10
-226.68524312074359
 20
205.23902199813111
 30
0.0
 11
-302.28528569822248
 21
169.2388841921925
 31
0.0
  0
LINE
  5
1BA6E
  8
OS
  6
CONTINUOUS
 62
     2
 10
-197.2853391039844
 20
205.23902199813111
 30
0.0
 11
-197.2853391039844
 21
164.23902199813119
 31
0.0
  0
LINE
  5
1BA6F
  8
OS
  6
CONTINUOUS
 62
     2
 10
-184.78533910398409
 20
205.23902199813111
 30
0.0
 11
-184.7853391039844
 21
164.23902199813119
 31
0.0
  0
LINE
  5
1BA70
  8
OS
  6
CONTINUOUS
 62
     2
 10
-195.2853391039844
 20
205.23902199813111
 30
0.0
 11
-195.2853391039844
 21
164.23902199813119
 31
0.0
  0
LINE
  5
1BA71
  8
OS
  6
CONTINUOUS
 62
     2
 10
-186.7853391039844
 20
205.23902199813111
 30
0.0
 11
-186.7853391039844
 21
164.23902199813119
 31
0.0
  0
LINE
  5
1BA72
  8
SU
  6
CONTINUOUS
 62
     3
 10
-169.78533910398431
 20
173.23902199813151
 30
0.0
 11
-117.7853391039842
 21
173.23902199813151
 31
0.0
  0
LINE
  5
1BA73
  8
SU
  6
CONTINUOUS
 62
     3
 10
-120.7853391039842
 20
164.23902104445901
 30
0.0
 11
-120.7853391039842
 21
173.23902199813151
 31
0.0
  0
LINE
  5
1BA74
  8
KI
  6
CONTINUOUS
 62
     7
 10
51.624215785780592
 20
14.97676569449254
 30
0.0
 11
52.624215786190767
 21
15.976765694082239
 31
0.0
  0
LINE
  5
1BA75
  8
KI
  6
CONTINUOUS
 62
     7
 10
45.624215785780592
 20
14.976764743278739
 30
0.0
 11
51.624215785780592
 21
14.97676474081754
 31
0.0
  0
LINE
  5
1BA76
  8
KI
  6
CONTINUOUS
 62
     7
 10
45.624215791933644
 20
29.976764743278729
 30
0.0
 11
45.624215785780592
 21
14.976764743278739
 31
0.0
  0
LINE
  5
1BA77
  8
KI
  6
CONTINUOUS
 62
     7
 10
52.624215786190767
 20
15.976765694082239
 30
0.0
 11
52.624215786190767
 21
41.476766658214487
 31
0.0
  0
LINE
  5
1BA78
  8
KI
  6
CONTINUOUS
 62
     7
 10
50.124215797676541
 20
43.976764741432802
 30
0.0
 11
28.624215786190771
 21
43.976764750252173
 31
0.0
  0
LINE
  5
1BA79
  8
KI
  6
CONTINUOUS
 62
     7
 10
52.624215786190767
 20
41.476766658214487
 30
0.0
 11
50.124215797676541
 21
43.976766648780739
 31
0.0
  0
LINE
  5
1BA7A
  8
KI
  6
CONTINUOUS
 62
     7
 10
28.624215786190771
 20
29.97676475025219
 30
0.0
 11
45.624215791933644
 21
29.976764743278729
 31
0.0
  0
LINE
  5
1BA7B
  8
KI
  6
CONTINUOUS
 62
     7
 10
28.624215786190771
 20
29.97676475025219
 30
0.0
 11
28.624215786190771
 21
43.976764750252173
 31
0.0
  0
LINE
  5
1BA7C
  8
KI
  6
CONTINUOUS
 62
     7
 10
51.624215785780699
 20
-85.023242895977774
 30
0.0
 11
52.624215786190888
 21
-86.023242895567449
 31
0.0
  0
LINE
  5
1BA7D
  8
KI
  6
CONTINUOUS
 62
     7
 10
45.624215785780699
 20
-85.023241944763996
 30
0.0
 11
51.624215785780699
 21
-85.023241942302747
 31
0.0
  0
LINE
  5
1BA7E
  8
KI
  6
CONTINUOUS
 62
     7
 10
45.624215791933793
 20
-100.0232419447639
 30
0.0
 11
45.624215785780699
 21
-85.023241944763996
 31
0.0
  0
LINE
  5
1BA7F
  8
KI
  6
CONTINUOUS
 62
     7
 10
52.624215786190888
 20
-86.023242895567449
 30
0.0
 11
52.624215786190888
 21
-111.5232438596997
 31
0.0
  0
LINE
  5
1BA80
  8
KI
  6
CONTINUOUS
 62
     7
 10
50.124215797676662
 20
-114.02324194291791
 30
0.0
 11
28.624215786190881
 21
-114.0232419517374
 31
0.0
  0
LINE
  5
1BA81
  8
KI
  6
CONTINUOUS
 62
     7
 10
52.624215786190888
 20
-111.5232438596997
 30
0.0
 11
50.124215797676662
 21
-114.023243850266
 31
0.0
  0
LINE
  5
1BA82
  8
KI
  6
CONTINUOUS
 62
     7
 10
28.624215786190881
 20
-100.02324195173711
 30
0.0
 11
45.624215791933793
 21
-100.0232419447639
 31
0.0
  0
LINE
  5
1BA83
  8
KI
  6
CONTINUOUS
 62
     7
 10
28.624215786190881
 20
-100.02324195173711
 30
0.0
 11
28.624215786190881
 21
-114.0232419517374
 31
0.0
  0
LINE
  5
1BA84
  8
KI
  6
CONTINUOUS
 62
     7
 10
-193.28533910398511
 20
164.23902199813151
 30
0.0
 11
-306.28533910398562
 21
164.23902199813151
 31
0.0
  0
LINE
  5
1BA85
  8
KI
  6
CONTINUOUS
 62
     7
 10
-193.28533910398511
 20
149.23902199813151
 30
0.0
 11
-204.28533910398511
 21
149.23902199813151
 31
0.0
  0
LINE
  5
1BA86
  8
KI
  6
CONTINUOUS
 62
     7
 10
-204.28533910398511
 20
149.23902199813151
 30
0.0
 11
-204.28533910398511
 21
156.73902199813151
 31
0.0
  0
LINE
  5
1BA87
  8
KI
  6
CONTINUOUS
 62
     7
 10
-204.28533910398511
 20
156.73902199813151
 30
0.0
 11
-194.78533910398511
 21
156.73902199813151
 31
0.0
  0
LINE
  5
1BA88
  8
KI
  6
CONTINUOUS
 62
     7
 10
-295.28533910398562
 20
156.73902199813151
 30
0.0
 11
-295.28533910398562
 21
149.23902199813151
 31
0.0
  0
LINE
  5
1BA89
  8
KI
  6
CONTINUOUS
 62
     7
 10
-304.78533910398562
 20
156.73902199813151
 30
0.0
 11
-295.28533910398562
 21
156.73902199813151
 31
0.0
  0
LINE
  5
1BA8A
  8
KI
  6
CONTINUOUS
 62
     7
 10
-306.28533910398562
 20
164.23902199813151
 30
0.0
 11
-306.28533910398562
 21
158.23902199813159
 31
0.0
  0
LINE
  5
1BA8B
  8
KI
  6
CONTINUOUS
 62
     7
 10
-306.28533910398562
 20
158.23902199813159
 30
0.0
 11
-304.78533910398562
 21
156.73902199813151
 31
0.0
1001
GENIUS_GENFIL_13
1070
     0
1040
1.5
1040
1.5
1040
20.0
1040
0.0
1002
{
1002
}
1001
GENIUS_GENOBJ-N-CHA_13
1002
{
1000
OWNER
1000
GEN
1002
}
1001
GENIUS_GENODEF_13
1002
{
1000
HIER
1070
     0
1002
}
1002
{
1000
MANEDIT
1070
     0
1002
}
1002
{
1000
NOSEL
1070
     0
1002
}
1002
{
1000
BEHIND
1070
     0
1002
}
1002
{
1000
OTHER
1070
     0
1002
}
1002
{
1000
REACTOR
1002
}
  0
LINE
  5
1BA8C
  8
KI
  6
CONTINUOUS
 62
     7
 10
-295.28533910398562
 20
149.23902199813151
 30
0.0
 11
-306.28533910398562
 21
149.23902199813151
 31
0.0
  0
LINE
  5
1BA8D
  8
KI
  6
CONTINUOUS
 62
     7
 10
-306.28533910398562
 20
149.23902199813151
 30
0.0
 11
-306.28533910398562
 21
140.23902199813151
 31
0.0
  0
LINE
  5
1BA8E
  8
KI
  6
CONTINUOUS
 62
     7
 10
-193.28533910398511
 20
140.23902199813151
 30
0.0
 11
-193.28533910398511
 21
149.23902199813151
 31
0.0
  0
LINE
  5
1BA8F
  8
KI
  6
CONTINUOUS
 62
     7
 10
-193.28533910398511
 20
158.23902199813159
 30
0.0
 11
-193.28533910398511
 21
164.23902199813151
 31
0.0
  0
LINE
  5
1BA90
  8
KI
  6
CONTINUOUS
 62
     7
 10
-193.28533910398511
 20
158.23902199813159
 30
0.0
 11
-194.78533910398511
 21
156.73902199813151
 31
0.0
1001
GENIUS_GENFIL_13
1070
     0
1040
1.5
1040
1.5
1040
20.0
1040
0.0
1002
{
1002
}
1001
GENIUS_GENOBJ-N-CHA_13
1002
{
1000
OWNER
1000
GEN
1002
}
1001
GENIUS_GENODEF_13
1002
{
1000
HIER
1070
     0
1002
}
1002
{
1000
MANEDIT
1070
     0
1002
}
1002
{
1000
NOSEL
1070
     0
1002
}
1002
{
1000
BEHIND
1070
     0
1002
}
1002
{
1000
OTHER
1070
     0
1002
}
1002
{
1000
REACTOR
1002
}
  0
LINE
  5
1BA91
  8
OS
  6
CONTINUOUS
 62
     2
 10
-306.28533910398562
 20
161.3288524860827
 30
0.0
 11
-303.3751695919367
 21
164.23902199813151
 31
0.0
1001
GENIUS_GENODEF_13
1002
{
1000
HIER
1070
     0
1002
}
1002
{
1000
MANEDIT
1070
     0
1002
}
1002
{
1000
NOSEL
1070
     0
1002
}
1002
{
1000
BEHIND
1070
     0
1002
}
1002
{
1000
OTHER
1070
     0
1002
}
1002
{
1000
REACTOR
1002
}
1001
GENIUS_GENOBJ-N-HTC_13
1002
{
1000
OWNER
1000
GEN
1002
}
1001
GENIUS_GENHATCH_13
1002
{
1000
DATA
1040
45.0
1042
1.0
1000
_U
1070
     0
1011
6801.5395565887347
1021
0.0
1031
0.0
1021
-839.78674514272984
1031
0.0
1002
}
1002
{
1000
UCS
1010
0.0
1020
0.0
1030
0.0
1010
1.0
1020
0.0
1030
0.0
1010
0.0
1020
1.0
1030
0.0
1002
}
  0
LINE
  5
1BA92
  8
OS
  6
CONTINUOUS
 62
     2
 10
-300.97567465532478
 20
156.73902199813151
 30
0.0
 11
-293.47567465532478
 21
164.23902199813151
 31
0.0
1001
GENIUS_GENODEF_13
1002
{
1000
HIER
1070
     0
1002
}
1002
{
1000
MANEDIT
1070
     0
1002
}
1002
{
1000
NOSEL
1070
     0
1002
}
1002
{
1000
BEHIND
1070
     0
1002
}
1002
{
1000
OTHER
1070
     0
1002
}
1002
{
1000
REACTOR
1002
}
1001
GENIUS_GENOBJ-N-HTC_13
1002
{
1000
OWNER
1000
GEN
1002
}
1001
GENIUS_GENHATCH_13
1002
{
1000
DATA
1040
45.0
1042
1.0
1000
_U
1070
     0
1011
6801.5395565887347
1021
0.0
1031
0.0
1021
-839.78674514272984
1031
0.0
1002
}
1002
{
1000
UCS
1010
0.0
1020
0.0
1030
0.0
1010
1.0
1020
0.0
1030
0.0
1010
0.0
1020
1.0
1030
0.0
1002
}
  0
LINE
  5
1BA93
  8
OS
  6
CONTINUOUS
 62
     2
 10
-306.28533910398562
 20
141.5298626128596
 30
0.0
 11
-298.57617971871321
 21
149.23902199813151
 31
0.0
1001
GENIUS_GENODEF_13
1002
{
1000
HIER
1070
     0
1002
}
1002
{
1000
MANEDIT
1070
     0
1002
}
1002
{
1000
NOSEL
1070
     0
1002
}
1002
{
1000
BEHIND
1070
     0
1002
}
1002
{
1000
OTHER
1070
     0
1002
}
1002
{
1000
REACTOR
1002
}
1001
GENIUS_GENOBJ-N-HTC_13
1002
{
1000
OWNER
1000
GEN
1002
}
1001
GENIUS_GENHATCH_13
1002
{
1000
DATA
1040
45.0
1042
1.0
1000
_U
1070
     0
1011
6801.5395565887347
1021
0.0
1031
0.0
1021
-839.78674514272984
1031
0.0
1002
}
1002
{
1000
UCS
1010
0.0
1020
0.0
1030
0.0
1010
1.0
1020
0.0
1030
0.0
1010
0.0
1020
1.0
1030
0.0
1002
}
  0
LINE
  5
1BA94
  8
OS
  6
CONTINUOUS
 62
     2
 10
-295.28533910398562
 20
152.52986261285969
 30
0.0
 11
-283.57617971871321
 21
164.23902199813151
 31
0.0
1001
GENIUS_GENODEF_13
1002
{
1000
HIER
1070
     0
1002
}
1002
{
1000
MANEDIT
1070
     0
1002
}
1002
{
1000
NOSEL
1070
     0
1002
}
1002
{
1000
BEHIND
1070
     0
1002
}
1002
{
1000
OTHER
1070
     0
1002
}
1002
{
1000
REACTOR
1002
}
1001
GENIUS_GENOBJ-N-HTC_13
1002
{
1000
OWNER
1000
GEN
1002
}
1001
GENIUS_GENHATCH_13
1002
{
1000
DATA
1040
45.0
1042
1.0
1000
_U
1070
     0
1011
6801.5395565887347
1021
0.0
1031
0.0
1021
-839.78674514272984
1031
0.0
1002
}
1002
{
1000
UCS
1010
0.0
1020
0.0
1030
0.0
1010
1.0
1020
0.0
1030
0.0
1010
0.0
1020
1.0
1030
0.0
1002
}
  0
LINE
  5
1BA95
  8
OS
  6
CONTINUOUS
 62
     2
 10
-297.67668478210157
 20
140.23902199813151
 30
0.0
 11
-273.67668478210152
 21
164.23902199813151
 31
0.0
1001
GENIUS_GENODEF_13
1002
{
1000
HIER
1070
     0
1002
}
1002
{
1000
MANEDIT
1070
     0
1002
}
1002
{
1000
NOSEL
1070
     0
1002
}
1002
{
1000
BEHIND
1070
     0
1002
}
1002
{
1000
OTHER
1070
     0
1002
}
1002
{
1000
REACTOR
1002
}
1001
GENIUS_GENOBJ-N-HTC_13
1002
{
1000
OWNER
1000
GEN
1002
}
1001
GENIUS_GENHATCH_13
1002
{
1000
DATA
1040
45.0
1042
1.0
1000
_U
1070
     0
1011
6801.5395565887347
1021
0.0
1031
0.0
1021
-839.78674514272984
1031
0.0
1002
}
1002
{
1000
UCS
1010
0.0
1020
0.0
1030
0.0
1010
1.0
1020
0.0
1030
0.0
1010
0.0
1020
1.0
1030
0.0
1002
}
  0
LINE
  5
1BA96
  8
OS
  6
CONTINUOUS
 62
     2
 10
-287.77718984548989
 20
140.23902199813151
 30
0.0
 11
-263.77718984548972
 21
164.23902199813151
 31
0.0
1001
GENIUS_GENODEF_13
1002
{
1000
HIER
1070
     0
1002
}
1002
{
1000
MANEDIT
1070
     0
1002
}
1002
{
1000
NOSEL
1070
     0
1002
}
1002
{
1000
BEHIND
1070
     0
1002
}
1002
{
1000
OTHER
1070
     0
1002
}
1002
{
1000
REACTOR
1002
}
1001
GENIUS_GENOBJ-N-HTC_13
1002
{
1000
OWNER
1000
GEN
1002
}
1001
GENIUS_GENHATCH_13
1002
{
1000
DATA
1040
45.0
1042
1.0
1000
_U
1070
     0
1011
6801.5395565887347
1021
0.0
1031
0.0
1021
-839.78674514272984
1031
0.0
1002
}
1002
{
1000
UCS
1010
0.0
1020
0.0
1030
0.0
1010
1.0
1020
0.0
1030
0.0
1010
0.0
1020
1.0
1030
0.0
1002
}
  0
LINE
  5
1BA97
  8
OS
  6
CONTINUOUS
 62
     2
 10
-277.87769490887808
 20
140.23902199813151
 30
0.0
 11
-253.87769490887791
 21
164.23902199813151
 31
0.0
1001
GENIUS_GENODEF_13
1002
{
1000
HIER
1070
     0
1002
}
1002
{
1000
MANEDIT
1070
     0
1002
}
1002
{
1000
NOSEL
1070
     0
1002
}
1002
{
1000
BEHIND
1070
     0
1002
}
1002
{
1000
OTHER
1070
     0
1002
}
1002
{
1000
REACTOR
1002
}
1001
GENIUS_GENOBJ-N-HTC_13
1002
{
1000
OWNER
1000
GEN
1002
}
1001
GENIUS_GENHATCH_13
1002
{
1000
DATA
1040
45.0
1042
1.0
1000
_U
1070
     0
1011
6801.5395565887347
1021
0.0
1031
0.0
1021
-839.78674514272984
1031
0.0
1002
}
1002
{
1000
UCS
1010
0.0
1020
0.0
1030
0.0
1010
1.0
1020
0.0
1030
0.0
1010
0.0
1020
1.0
1030
0.0
1002
}
  0
LINE
  5
1BA98
  8
OS
  6
CONTINUOUS
 62
     2
 10
-255.78533922636339
 20
142.53238780742231
 30
0.0
 11
-234.07870503565479
 21
164.23902199813151
 31
0.0
1001
GENIUS_GENODEF_13
1002
{
1000
HIER
1070
     0
1002
}
1002
{
1000
MANEDIT
1070
     0
1002
}
1002
{
1000
NOSEL
1070
     0
1002
}
1002
{
1000
BEHIND
1070
     0
1002
}
1002
{
1000
OTHER
1070
     0
1002
}
1002
{
1000
REACTOR
1002
}
1001
GENIUS_GENOBJ-N-HTC_13
1002
{
1000
OWNER
1000
GEN
1002
}
1001
GENIUS_GENHATCH_13
1002
{
1000
DATA
1040
45.0
1042
1.0
1000
_U
1070
     0
1011
6801.5395565887347
1021
0.0
1031
0.0
1021
-839.78674514272984
1031
0.0
1002
}
1002
{
1000
UCS
1010
0.0
1020
0.0
1030
0.0
1010
1.0
1020
0.0
1030
0.0
1010
0.0
1020
1.0
1030
0.0
1002
}
  0
LINE
  5
1BA99
  8
OS
  6
CONTINUOUS
 62
     2
 10
-238.27971516243139
 20
140.23902199813151
 30
0.0
 11
-214.27971516243119
 21
164.23902199813151
 31
0.0
1001
GENIUS_GENODEF_13
1002
{
1000
HIER
1070
     0
1002
}
1002
{
1000
MANEDIT
1070
     0
1002
}
1002
{
1000
NOSEL
1070
     0
1002
}
1002
{
1000
BEHIND
1070
     0
1002
}
1002
{
1000
OTHER
1070
     0
1002
}
1002
{
1000
REACTOR
1002
}
1001
GENIUS_GENOBJ-N-HTC_13
1002
{
1000
OWNER
1000
GEN
1002
}
1001
GENIUS_GENHATCH_13
1002
{
1000
DATA
1040
45.0
1042
1.0
1000
_U
1070
     0
1011
6801.5395565887347
1021
0.0
1031
0.0
1021
-839.78674514272984
1031
0.0
1002
}
1002
{
1000
UCS
1010
0.0
1020
0.0
1030
0.0
1010
1.0
1020
0.0
1030
0.0
1010
0.0
1020
1.0
1030
0.0
1002
}
  0
LINE
  5
1BA9A
  8
OS
  6
CONTINUOUS
 62
     2
 10
-228.38022022581981
 20
140.23902199813151
 30
0.0
 11
-204.38022022581981
 21
164.23902199813151
 31
0.0
1001
GENIUS_GENODEF_13
1002
{
1000
HIER
1070
     0
1002
}
1002
{
1000
MANEDIT
1070
     0
1002
}
1002
{
1000
NOSEL
1070
     0
1002
}
1002
{
1000
BEHIND
1070
     0
1002
}
1002
{
1000
OTHER
1070
     0
1002
}
1002
{
1000
REACTOR
1002
}
1001
GENIUS_GENOBJ-N-HTC_13
1002
{
1000
OWNER
1000
GEN
1002
}
1001
GENIUS_GENHATCH_13
1002
{
1000
DATA
1040
45.0
1042
1.0
1000
_U
1070
     0
1011
6801.5395565887347
1021
0.0
1031
0.0
1021
-839.78674514272984
1031
0.0
1002
}
1002
{
1000
UCS
1010
0.0
1020
0.0
1030
0.0
1010
1.0
1020
0.0
1030
0.0
1010
0.0
1020
1.0
1030
0.0
1002
}
  0
LINE
  5
1BA9B
  8
OS
  6
CONTINUOUS
 62
     2
 10
-218.4807252892081
 20
140.23902199813151
 30
0.0
 11
-204.28533910398511
 21
154.43440818335401
 31
0.0
1001
GENIUS_GENODEF_13
1002
{
1000
HIER
1070
     0
1002
}
1002
{
1000
MANEDIT
1070
     0
1002
}
1002
{
1000
NOSEL
1070
     0
1002
}
1002
{
1000
BEHIND
1070
     0
1002
}
1002
{
1000
OTHER
1070
     0
1002
}
1002
{
1000
REACTOR
1002
}
1001
GENIUS_GENOBJ-N-HTC_13
1002
{
1000
OWNER
1000
GEN
1002
}
1001
GENIUS_GENHATCH_13
1002
{
1000
DATA
1040
45.0
1042
1.0
1000
_U
1070
     0
1011
6801.5395565887347
1021
0.0
1031
0.0
1021
-839.78674514272984
1031
0.0
1002
}
1002
{
1000
UCS
1010
0.0
1020
0.0
1030
0.0
1010
1.0
1020
0.0
1030
0.0
1010
0.0
1020
1.0
1030
0.0
1002
}
  0
LINE
  5
1BA9C
  8
OS
  6
CONTINUOUS
 62
     2
 10
-201.9807252892081
 20
156.73902199813151
 30
0.0
 11
-194.4807252892079
 21
164.23902199813151
 31
0.0
1001
GENIUS_GENODEF_13
1002
{
1000
HIER
1070
     0
1002
}
1002
{
1000
MANEDIT
1070
     0
1002
}
1002
{
1000
NOSEL
1070
     0
1002
}
1002
{
1000
BEHIND
1070
     0
1002
}
1002
{
1000
OTHER
1070
     0
1002
}
1002
{
1000
REACTOR
1002
}
1001
GENIUS_GENOBJ-N-HTC_13
1002
{
1000
OWNER
1000
GEN
1002
}
1001
GENIUS_GENHATCH_13
1002
{
1000
DATA
1040
45.0
1042
1.0
1000
_U
1070
     0
1011
6801.5395565887347
1021
0.0
1031
0.0
1021
-839.78674514272984
1031
0.0
1002
}
1002
{
1000
UCS
1010
0.0
1020
0.0
1030
0.0
1010
1.0
1020
0.0
1030
0.0
1010
0.0
1020
1.0
1030
0.0
1002
}
  0
LINE
  5
1BA9D
  8
OS
  6
CONTINUOUS
 62
     2
 10
-208.58123035259641
 20
140.23902199813151
 30
0.0
 11
-199.58123035259641
 21
149.23902199813151
 31
0.0
1001
GENIUS_GENODEF_13
1002
{
1000
HIER
1070
     0
1002
}
1002
{
1000
MANEDIT
1070
     0
1002
}
1002
{
1000
NOSEL
1070
     0
1002
}
1002
{
1000
BEHIND
1070
     0
1002
}
1002
{
1000
OTHER
1070
     0
1002
}
1002
{
1000
REACTOR
1002
}
1001
GENIUS_GENOBJ-N-HTC_13
1002
{
1000
OWNER
1000
GEN
1002
}
1001
GENIUS_GENHATCH_13
1002
{
1000
DATA
1040
45.0
1042
1.0
1000
_U
1070
     0
1011
6801.5395565887347
1021
0.0
1031
0.0
1021
-839.78674514272984
1031
0.0
1002
}
1002
{
1000
UCS
1010
0.0
1020
0.0
1030
0.0
1010
1.0
1020
0.0
1030
0.0
1010
0.0
1020
1.0
1030
0.0
1002
}
  0
LINE
  5
1BA9E
  8
OS
  6
CONTINUOUS
 62
     2
 10
-198.6817354159848
 20
140.23902199813151
 30
0.0
 11
-193.28533910398511
 21
145.635418310131
 31
0.0
1001
GENIUS_GENODEF_13
1002
{
1000
HIER
1070
     0
1002
}
1002
{
1000
MANEDIT
1070
     0
1002
}
1002
{
1000
NOSEL
1070
     0
1002
}
1002
{
1000
BEHIND
1070
     0
1002
}
1002
{
1000
OTHER
1070
     0
1002
}
1002
{
1000
REACTOR
1002
}
1001
GENIUS_GENOBJ-N-HTC_13
1002
{
1000
OWNER
1000
GEN
1002
}
1001
GENIUS_GENHATCH_13
1002
{
1000
DATA
1040
45.0
1042
1.0
1000
_U
1070
     0
1011
6801.5395565887347
1021
0.0
1031
0.0
1021
-839.78674514272984
1031
0.0
1002
}
1002
{
1000
UCS
1010
0.0
1020
0.0
1030
0.0
1010
1.0
1020
0.0
1030
0.0
1010
0.0
1020
1.0
1030
0.0
1002
}
  0
LINE
  5
1BA9F
  8
KI
  6
CONTINUOUS
 62
     7
 10
-306.28533910398562
 20
140.23902199813151
 30
0.0
 11
-271.78533675196599
 21
140.23902199813151
 31
0.0
  0
LINE
  5
1BAA0
  8
OS
  6
CONTINUOUS
 62
     2
 10
-248.17921009904319
 20
140.23902199813151
 30
0.0
 11
-224.1792100990429
 21
164.23902199813151
 31
0.0
1001
GENIUS_GENODEF_13
1002
{
1000
HIER
1070
     0
1002
}
1002
{
1000
MANEDIT
1070
     0
1002
}
1002
{
1000
NOSEL
1070
     0
1002
}
1002
{
1000
BEHIND
1070
     0
1002
}
1002
{
1000
OTHER
1070
     0
1002
}
1002
{
1000
REACTOR
1002
}
1001
GENIUS_GENOBJ-N-HTC_13
1002
{
1000
OWNER
1000
GEN
1002
}
1001
GENIUS_GENHATCH_13
1002
{
1000
DATA
1040
45.0
1042
1.0
1000
_U
1070
     0
1011
6801.5395565887347
1021
0.0
1031
0.0
1021
-839.78674514272984
1031
0.0
1002
}
1002
{
1000
UCS
1010
0.0
1020
0.0
1030
0.0
1010
1.0
1020
0.0
1030
0.0
1010
0.0
1020
1.0
1030
0.0
1002
}
  0
LINE
  5
1BAA1
  8
OS
  6
CONTINUOUS
 62
     2
 10
-262.9781999722664
 20
145.23902199813151
 30
0.0
 11
-243.9781999722664
 21
164.23902199813151
 31
0.0
1001
GENIUS_GENODEF_13
1002
{
1000
HIER
1070
     0
1002
}
1002
{
1000
MANEDIT
1070
     0
1002
}
1002
{
1000
NOSEL
1070
     0
1002
}
1002
{
1000
BEHIND
1070
     0
1002
}
1002
{
1000
OTHER
1070
     0
1002
}
1002
{
1000
REACTOR
1002
}
1001
GENIUS_GENOBJ-N-HTC_13
1002
{
1000
OWNER
1000
GEN
1002
}
1001
GENIUS_GENHATCH_13
1002
{
1000
DATA
1040
45.0
1042
1.0
1000
_U
1070
     0
1011
6801.5395565887347
1021
0.0
1031
0.0
1021
-839.78674514272984
1031
0.0
1002
}
1002
{
1000
UCS
1010
0.0
1020
0.0
1030
0.0
1010
1.0
1020
0.0
1030
0.0
1010
0.0
1020
1.0
1030
0.0
1002
}
  0
LINE
  5
1BAA2
  8
KI
  6
CONTINUOUS
 62
     7
 10
-255.78533922636339
 20
145.23902199813151
 30
0.0
 11
-255.78533922636339
 21
140.23898947746841
 31
0.0
  0
LINE
  5
1BAA3
  8
KI
  6
CONTINUOUS
 62
     7
 10
-255.78533922636339
 20
145.23902199813151
 30
0.0
 11
-271.78533675196599
 21
145.23902199813151
 31
0.0
  0
LINE
  5
1BAA4
  8
KI
  6
CONTINUOUS
 62
     7
 10
-271.78533675196599
 20
140.23898947746841
 30
0.0
 11
-271.78533675196599
 21
145.23902199813151
 31
0.0
  0
LINE
  5
1BAA5
  8
KI
  6
CONTINUOUS
 62
     7
 10
-255.78533922636339
 20
140.23902199813151
 30
0.0
 11
-193.28533910398511
 21
140.23902199813151
 31
0.0
  0
LINE
  5
1BAA6
  8
KI
  6
CONTINUOUS
 62
     7
 10
-323.78533910583059
 20
173.23902199628569
 30
0.0
 11
-323.78533910142079
 21
151.7390219962854
 31
0.0
  0
LINE
  5
1BAA7
  8
KI
  6
CONTINUOUS
 62
     7
 10
-314.78533910234381
 20
156.2390219981317
 30
0.0
 11
-314.7853391058303
 21
173.23902199813151
 31
0.0
  0
LINE
  5
1BAA8
  8
KI
  6
CONTINUOUS
 62
     7
 10
-323.78533910142079
 20
151.7390219962854
 30
0.0
 11
-321.28533957774511
 21
149.23902199679841
 31
0.0
  0
LINE
  5
1BAA9
  8
KI
  6
CONTINUOUS
 62
     7
 10
-314.7853391058303
 20
173.23902199813151
 30
0.0
 11
-323.78533910583059
 21
173.23902199628569
 31
0.0
  0
LINE
  5
1BAAA
  8
KI
  6
CONTINUOUS
 62
     7
 10
-299.78533910234381
 20
156.23902200120801
 30
0.0
 11
-314.78533910234381
 21
156.2390219981317
 31
0.0
  0
LINE
  5
1BAAB
  8
KI
  6
CONTINUOUS
 62
     7
 10
-321.285339100908
 20
149.23902199679841
 30
0.0
 11
-300.785339100908
 21
149.23902200100301
 31
0.0
  0
LINE
  5
1BAAC
  8
KI
  6
CONTINUOUS
 62
     7
 10
-299.78533910111321
 20
150.2390220012081
 30
0.0
 11
-299.78533910234381
 21
156.23902200120801
 31
0.0
  0
LINE
  5
1BAAD
  8
KI
  6
CONTINUOUS
 62
     7
 10
-299.78534005478798
 20
150.2390220012081
 30
0.0
 11
-300.78534005458312
 21
149.23902200100301
 31
0.0
  0
LINE
  5
1BAAE
  8
KI
  6
CONTINUOUS
 62
     7
 10
-175.78533910213841
 20
173.23902199628569
 30
0.0
 11
-175.78533910654821
 21
151.7390219962854
 31
0.0
  0
LINE
  5
1BAAF
  8
KI
  6
CONTINUOUS
 62
     7
 10
-184.78533910562501
 20
156.2390219981317
 30
0.0
 11
-184.78533910213841
 21
173.23902199813151
 31
0.0
  0
LINE
  5
1BAB0
  8
KI
  6
CONTINUOUS
 62
     7
 10
-175.78533910654821
 20
151.7390219962854
 30
0.0
 11
-178.28533863022341
 21
149.23902199679841
 31
0.0
  0
LINE
  5
1BAB1
  8
KI
  6
CONTINUOUS
 62
     7
 10
-184.78533910213841
 20
173.23902199813151
 30
0.0
 11
-175.78533910213841
 21
173.23902199628569
 31
0.0
  0
LINE
  5
1BAB2
  8
KI
  6
CONTINUOUS
 62
     7
 10
-199.78533910562501
 20
156.23902200120801
 30
0.0
 11
-184.78533910562501
 21
156.2390219981317
 31
0.0
  0
LINE
  5
1BAB3
  8
KI
  6
CONTINUOUS
 62
     7
 10
-178.28533910706079
 20
149.23902199679841
 30
0.0
 11
-198.78533910706079
 21
149.23902200100301
 31
0.0
  0
LINE
  5
1BAB4
  8
KI
  6
CONTINUOUS
 62
     7
 10
-199.7853391068557
 20
150.2390220012081
 30
0.0
 11
-199.78533910562501
 21
156.23902200120801
 31
0.0
  0
LINE
  5
1BAB5
  8
KI
  6
CONTINUOUS
 62
     7
 10
-199.78533815318079
 20
150.2390220012081
 30
0.0
 11
-198.78533815338591
 21
149.23902200100301
 31
0.0
  0
LINE
  5
1BAB6
  8
KI
  6
CONTINUOUS
 62
     7
 10
273.62421578660042
 20
14.97676569449254
 30
0.0
 11
272.62421578619029
 21
15.976765694082239
 31
0.0
  0
LINE
  5
1BAB7
  8
KI
  6
CONTINUOUS
 62
     7
 10
279.62421578660042
 20
14.976764743278739
 30
0.0
 11
273.62421578660042
 21
14.97676474081754
 31
0.0
  0
LINE
  5
1BAB8
  8
KI
  6
CONTINUOUS
 62
     7
 10
279.6242157804474
 20
29.976764743278729
 30
0.0
 11
279.62421578660042
 21
14.976764743278739
 31
0.0
  0
LINE
  5
1BAB9
  8
KI
  6
CONTINUOUS
 62
     7
 10
272.62421578619029
 20
15.976765694082239
 30
0.0
 11
272.62421578619029
 21
41.476766658214487
 31
0.0
  0
LINE
  5
1BABA
  8
KI
  6
CONTINUOUS
 62
     7
 10
275.12421577470423
 20
43.976764741432802
 30
0.0
 11
296.62421578619018
 21
43.976764750252173
 31
0.0
  0
LINE
  5
1BABB
  8
KI
  6
CONTINUOUS
 62
     7
 10
272.62421578619029
 20
41.476766658214487
 30
0.0
 11
275.12421577470423
 21
43.976766648780739
 31
0.0
  0
LINE
  5
1BABC
  8
KI
  6
CONTINUOUS
 62
     7
 10
296.62421578619018
 20
29.97676475025219
 30
0.0
 11
279.6242157804474
 21
29.976764743278729
 31
0.0
  0
LINE
  5
1BABD
  8
KI
  6
CONTINUOUS
 62
     7
 10
296.62421578619018
 20
29.97676475025219
 30
0.0
 11
296.62421578619018
 21
43.976764750252173
 31
0.0
  0
LINE
  5
1BABE
  8
KI
  6
CONTINUOUS
 62
     7
 10
273.62421578660042
 20
-85.023242895978214
 30
0.0
 11
272.6242157861904
 21
-86.023242895567932
 31
0.0
  0
LINE
  5
1BABF
  8
KI
  6
CONTINUOUS
 62
     7
 10
279.62421578660042
 20
-85.023241944764436
 30
0.0
 11
273.62421578660042
 21
-85.023241942303244
 31
0.0
  0
LINE
  5
1BAC0
  8
KI
  6
CONTINUOUS
 62
     7
 10
279.62421578044751
 20
-100.02324194476439
 30
0.0
 11
279.62421578660042
 21
-85.023241944764436
 31
0.0
  0
LINE
  5
1BAC1
  8
KI
  6
CONTINUOUS
 62
     7
 10
272.6242157861904
 20
-86.023242895567932
 30
0.0
 11
272.6242157861904
 21
-111.5232438596999
 31
0.0
  0
LINE
  5
1BAC2
  8
KI
  6
CONTINUOUS
 62
     7
 10
275.12421577470462
 20
-114.0232419429184
 30
0.0
 11
296.62421578619018
 21
-114.0232419517378
 31
0.0
  0
LINE
  5
1BAC3
  8
KI
  6
CONTINUOUS
 62
     7
 10
272.6242157861904
 20
-111.5232438596999
 30
0.0
 11
275.12421577470462
 21
-114.0232438502664
 31
0.0
  0
LINE
  5
1BAC4
  8
KI
  6
CONTINUOUS
 62
     7
 10
296.62421578619018
 20
-100.0232419517377
 30
0.0
 11
279.62421578044751
 21
-100.02324194476439
 31
0.0
  0
LINE
  5
1BAC5
  8
KI
  6
CONTINUOUS
 62
     7
 10
296.62421578619018
 20
-100.0232419517377
 30
0.0
 11
296.62421578619018
 21
-114.0232419517378
 31
0.0
  0
LINE
  5
1BAC6
  8
SU
  6
CONTINUOUS
 62
     3
 10
-33.37578668100798
 20
17.476761399249192
 30
0.0
 11
-33.37578668100798
 21
29.976761399249249
 31
0.0
  0
LINE
  5
1BAC7
  8
SU
  6
CONTINUOUS
 62
     3
 10
-33.37578668100798
 20
29.976761399249249
 30
0.0
 11
-33.37578668100798
 21
56.674594832961141
 31
0.0
  0
LINE
  5
1BAC8
  8
SU
  6
CONTINUOUS
 62
     3
 10
-14.37578668099192
 20
29.976761399249249
 30
0.0
 11
-51.375786681007988
 21
29.976761399249249
 31
0.0
  0
LINE
  5
1BAC9
  8
SU
  6
CONTINUOUS
 62
     3
 10
27.62421578619076
 20
43.976764745842431
 30
0.0
 11
-51.375786681007988
 21
43.976764745842473
 31
0.0
  0
LINE
  5
1BACA
  8
SU
  6
CONTINUOUS
 62
     3
 10
-48.375786681008002
 20
29.976761399249249
 30
0.0
 11
-48.375786681008002
 21
43.976764745842473
 31
0.0
  0
LINE
  5
1BACB
  8
SU
  6
CONTINUOUS
 62
     3
 10
-14.375786681000021
 20
-100.0232386007505
 30
0.0
 11
-51.375786681007973
 21
-100.0232386007505
 31
0.0
  0
LINE
  5
1BACC
  8
SU
  6
CONTINUOUS
 62
     3
 10
27.62421578619087
 20
-114.0232419517374
 30
0.0
 11
-51.375786681007973
 21
-114.0232419517374
 31
0.0
  0
LINE
  5
1BACD
  8
SU
  6
CONTINUOUS
 62
     3
 10
-48.375786681007959
 20
-100.0232386007505
 30
0.0
 11
-48.375786681007959
 21
-114.0232419517374
 31
0.0
  0
LINE
  5
1BACE
  8
SU
  6
CONTINUOUS
 62
     3
 10
-33.37578668100798
 20
-87.523238600750787
 30
0.0
 11
-33.37578668100798
 21
-100.0232386007505
 31
0.0
  0
LINE
  5
1BACF
  8
SU
  6
CONTINUOUS
 62
     3
 10
-33.37578668100798
 20
-100.0232386007505
 30
0.0
 11
-33.375786681008002
 21
-126.46010688382211
 31
0.0
  0
LINE
  5
1BAD0
  8
SU
  6
CONTINUOUS
 62
     3
 10
-14.375786681000021
 20
-87.523238600750787
 30
0.0
 11
-36.375786681008002
 21
-87.523238600750787
 31
0.0
  0
LINE
  5
1BAD1
  8
SU
  6
CONTINUOUS
 62
     3
 10
-14.375786681000021
 20
17.476761399249192
 30
0.0
 11
-36.375786681007988
 21
17.476761399249192
 31
0.0
  0
LINE
  5
1BAD2
  8
SU
  6
CONTINUOUS
 62
     3
 10
-33.375786681008002
 20
-87.523238600750787
 30
0.0
 11
-33.37578668100798
 21
17.476761399249192
 31
0.0
  0
LINE
  5
1BAD3
  8
SU
  6
CONTINUOUS
 62
     3
 10
-48.375786681007959
 20
29.976761399249249
 30
0.0
 11
-48.375786681007959
 21
-100.0232386007505
 31
0.0
  0
LINE
  5
1BAD4
  8
SU
  6
CONTINUOUS
 62
     3
 10
-197.2853391039844
 20
225.23902104446711
 30
0.0
 11
-184.78533910398409
 21
225.23902104446711
 31
0.0
  0
LINE
  5
1BAD5
  8
SU
  6
CONTINUOUS
 62
     3
 10
-184.78533910398409
 20
225.23902104446711
 30
0.0
 11
-159.05385441432591
 21
225.23902104446711
 31
0.0
  0
LINE
  5
1BAD6
  8
SU
  6
CONTINUOUS
 62
     3
 10
-184.78533910398409
 20
206.23902104445889
 30
0.0
 11
-184.78533910398409
 21
243.23902104446711
 31
0.0
  0
LINE
  5
1BAD7
  8
SU
  6
CONTINUOUS
 62
     3
 10
-170.78533910398431
 20
174.23902199813151
 30
0.0
 11
-170.78533910398431
 21
243.23902104446711
 31
0.0
  0
LINE
  5
1BAD8
  8
SU
  6
CONTINUOUS
 62
     3
 10
-184.78533910398409
 20
240.23902104446711
 30
0.0
 11
-170.78533910398431
 21
240.23902104446711
 31
0.0
  0
LINE
  5
1BAD9
  8
SU
  6
CONTINUOUS
 62
     3
 10
61.624215786190689
 20
22.476759015062662
 30
0.0
 11
61.624215786190689
 21
66.976764745842459
 31
0.0
  0
LINE
  5
1BADA
  8
SU
  6
CONTINUOUS
 62
     3
 10
52.624215786190767
 20
63.976764745842438
 30
0.0
 11
61.624215786190689
 21
63.976764745842438
 31
0.0
  0
LINE
  5
1BADB
  8
SU
  6
CONTINUOUS
 62
     3
 10
52.624215786190767
 20
44.976764745842452
 30
0.0
 11
52.624215786190767
 21
66.976764745842331
 31
0.0
  0
LINE
  5
1BADC
  8
SU
  6
CONTINUOUS
 62
     3
 10
28.624215786190771
 20
44.976764745842452
 30
0.0
 11
28.624215786190771
 21
66.976764745842331
 31
0.0
  0
LINE
  5
1BADD
  8
SU
  6
CONTINUOUS
 62
     3
 10
52.624215786190767
 20
63.976764745842331
 30
0.0
 11
28.624215786190771
 21
63.976764745842331
 31
0.0
  0
LINE
  5
1BADE
  8
SU
  6
CONTINUOUS
 62
     3
 10
-302.28533910398443
 20
225.23902104446711
 30
0.0
 11
-314.78533910398471
 21
225.23902104446711
 31
0.0
  0
LINE
  5
1BADF
  8
SU
  6
CONTINUOUS
 62
     3
 10
-314.78533910398471
 20
225.23902104446711
 30
0.0
 11
-341.52381420428202
 21
225.23902104446711
 31
0.0
  0
LINE
  5
1BAE0
  8
SU
  6
CONTINUOUS
 62
     3
 10
-302.28533910398443
 20
206.23902104445889
 30
0.0
 11
-302.28533910398443
 21
228.23902104446711
 31
0.0
  0
LINE
  5
1BAE1
  8
SU
  6
CONTINUOUS
 62
     3
 10
-197.2853391039844
 20
206.23902104445889
 30
0.0
 11
-197.2853391039844
 21
228.23902104446711
 31
0.0
  0
LINE
  5
1BAE2
  8
SU
  6
CONTINUOUS
 62
     3
 10
-302.28533910398443
 20
225.23902104446711
 30
0.0
 11
-197.2853391039844
 21
225.23902104446711
 31
0.0
  0
LINE
  5
1BAE3
  8
SU
  6
CONTINUOUS
 62
     3
 10
-184.78533910398409
 20
240.23902104446711
 30
0.0
 11
-314.78533910398471
 21
240.23902104446711
 31
0.0
  0
LINE
  5
1BAE4
  8
SU
  6
CONTINUOUS
 62
     3
 10
-314.78533910398471
 20
206.23902104445889
 30
0.0
 11
-314.78533910398471
 21
243.23902104446711
 31
0.0
  0
LINE
  5
1BAE5
  8
SU
  6
CONTINUOUS
 62
     3
 10
-328.78533910398471
 20
174.23902199813151
 30
0.0
 11
-328.78533910398471
 21
243.23902104446711
 31
0.0
  0
LINE
  5
1BAE6
  8
SU
  6
CONTINUOUS
 62
     3
 10
-314.78533910398471
 20
240.23902104446711
 30
0.0
 11
-328.78533910398471
 21
240.23902104446711
 31
0.0
  0
LINE
  5
1BAE7
  8
SU
  6
CONTINUOUS
 62
     3
 10
-329.78533910398471
 20
173.23902199813151
 30
0.0
 11
-351.78533910398471
 21
173.23902199813151
 31
0.0
  0
LINE
  5
1BAE8
  8
SU
  6
CONTINUOUS
 62
     3
 10
-348.78533910398471
 20
173.23902199813151
 30
0.0
 11
-348.78533910398471
 21
149.23902199813139
 31
0.0
  0
LINE
  5
1BAE9
  8
SU
  6
CONTINUOUS
 62
     3
 10
-324.78533910142079
 20
149.23902199813139
 30
0.0
 11
-351.78533910398471
 21
149.23902199813139
 31
0.0
  0
LINE
  5
1BAEA
  8
SU
  6
CONTINUOUS
 62
     3
 10
-307.28533910398443
 20
140.23902199813111
 30
0.0
 11
-351.78533910398471
 21
140.23902199813111
 31
0.0
  0
LINE
  5
1BAEB
  8
SU
  6
CONTINUOUS
 62
     3
 10
-348.78533910398471
 20
149.23902199813139
 30
0.0
 11
-348.78533910398471
 21
140.23902199813111
 31
0.0
  0
TEXT
  5
1BAEC
  8
SU
  6
CONTINUOUS
 62
     3
 10
-350.08533910398472
 20
143.23711723622651
 30
0.0
 40
4.0
  1
9
 50
90.0
 41
0.8299999999999999
  0
TEXT
  5
1BAED
  8
SU
  6
CONTINUOUS
 62
     3
 10
-350.08533910398472
 20
157.99806961717911
 30
0.0
 40
4.0
  1
24
 50
90.0
 41
0.8299999999999999
  0
TEXT
  5
1BAEE
  8
SU
  6
CONTINUOUS
 62
     3
 10
-325.26343434207962
 20
241.53902104446701
 30
0.0
 40
4.0
  1
14
 41
0.8299999999999999
  0
TEXT
  5
1BAEF
  8
SU
  6
CONTINUOUS
 62
     3
 10
-254.76533910398439
 20
241.53902104446701
 30
0.0
 40
4.0
  1
130
 41
0.8299999999999999
  0
TEXT
  5
1BAF0
  8
SU
  6
CONTINUOUS
 62
     3
 10
-254.76533910398439
 20
226.53902104446709
 30
0.0
 40
4.0
  1
105
 41
0.8299999999999999
  0
TEXT
  5
1BAF1
  8
SU
  6
CONTINUOUS
 62
     3
 10
-341.17238563285349
 20
226.53902104446709
 30
0.0
 40
4.0
  1
12.5
 41
0.8299999999999999
  0
TEXT
  5
1BAF2
  8
SU
  6
CONTINUOUS
 62
     3
 10
37.383263405238388
 20
65.276764745842314
 30
0.0
 40
4.0
  1
24
 41
0.8299999999999999
  0
TEXT
  5
1BAF3
  8
SU
  6
CONTINUOUS
 62
     3
 10
55.622311024285963
 20
65.276764745842442
 30
0.0
 40
4.0
  1
9
 41
0.8299999999999999
  0
TEXT
  5
1BAF4
  8
SU
  6
CONTINUOUS
 62
     3
 10
-181.26343434207951
 20
241.53902104446701
 30
0.0
 40
4.0
  1
14
 41
0.8299999999999999
  0
TEXT
  5
1BAF5
  8
SU
  6
CONTINUOUS
 62
     3
 10
-170.9462353667069
 20
226.53902104446709
 30
0.0
 40
4.0
  1
12.5
 41
0.8299999999999999
  0
TEXT
  5
1BAF6
  8
SU
  6
CONTINUOUS
 62
     3
 10
-49.675786681007921
 20
-40.003238600750727
 30
0.0
 40
4.0
  1
130
 50
90.0
 41
0.8299999999999999
  0
TEXT
  5
1BAF7
  8
SU
  6
CONTINUOUS
 62
     3
 10
-34.67578668100797
 20
-40.003238600750791
 30
0.0
 40
4.0
  1
105
 50
90.0
 41
0.8299999999999999
  0
TEXT
  5
1BAF8
  8
SU
  6
CONTINUOUS
 62
     3
 10
-34.67578668100797
 20
-126.10867831239339
 30
0.0
 40
4.0
  1
12.5
 50
90.0
 41
0.8299999999999999
  0
TEXT
  5
1BAF9
  8
SU
  6
CONTINUOUS
 62
     3
 10
-49.675786681007921
 20
-110.5013355143392
 30
0.0
 40
4.0
  1
14
 50
90.0
 41
0.8299999999999999
  0
TEXT
  5
1BAFA
  8
SU
  6
CONTINUOUS
 62
     3
 10
-49.675786681007999
 20
33.498667834450629
 30
0.0
 40
4.0
  1
14
 50
90.0
 41
0.8299999999999999
  0
TEXT
  5
1BAFB
  8
SU
  6
CONTINUOUS
 62
     3
 10
-34.67578668100797
 20
44.78221388058018
 30
0.0
 40
4.0
  1
12.5
 50
90.0
 41
0.8299999999999999
  0
LINE
  5
1BAFC
  8
OS
  6
CONTINUOUS
 62
     2
 10
280.48777221182752
 20
-114.0232419451185
 30
0.0
 11
272.6242157861904
 21
-106.1596855194815
 31
0.0
  0
LINE
  5
1BAFD
  8
OS
  6
CONTINUOUS
 62
     2
 10
290.38726715249982
 20
-114.02324194917939
 30
0.0
 11
272.6242157861904
 21
-96.260190582869853
 31
0.0
  0
LINE
  5
1BAFE
  8
OS
  6
CONTINUOUS
 62
     2
 10
296.62421578619018
 20
-110.36069564625809
 30
0.0
 11
286.28676208742968
 21
-100.0232419474974
 31
0.0
  0
LINE
  5
1BAFF
  8
OS
  6
CONTINUOUS
 62
     2
 10
279.6242157831806
 20
-93.360695643248278
 30
0.0
 11
272.6242157861904
 21
-86.360695646258179
 31
0.0
  0
LINE
  5
1BB00
  8
OS
  6
CONTINUOUS
 62
     2
 10
296.62421578619018
 20
-100.4612007096465
 30
0.0
 11
296.18625702810192
 21
-100.02324195155811
 31
0.0
  0
LINE
  5
1BB01
  8
OS
  6
CONTINUOUS
 62
     2
 10
296.62421578619018
 20
30.414723508160812
 30
0.0
 11
296.18625702810192
 21
29.976764750072562
 31
0.0
  0
LINE
  5
1BB02
  8
OS
  6
CONTINUOUS
 62
     2
 10
296.62421578619018
 20
40.31421844477245
 30
0.0
 11
286.28676208742968
 21
29.976764746011831
 31
0.0
  0
LINE
  5
1BB03
  8
OS
  6
CONTINUOUS
 62
     2
 10
279.6242157831806
 20
23.314218441762652
 30
0.0
 11
272.62421578619029
 21
16.314218444772379
 31
0.0
  0
LINE
  5
1BB04
  8
OS
  6
CONTINUOUS
 62
     2
 10
290.38726715249982
 20
43.976764747693821
 30
0.0
 11
272.62421578619029
 21
26.213713381384139
 31
0.0
  0
LINE
  5
1BB05
  8
OS
  6
CONTINUOUS
 62
     2
 10
280.48777221182752
 20
43.976764743633026
 30
0.0
 11
272.62421578619029
 21
36.11320831799577
 31
0.0
  0
LINE
  5
1BB06
  8
OS
  6
CONTINUOUS
 62
     2
 10
-175.7853391050802
 20
158.8961038700825
 30
0.0
 11
-185.4424209768963
 21
149.23902199826631
 31
0.0
  0
LINE
  5
1BB07
  8
OS
  6
CONTINUOUS
 62
     2
 10
-175.78533910304981
 20
168.7955988087248
 30
0.0
 11
-184.7853391048958
 21
159.79559880687839
 31
0.0
  0
LINE
  5
1BB08
  8
OS
  6
CONTINUOUS
 62
     2
 10
-188.34191591291341
 20
156.23902199886109
 30
0.0
 11
-195.34191591147771
 21
149.23902200029681
 31
0.0
  0
LINE
  5
1BB09
  8
OS
  6
CONTINUOUS
 62
     2
 10
-181.24141085098111
 20
173.23902199740479
 30
0.0
 11
-184.78533910286541
 21
169.69509374552081
 31
0.0
  0
LINE
  5
1BB0A
  8
OS
  6
CONTINUOUS
 62
     2
 10
-198.24141084749471
 20
156.23902200089151
 30
0.0
 11
-199.785339105942
 21
154.6950937424441
 31
0.0
  0
LINE
  5
1BB0B
  8
OS
  6
CONTINUOUS
 62
     2
 10
-318.3292673569876
 20
173.23902199740479
 30
0.0
 11
-314.78533910510362
 21
169.69509374552081
 31
0.0
  0
LINE
  5
1BB0C
  8
OS
  6
CONTINUOUS
 62
     2
 10
-301.3292673604742
 20
156.23902200089131
 30
0.0
 11
-299.78533910202708
 21
154.6950937424441
 31
0.0
  0
LINE
  5
1BB0D
  8
OS
  6
CONTINUOUS
 62
     2
 10
-323.78533910491922
 20
168.7955988087248
 30
0.0
 11
-314.78533910307323
 21
159.79559880687879
 31
0.0
  0
LINE
  5
1BB0E
  8
OS
  6
CONTINUOUS
 62
     2
 10
-311.22876229505562
 20
156.23902199886109
 30
0.0
 11
-304.2287622964912
 21
149.23902200029681
 31
0.0
  0
LINE
  5
1BB0F
  8
OS
  6
CONTINUOUS
 62
     2
 10
-323.78533910288871
 20
158.8961038700825
 30
0.0
 11
-314.12825723107238
 21
149.23902199826631
 31
0.0
  0
LINE
  5
1BB10
  8
OS
  6
CONTINUOUS
 62
     2
 10
28.624215786190849
 20
-100.46120070964579
 30
0.0
 11
29.06217454427917
 21
-100.02324195155759
 31
0.0
  0
LINE
  5
1BB11
  8
OS
  6
CONTINUOUS
 62
     2
 10
28.624215786190909
 20
-110.3606956462575
 30
0.0
 11
38.961669484951571
 21
-100.0232419474969
 31
0.0
  0
LINE
  5
1BB12
  8
OS
  6
CONTINUOUS
 62
     2
 10
45.624215789200832
 20
-93.360695643247752
 30
0.0
 11
52.624215786190902
 21
-86.36069564625771
 31
0.0
  0
LINE
  5
1BB13
  8
OS
  6
CONTINUOUS
 62
     2
 10
34.86116441988122
 20
-114.0232419491789
 30
0.0
 11
52.624215786190788
 21
-96.260190582869427
 31
0.0
  0
LINE
  5
1BB14
  8
OS
  6
CONTINUOUS
 62
     2
 10
44.760659360553717
 20
-114.0232419451181
 30
0.0
 11
52.624215786190859
 21
-106.1596855194809
 31
0.0
  0
LINE
  5
1BB15
  8
OS
  6
CONTINUOUS
 62
     2
 10
44.760659360553682
 20
43.976764743632998
 30
0.0
 11
52.624215786190788
 21
36.113208317995827
 31
0.0
  0
LINE
  5
1BB16
  8
OS
  6
CONTINUOUS
 62
     2
 10
34.861164419881163
 20
43.976764747693778
 30
0.0
 11
52.624215786190753
 21
26.213713381384188
 31
0.0
  0
LINE
  5
1BB17
  8
OS
  6
CONTINUOUS
 62
     2
 10
28.624215786190799
 20
40.314218444772493
 30
0.0
 11
38.96166948495145
 21
29.976764746011781
 31
0.0
  0
LINE
  5
1BB18
  8
OS
  6
CONTINUOUS
 62
     2
 10
45.624215789200662
 20
23.314218441762652
 30
0.0
 11
52.624215786190788
 21
16.3142184447725
 31
0.0
  0
LINE
  5
1BB19
  8
OS
  6
CONTINUOUS
 62
     2
 10
28.624215786190799
 20
30.414723508160812
 30
0.0
 11
29.06217454427906
 21
29.976764750072562
 31
0.0
  0
TEXT
  5
1BB1A
  8
SU
  6
CONTINUOUS
 62
     3
 10
-122.0853391039842
 20
167.2371167593906
 30
0.0
 40
4.0
  1
9
 50
90.0
 41
0.8299999999999999
  0
TEXT
  5
1BB1B
  8
SU
  6
CONTINUOUS
 62
     3
 10
281.38326340523741
 20
65.2767647458423
 30
0.0
 40
4.0
  1
24
 41
0.8299999999999999
  0
TEXT
  5
1BB1C
  8
SU
  6
CONTINUOUS
 62
     3
 10
266.62231102428512
 20
65.276764745842414
 30
0.0
 40
4.0
  1
9
 41
0.8299999999999999
  0
TEXT
  5
1BB1D
  8
SU
  6
CONTINUOUS
 62
     3
 10
-122.0853391039842
 20
47.251896043877807
 30
0.0
 40
4.0
  1
H
 50
90.0
 41
0.8299999999999999
  0
TEXT
  5
1BB1E
  8
SU
  6
CONTINUOUS
 62
     3
 10
-137.0853391039829
 20
24.511690721297949
 30
0.0
 40
4.0
  1
ドアH（DH）＝H－47
 50
90.0
 41
0.8299999999999999
  0
TEXT
  5
1BB1F
  8
SU
  6
CONTINUOUS
 62
     3
 10
-254.76533704678781
 20
-84.957134672288547
 30
0.0
 40
4.0
  1
110
 41
0.8299999999999999
  0
TEXT
  5
1BB20
  8
SU
  6
CONTINUOUS
 62
     3
 10
-365.08533910398472
 20
-51.919038020245161
 30
0.0
 40
4.0
  1
35
 50
90.0
 41
0.8299999999999999
  0
TEXT
  5
1BB21
  8
SU
  6
CONTINUOUS
 62
     3
 10
-319.8158152944618
 20
-84.957134672291176
 30
0.0
 40
4.0
  1
1.5
 41
0.8299999999999999
  0
LINE
  5
1BB22
  8
SU
  6
CONTINUOUS
 62
     3
 10
-304.78533486696062
 20
-86.257134672291158
 30
0.0
 11
-302.3853348669607
 21
-86.257134672291158
 31
0.0
  0
TEXT
  5
1BB23
  8
SU
  6
CONTINUOUS
 62
     3
 10
-350.08533910398472
 20
-62.156180877388017
 30
0.0
 40
4.0
  1
15
 50
90.0
 41
0.8299999999999999
  0
TEXT
  5
1BB24
  8
SU
  6
CONTINUOUS
 62
     3
 10
-350.08533910398472
 20
-44.419036606302342
 30
0.0
 40
4.0
  1
20
 50
90.0
 41
0.8299999999999999
  0
TEXT
  5
1BB25
  8
SU
  6
CONTINUOUS
 62
     3
 10
-122.0853391039842
 20
-158.4995728582723
 30
0.0
 40
4.0
  1
H
 50
90.0
 41
0.8299999999999999
  0
TEXT
  5
1BB26
  8
SU
  6
CONTINUOUS
 62
     3
 10
-137.0853391039829
 20
-164.85481095351059
 30
0.0
 40
4.0
  1
ドアH（DH）
 50
90.0
 41
0.8299999999999999
  0
LINE
  5
1BB27
  8
SU
  6
CONTINUOUS
 62
     3
 10
-126.7059758707246
 20
-196.2168284728599
 30
0.0
 11
-114.8647023372439
 21
-196.2168284728599
 31
0.0
  0
LINE
  5
1BB28
  8
SU
  6
CONTINUOUS
 62
     3
 10
-126.5859758707245
 20
-196.41682847285989
 30
0.0
 11
-114.9847023372439
 21
-196.41682847285989
 31
0.0
  0
LINE
  5
1BB29
  8
SU
  6
CONTINUOUS
 62
     3
 10
-126.46597587072471
 20
-196.61682847285991
 30
0.0
 11
-115.10470233724391
 21
-196.61682847285991
 31
0.0
  0
LINE
  5
1BB2A
  8
SU
  6
CONTINUOUS
 62
     3
 10
-126.3459758707247
 20
-196.8168284728599
 30
0.0
 11
-115.2247023372438
 21
-196.8168284728599
 31
0.0
  0
LINE
  5
1BB2B
  8
SU
  6
CONTINUOUS
 62
     3
 10
-126.2259758707247
 20
-197.01682847285991
 30
0.0
 11
-115.3447023372438
 21
-197.01682847285991
 31
0.0
  0
LINE
  5
1BB2C
  8
SU
  6
CONTINUOUS
 62
     3
 10
-126.10597587072471
 20
-197.2168284728599
 30
0.0
 11
-115.46470233724381
 21
-197.2168284728599
 31
0.0
  0
LINE
  5
1BB2D
  8
SU
  6
CONTINUOUS
 62
     3
 10
-125.9859758707247
 20
-197.41682847285981
 30
0.0
 11
-115.5847023372438
 21
-197.41682847285981
 31
0.0
  0
LINE
  5
1BB2E
  8
SU
  6
CONTINUOUS
 62
     3
 10
-125.8659758707247
 20
-197.61682847285991
 30
0.0
 11
-115.7047023372439
 21
-197.61682847285991
 31
0.0
  0
LINE
  5
1BB2F
  8
SU
  6
CONTINUOUS
 62
     3
 10
-125.74597587072471
 20
-197.8168284728599
 30
0.0
 11
-115.82470233724391
 21
-197.8168284728599
 31
0.0
  0
LINE
  5
1BB30
  8
SU
  6
CONTINUOUS
 62
     3
 10
-125.6259758707247
 20
-198.01682847285991
 30
0.0
 11
-115.9447023372438
 21
-198.01682847285991
 31
0.0
  0
LINE
  5
1BB31
  8
SU
  6
CONTINUOUS
 62
     3
 10
-125.5059758707246
 20
-198.2168284728599
 30
0.0
 11
-116.0647023372439
 21
-198.2168284728599
 31
0.0
  0
LINE
  5
1BB32
  8
SU
  6
CONTINUOUS
 62
     3
 10
-125.38597587072471
 20
-198.41682847285981
 30
0.0
 11
-116.18470233724391
 21
-198.41682847285981
 31
0.0
  0
LINE
  5
1BB33
  8
SU
  6
CONTINUOUS
 62
     3
 10
-125.2659758707246
 20
-198.61682847285991
 30
0.0
 11
-116.3047023372439
 21
-198.61682847285991
 31
0.0
  0
LINE
  5
1BB34
  8
SU
  6
CONTINUOUS
 62
     3
 10
-125.1459758707246
 20
-198.8168284728599
 30
0.0
 11
-116.4247023372439
 21
-198.8168284728599
 31
0.0
  0
LINE
  5
1BB35
  8
SU
  6
CONTINUOUS
 62
     3
 10
-125.02597587072459
 20
-199.01682847285949
 30
0.0
 11
-116.54470233724381
 21
-199.01682847285949
 31
0.0
  0
LINE
  5
1BB36
  8
SU
  6
CONTINUOUS
 62
     3
 10
-124.9059758707246
 20
-199.2168284728599
 30
0.0
 11
-116.6647023372439
 21
-199.2168284728599
 31
0.0
  0
LINE
  5
1BB37
  8
SU
  6
CONTINUOUS
 62
     3
 10
-124.7859758707247
 20
-199.41682847285981
 30
0.0
 11
-116.7847023372438
 21
-199.41682847285981
 31
0.0
  0
LINE
  5
1BB38
  8
SU
  6
CONTINUOUS
 62
     3
 10
-124.66597587072459
 20
-199.61682847285991
 30
0.0
 11
-116.9047023372439
 21
-199.61682847285991
 31
0.0
  0
LINE
  5
1BB39
  8
SU
  6
CONTINUOUS
 62
     3
 10
-124.5459758707248
 20
-199.8168284728599
 30
0.0
 11
-117.0247023372438
 21
-199.8168284728599
 31
0.0
  0
LINE
  5
1BB3A
  8
SU
  6
CONTINUOUS
 62
     3
 10
-124.4259758707247
 20
-200.01682847285991
 30
0.0
 11
-117.1447023372439
 21
-200.01682847285991
 31
0.0
  0
LINE
  5
1BB3B
  8
SU
  6
CONTINUOUS
 62
     3
 10
-124.30597587072459
 20
-200.2168284728599
 30
0.0
 11
-117.2647023372439
 21
-200.2168284728599
 31
0.0
  0
LINE
  5
1BB3C
  8
SU
  6
CONTINUOUS
 62
     3
 10
-124.1859758707247
 20
-200.41682847285969
 30
0.0
 11
-117.38470233724379
 21
-200.41682847285969
 31
0.0
  0
LINE
  5
1BB3D
  8
SU
  6
CONTINUOUS
 62
     3
 10
-124.0659758707246
 20
-200.61682847285991
 30
0.0
 11
-117.5047023372439
 21
-200.61682847285991
 31
0.0
  0
LINE
  5
1BB3E
  8
SU
  6
CONTINUOUS
 62
     3
 10
-123.9459758707246
 20
-200.8168284728599
 30
0.0
 11
-117.6247023372439
 21
-200.8168284728599
 31
0.0
  0
LINE
  5
1BB3F
  8
SU
  6
CONTINUOUS
 62
     3
 10
-123.8259758707247
 20
-201.01682847285991
 30
0.0
 11
-117.74470233724379
 21
-201.01682847285991
 31
0.0
  0
LINE
  5
1BB40
  8
SU
  6
CONTINUOUS
 62
     3
 10
-123.7059758707246
 20
-201.2168284728599
 30
0.0
 11
-117.8647023372439
 21
-201.2168284728599
 31
0.0
  0
LINE
  5
1BB41
  8
SU
  6
CONTINUOUS
 62
     3
 10
-123.5859758707247
 20
-201.41682847285989
 30
0.0
 11
-117.9847023372438
 21
-201.41682847285989
 31
0.0
  0
LINE
  5
1BB42
  8
SU
  6
CONTINUOUS
 62
     3
 10
-123.46597587072471
 20
-201.61682847285991
 30
0.0
 11
-118.10470233724379
 21
-201.61682847285991
 31
0.0
  0
LINE
  5
1BB43
  8
SU
  6
CONTINUOUS
 62
     3
 10
-123.3459758707247
 20
-201.8168284728599
 30
0.0
 11
-118.2247023372438
 21
-201.8168284728599
 31
0.0
  0
LINE
  5
1BB44
  8
SU
  6
CONTINUOUS
 62
     3
 10
-123.2259758707247
 20
-202.01682847285991
 30
0.0
 11
-118.3447023372439
 21
-202.01682847285991
 31
0.0
  0
LINE
  5
1BB45
  8
SU
  6
CONTINUOUS
 62
     3
 10
-123.10597587072481
 20
-202.2168284728599
 30
0.0
 11
-118.46470233724349
 21
-202.2168284728599
 31
0.0
  0
LINE
  5
1BB46
  8
SU
  6
CONTINUOUS
 62
     3
 10
-122.9859758707247
 20
-202.41682847285969
 30
0.0
 11
-118.5847023372438
 21
-202.41682847285969
 31
0.0
  0
LINE
  5
1BB47
  8
SU
  6
CONTINUOUS
 62
     3
 10
-122.8659758707246
 20
-202.61682847285991
 30
0.0
 11
-118.7047023372439
 21
-202.61682847285991
 31
0.0
  0
LINE
  5
1BB48
  8
SU
  6
CONTINUOUS
 62
     3
 10
-122.74597587072471
 20
-202.8168284728599
 30
0.0
 11
-118.82470233724391
 21
-202.8168284728599
 31
0.0
  0
LINE
  5
1BB49
  8
SU
  6
CONTINUOUS
 62
     3
 10
-122.6259758707247
 20
-203.01682847285991
 30
0.0
 11
-118.9447023372439
 21
-203.01682847285991
 31
0.0
  0
LINE
  5
1BB4A
  8
SU
  6
CONTINUOUS
 62
     3
 10
-122.5059758707246
 20
-203.2168284728599
 30
0.0
 11
-119.0647023372439
 21
-203.2168284728599
 31
0.0
  0
LINE
  5
1BB4B
  8
SU
  6
CONTINUOUS
 62
     3
 10
-122.38597587072471
 20
-203.41682847285989
 30
0.0
 11
-119.18470233724391
 21
-203.41682847285989
 31
0.0
  0
LINE
  5
1BB4C
  8
SU
  6
CONTINUOUS
 62
     3
 10
-122.2659758707246
 20
-203.61682847285959
 30
0.0
 11
-119.3047023372439
 21
-203.61682847285959
 31
0.0
  0
LINE
  5
1BB4D
  8
SU
  6
CONTINUOUS
 62
     3
 10
-122.1459758707247
 20
-203.8168284728599
 30
0.0
 11
-119.4247023372438
 21
-203.8168284728599
 31
0.0
  0
LINE
  5
1BB4E
  8
SU
  6
CONTINUOUS
 62
     3
 10
-122.02597587072459
 20
-204.01682847285991
 30
0.0
 11
-119.5447023372439
 21
-204.01682847285991
 31
0.0
  0
LINE
  5
1BB4F
  8
SU
  6
CONTINUOUS
 62
     3
 10
-121.9059758707247
 20
-204.2168284728599
 30
0.0
 11
-119.6647023372438
 21
-204.2168284728599
 31
0.0
  0
LINE
  5
1BB50
  8
SU
  6
CONTINUOUS
 62
     3
 10
-121.7859758707247
 20
-204.41682847285981
 30
0.0
 11
-119.7847023372438
 21
-204.41682847285981
 31
0.0
  0
LINE
  5
1BB51
  8
SU
  6
CONTINUOUS
 62
     3
 10
-121.66597587072459
 20
-204.61682847285991
 30
0.0
 11
-119.9047023372438
 21
-204.61682847285991
 31
0.0
  0
LINE
  5
1BB52
  8
SU
  6
CONTINUOUS
 62
     3
 10
-121.5459758707247
 20
-204.8168284728599
 30
0.0
 11
-120.0247023372438
 21
-204.8168284728599
 31
0.0
  0
LINE
  5
1BB53
  8
SU
  6
CONTINUOUS
 62
     3
 10
-121.4259758707247
 20
-205.01682847285991
 30
0.0
 11
-120.1447023372439
 21
-205.01682847285991
 31
0.0
  0
LINE
  5
1BB54
  8
SU
  6
CONTINUOUS
 62
     3
 10
-121.30597587072459
 20
-205.2168284728599
 30
0.0
 11
-120.2647023372439
 21
-205.2168284728599
 31
0.0
  0
LINE
  5
1BB55
  8
SU
  6
CONTINUOUS
 62
     3
 10
-121.1859758707247
 20
-205.41682847285989
 30
0.0
 11
-120.38470233724379
 21
-205.41682847285989
 31
0.0
  0
LINE
  5
1BB56
  8
SU
  6
CONTINUOUS
 62
     3
 10
-121.0659758707248
 20
-205.61682847285959
 30
0.0
 11
-120.5047023372439
 21
-205.61682847285959
 31
0.0
  0
LINE
  5
1BB57
  8
SU
  6
CONTINUOUS
 62
     3
 10
-120.9459758707245
 20
-205.8168284728599
 30
0.0
 11
-120.6247023372438
 21
-205.8168284728599
 31
0.0
  0
LINE
  5
1BB58
  8
SU
  6
CONTINUOUS
 62
     3
 10
-120.8259758707247
 20
-206.01682847285991
 30
0.0
 11
-120.74470233724379
 21
-206.01682847285991
 31
0.0
  0
TEXT
  5
1BB59
  8
SU
  6
CONTINUOUS
 62
     3
 10
-122.0853391039842
 20
-215.4836040364751
 30
0.0
 40
4.0
  1
12
 50
90.0
 41
0.8299999999999999
  0
TEXT
  5
1BB5A
  8
SU
  6
CONTINUOUS
 62
     3
 10
-137.0853391039829
 20
-203.66550879837951
 30
0.0
 40
4.0
  1
8
 50
90.0
 41
0.8299999999999999
  0
LINE
  5
1BB5B
  8
SU
  6
CONTINUOUS
 62
     3
 10
-126.7059758707246
 20
-56.389406727713357
 30
0.0
 11
-114.8647023372439
 21
-56.389406727713357
 31
0.0
  0
LINE
  5
1BB5C
  8
SU
  6
CONTINUOUS
 62
     3
 10
-126.5859758707245
 20
-56.589406727713339
 30
0.0
 11
-114.9847023372439
 21
-56.589406727713339
 31
0.0
  0
LINE
  5
1BB5D
  8
SU
  6
CONTINUOUS
 62
     3
 10
-126.46597587072471
 20
-56.78940672771332
 30
0.0
 11
-115.10470233724391
 21
-56.78940672771332
 31
0.0
  0
LINE
  5
1BB5E
  8
SU
  6
CONTINUOUS
 62
     3
 10
-126.3459758707247
 20
-56.989406727713337
 30
0.0
 11
-115.2247023372438
 21
-56.989406727713337
 31
0.0
  0
LINE
  5
1BB5F
  8
SU
  6
CONTINUOUS
 62
     3
 10
-126.2259758707247
 20
-57.189406727713312
 30
0.0
 11
-115.3447023372438
 21
-57.189406727713312
 31
0.0
  0
LINE
  5
1BB60
  8
SU
  6
CONTINUOUS
 62
     3
 10
-126.10597587072471
 20
-57.38940672771335
 30
0.0
 11
-115.46470233724381
 21
-57.38940672771335
 31
0.0
  0
LINE
  5
1BB61
  8
SU
  6
CONTINUOUS
 62
     3
 10
-125.9859758707247
 20
-57.589406727713339
 30
0.0
 11
-115.5847023372438
 21
-57.589406727713339
 31
0.0
  0
LINE
  5
1BB62
  8
SU
  6
CONTINUOUS
 62
     3
 10
-125.8659758707247
 20
-57.789406727713327
 30
0.0
 11
-115.7047023372438
 21
-57.789406727713327
 31
0.0
  0
LINE
  5
1BB63
  8
SU
  6
CONTINUOUS
 62
     3
 10
-125.74597587072471
 20
-57.989406727713337
 30
0.0
 11
-115.82470233724381
 21
-57.989406727713337
 31
0.0
  0
LINE
  5
1BB64
  8
SU
  6
CONTINUOUS
 62
     3
 10
-125.6259758707247
 20
-58.189406727713333
 30
0.0
 11
-115.9447023372438
 21
-58.189406727713333
 31
0.0
  0
LINE
  5
1BB65
  8
SU
  6
CONTINUOUS
 62
     3
 10
-125.5059758707246
 20
-58.389406727713357
 30
0.0
 11
-116.0647023372437
 21
-58.389406727713357
 31
0.0
  0
LINE
  5
1BB66
  8
SU
  6
CONTINUOUS
 62
     3
 10
-125.38597587072471
 20
-58.58940672771336
 30
0.0
 11
-116.18470233724381
 21
-58.58940672771336
 31
0.0
  0
LINE
  5
1BB67
  8
SU
  6
CONTINUOUS
 62
     3
 10
-125.2659758707246
 20
-58.78940672771332
 30
0.0
 11
-116.3047023372439
 21
-58.78940672771332
 31
0.0
  0
LINE
  5
1BB68
  8
SU
  6
CONTINUOUS
 62
     3
 10
-125.1459758707246
 20
-58.989406727713359
 30
0.0
 11
-116.4247023372439
 21
-58.989406727713359
 31
0.0
  0
LINE
  5
1BB69
  8
SU
  6
CONTINUOUS
 62
     3
 10
-125.02597587072459
 20
-59.189406727713319
 30
0.0
 11
-116.54470233724381
 21
-59.189406727713319
 31
0.0
  0
LINE
  5
1BB6A
  8
SU
  6
CONTINUOUS
 62
     3
 10
-124.9059758707246
 20
-59.389406727713357
 30
0.0
 11
-116.6647023372439
 21
-59.389406727713357
 31
0.0
  0
LINE
  5
1BB6B
  8
SU
  6
CONTINUOUS
 62
     3
 10
-124.7859758707247
 20
-59.589406727713317
 30
0.0
 11
-116.7847023372438
 21
-59.589406727713317
 31
0.0
  0
LINE
  5
1BB6C
  8
SU
  6
CONTINUOUS
 62
     3
 10
-124.66597587072459
 20
-59.789406727713327
 30
0.0
 11
-116.9047023372439
 21
-59.789406727713327
 31
0.0
  0
LINE
  5
1BB6D
  8
SU
  6
CONTINUOUS
 62
     3
 10
-124.5459758707247
 20
-59.989406727713337
 30
0.0
 11
-117.0247023372438
 21
-59.989406727713337
 31
0.0
  0
LINE
  5
1BB6E
  8
SU
  6
CONTINUOUS
 62
     3
 10
-124.4259758707247
 20
-60.189406727713319
 30
0.0
 11
-117.1447023372439
 21
-60.189406727713319
 31
0.0
  0
LINE
  5
1BB6F
  8
SU
  6
CONTINUOUS
 62
     3
 10
-124.30597587072459
 20
-60.38940672771335
 30
0.0
 11
-117.2647023372437
 21
-60.38940672771335
 31
0.0
  0
LINE
  5
1BB70
  8
SU
  6
CONTINUOUS
 62
     3
 10
-124.1859758707247
 20
-60.589406727713353
 30
0.0
 11
-117.38470233724379
 21
-60.589406727713353
 31
0.0
  0
LINE
  5
1BB71
  8
SU
  6
CONTINUOUS
 62
     3
 10
-124.0659758707246
 20
-60.789406727713327
 30
0.0
 11
-117.5047023372437
 21
-60.789406727713327
 31
0.0
  0
LINE
  5
1BB72
  8
SU
  6
CONTINUOUS
 62
     3
 10
-123.9459758707246
 20
-60.989406727713337
 30
0.0
 11
-117.6247023372438
 21
-60.989406727713337
 31
0.0
  0
LINE
  5
1BB73
  8
SU
  6
CONTINUOUS
 62
     3
 10
-123.8259758707247
 20
-61.18940672771334
 30
0.0
 11
-117.74470233724379
 21
-61.18940672771334
 31
0.0
  0
LINE
  5
1BB74
  8
SU
  6
CONTINUOUS
 62
     3
 10
-123.7059758707246
 20
-61.389406727713357
 30
0.0
 11
-117.8647023372439
 21
-61.389406727713357
 31
0.0
  0
LINE
  5
1BB75
  8
SU
  6
CONTINUOUS
 62
     3
 10
-123.5859758707247
 20
-61.589406727713339
 30
0.0
 11
-117.9847023372438
 21
-61.589406727713339
 31
0.0
  0
LINE
  5
1BB76
  8
SU
  6
CONTINUOUS
 62
     3
 10
-123.46597587072471
 20
-61.78940672771332
 30
0.0
 11
-118.10470233724391
 21
-61.78940672771332
 31
0.0
  0
LINE
  5
1BB77
  8
SU
  6
CONTINUOUS
 62
     3
 10
-123.3459758707247
 20
-61.989406727713337
 30
0.0
 11
-118.2247023372438
 21
-61.989406727713337
 31
0.0
  0
LINE
  5
1BB78
  8
SU
  6
CONTINUOUS
 62
     3
 10
-123.2259758707247
 20
-62.189406727713312
 30
0.0
 11
-118.3447023372438
 21
-62.189406727713312
 31
0.0
  0
LINE
  5
1BB79
  8
SU
  6
CONTINUOUS
 62
     3
 10
-123.10597587072471
 20
-62.38940672771335
 30
0.0
 11
-118.46470233724349
 21
-62.38940672771335
 31
0.0
  0
LINE
  5
1BB7A
  8
SU
  6
CONTINUOUS
 62
     3
 10
-122.9859758707247
 20
-62.589406727713339
 30
0.0
 11
-118.5847023372438
 21
-62.589406727713339
 31
0.0
  0
LINE
  5
1BB7B
  8
SU
  6
CONTINUOUS
 62
     3
 10
-122.8659758707246
 20
-62.789406727713327
 30
0.0
 11
-118.7047023372437
 21
-62.789406727713327
 31
0.0
  0
LINE
  5
1BB7C
  8
SU
  6
CONTINUOUS
 62
     3
 10
-122.74597587072471
 20
-62.989406727713337
 30
0.0
 11
-118.82470233724381
 21
-62.989406727713337
 31
0.0
  0
LINE
  5
1BB7D
  8
SU
  6
CONTINUOUS
 62
     3
 10
-122.6259758707247
 20
-63.189406727713333
 30
0.0
 11
-118.9447023372438
 21
-63.189406727713333
 31
0.0
  0
LINE
  5
1BB7E
  8
SU
  6
CONTINUOUS
 62
     3
 10
-122.5059758707246
 20
-63.389406727713357
 30
0.0
 11
-119.0647023372437
 21
-63.389406727713357
 31
0.0
  0
LINE
  5
1BB7F
  8
SU
  6
CONTINUOUS
 62
     3
 10
-122.38597587072471
 20
-63.58940672771336
 30
0.0
 11
-119.18470233724381
 21
-63.58940672771336
 31
0.0
  0
LINE
  5
1BB80
  8
SU
  6
CONTINUOUS
 62
     3
 10
-122.2659758707246
 20
-63.78940672771332
 30
0.0
 11
-119.3047023372439
 21
-63.78940672771332
 31
0.0
  0
LINE
  5
1BB81
  8
SU
  6
CONTINUOUS
 62
     3
 10
-122.1459758707247
 20
-63.989406727713359
 30
0.0
 11
-119.4247023372438
 21
-63.989406727713359
 31
0.0
  0
LINE
  5
1BB82
  8
SU
  6
CONTINUOUS
 62
     3
 10
-122.02597587072459
 20
-64.189406727713333
 30
0.0
 11
-119.5447023372439
 21
-64.189406727713333
 31
0.0
  0
LINE
  5
1BB83
  8
SU
  6
CONTINUOUS
 62
     3
 10
-121.9059758707247
 20
-64.38940672771335
 30
0.0
 11
-119.6647023372438
 21
-64.38940672771335
 31
0.0
  0
LINE
  5
1BB84
  8
SU
  6
CONTINUOUS
 62
     3
 10
-121.7859758707247
 20
-64.589406727713325
 30
0.0
 11
-119.7847023372438
 21
-64.589406727713325
 31
0.0
  0
LINE
  5
1BB85
  8
SU
  6
CONTINUOUS
 62
     3
 10
-121.66597587072459
 20
-64.789406727713327
 30
0.0
 11
-119.9047023372439
 21
-64.789406727713327
 31
0.0
  0
LINE
  5
1BB86
  8
SU
  6
CONTINUOUS
 62
     3
 10
-121.5459758707247
 20
-64.989406727713344
 30
0.0
 11
-120.0247023372438
 21
-64.989406727713344
 31
0.0
  0
LINE
  5
1BB87
  8
SU
  6
CONTINUOUS
 62
     3
 10
-121.4259758707247
 20
-65.189406727713333
 30
0.0
 11
-120.1447023372437
 21
-65.189406727713333
 31
0.0
  0
LINE
  5
1BB88
  8
SU
  6
CONTINUOUS
 62
     3
 10
-121.30597587072459
 20
-65.38940672771335
 30
0.0
 11
-120.2647023372438
 21
-65.38940672771335
 31
0.0
  0
LINE
  5
1BB89
  8
SU
  6
CONTINUOUS
 62
     3
 10
-121.1859758707247
 20
-65.589406727713353
 30
0.0
 11
-120.38470233724379
 21
-65.589406727713353
 31
0.0
  0
LINE
  5
1BB8A
  8
SU
  6
CONTINUOUS
 62
     3
 10
-121.0659758707246
 20
-65.789406727713327
 30
0.0
 11
-120.5047023372437
 21
-65.789406727713327
 31
0.0
  0
LINE
  5
1BB8B
  8
SU
  6
CONTINUOUS
 62
     3
 10
-120.9459758707245
 20
-65.989406727713344
 30
0.0
 11
-120.6247023372438
 21
-65.989406727713344
 31
0.0
  0
LINE
  5
1BB8C
  8
SU
  6
CONTINUOUS
 62
     3
 10
-120.8259758707247
 20
-66.189406727713333
 30
0.0
 11
-120.74470233724379
 21
-66.189406727713333
 31
0.0
  0
TEXT
  5
1BB8D
  8
SU
  6
CONTINUOUS
 62
     3
 10
-187.4529581607309
 20
-84.957134672288305
 30
0.0
 40
4.0
  1
1.5
 41
0.8299999999999999
  0
LINE
  5
1BB8E
  8
SU
  6
CONTINUOUS
 62
     3
 10
-194.78533922661481
 20
-86.257134672288302
 30
0.0
 11
-197.18533922661459
 21
-86.257134672288302
 31
0.0
  0
TEXT
  5
1BB8F
  8
SU
  6
CONTINUOUS
 62
     3
 10
-137.0853391039829
 20
-50.338084225349419
 30
0.0
 40
4.0
  1
5
 50
90.0
 41
0.8299999999999999
  0
TEXT
  5
1BB90
  8
SU
  6
CONTINUOUS
 62
     3
 10
-137.08533910397901
 20
-62.15618087738148
 30
0.0
 40
4.0
  1
15
 50
90.0
 41
0.8299999999999999
  0
LINE
  5
1BB91
  8
SU
  6
CONTINUOUS
 62
     3
 10
-120.8259758707247
 20
164.17129405356431
 30
0.0
 11
-120.74470233724379
 21
164.17129405356431
 31
0.0
  0
LINE
  5
1BB92
  8
SU
  6
CONTINUOUS
 62
     3
 10
-120.9459758707245
 20
163.97129405356401
 30
0.0
 11
-120.6247023372438
 21
163.97129405356401
 31
0.0
  0
LINE
  5
1BB93
  8
SU
  6
CONTINUOUS
 62
     3
 10
-121.0659758707246
 20
163.7712940535643
 30
0.0
 11
-120.5047023372439
 21
163.7712940535643
 31
0.0
  0
LINE
  5
1BB94
  8
SU
  6
CONTINUOUS
 62
     3
 10
-121.1859758707246
 20
163.57129405356409
 30
0.0
 11
-120.38470233724379
 21
163.57129405356409
 31
0.0
  0
LINE
  5
1BB95
  8
SU
  6
CONTINUOUS
 62
     3
 10
-121.30597587072459
 20
163.3712940535643
 30
0.0
 11
-120.2647023372439
 21
163.3712940535643
 31
0.0
  0
LINE
  5
1BB96
  8
SU
  6
CONTINUOUS
 62
     3
 10
-121.4259758707247
 20
163.17129405356431
 30
0.0
 11
-120.1447023372439
 21
163.17129405356431
 31
0.0
  0
LINE
  5
1BB97
  8
SU
  6
CONTINUOUS
 62
     3
 10
-121.5459758707247
 20
162.97129405356401
 30
0.0
 11
-120.0247023372438
 21
162.97129405356401
 31
0.0
  0
LINE
  5
1BB98
  8
SU
  6
CONTINUOUS
 62
     3
 10
-121.66597587072459
 20
162.7712940535643
 30
0.0
 11
-119.9047023372439
 21
162.7712940535643
 31
0.0
  0
LINE
  5
1BB99
  8
SU
  6
CONTINUOUS
 62
     3
 10
-121.7859758707247
 20
162.57129405356429
 30
0.0
 11
-119.7847023372438
 21
162.57129405356429
 31
0.0
  0
LINE
  5
1BB9A
  8
SU
  6
CONTINUOUS
 62
     3
 10
-121.9059758707247
 20
162.3712940535643
 30
0.0
 11
-119.6647023372438
 21
162.3712940535643
 31
0.0
  0
LINE
  5
1BB9B
  8
SU
  6
CONTINUOUS
 62
     3
 10
-122.02597587072459
 20
162.17129405356431
 30
0.0
 11
-119.5447023372439
 21
162.17129405356431
 31
0.0
  0
LINE
  5
1BB9C
  8
SU
  6
CONTINUOUS
 62
     3
 10
-122.1459758707247
 20
161.97129405356409
 30
0.0
 11
-119.4247023372438
 21
161.97129405356409
 31
0.0
  0
LINE
  5
1BB9D
  8
SU
  6
CONTINUOUS
 62
     3
 10
-122.2659758707246
 20
161.7712940535643
 30
0.0
 11
-119.3047023372439
 21
161.7712940535643
 31
0.0
  0
LINE
  5
1BB9E
  8
SU
  6
CONTINUOUS
 62
     3
 10
-122.38597587072471
 20
161.571294053564
 30
0.0
 11
-119.18470233724381
 21
161.571294053564
 31
0.0
  0
LINE
  5
1BB9F
  8
SU
  6
CONTINUOUS
 62
     3
 10
-122.5059758707246
 20
161.3712940535643
 30
0.0
 11
-119.0647023372437
 21
161.3712940535643
 31
0.0
  0
LINE
  5
1BBA0
  8
SU
  6
CONTINUOUS
 62
     3
 10
-122.6259758707247
 20
161.17129405356431
 30
0.0
 11
-118.9447023372438
 21
161.17129405356431
 31
0.0
  0
LINE
  5
1BBA1
  8
SU
  6
CONTINUOUS
 62
     3
 10
-122.74597587072429
 20
160.97129405356401
 30
0.0
 11
-118.82470233724391
 21
160.97129405356401
 31
0.0
  0
LINE
  5
1BBA2
  8
SU
  6
CONTINUOUS
 62
     3
 10
-122.8659758707246
 20
160.7712940535643
 30
0.0
 11
-118.7047023372439
 21
160.7712940535643
 31
0.0
  0
LINE
  5
1BBA3
  8
SU
  6
CONTINUOUS
 62
     3
 10
-122.9859758707247
 20
160.571294053564
 30
0.0
 11
-118.5847023372438
 21
160.571294053564
 31
0.0
  0
LINE
  5
1BBA4
  8
SU
  6
CONTINUOUS
 62
     3
 10
-123.10597587072471
 20
160.3712940535643
 30
0.0
 11
-118.46470233724391
 21
160.3712940535643
 31
0.0
  0
LINE
  5
1BBA5
  8
SU
  6
CONTINUOUS
 62
     3
 10
-123.2259758707247
 20
160.17129405356431
 30
0.0
 11
-118.3447023372439
 21
160.17129405356431
 31
0.0
  0
LINE
  5
1BBA6
  8
SU
  6
CONTINUOUS
 62
     3
 10
-123.3459758707247
 20
159.97129405356401
 30
0.0
 11
-118.2247023372438
 21
159.97129405356401
 31
0.0
  0
LINE
  5
1BBA7
  8
SU
  6
CONTINUOUS
 62
     3
 10
-123.46597587072471
 20
159.7712940535643
 30
0.0
 11
-118.10470233724391
 21
159.7712940535643
 31
0.0
  0
LINE
  5
1BBA8
  8
SU
  6
CONTINUOUS
 62
     3
 10
-123.5859758707247
 20
159.571294053564
 30
0.0
 11
-117.9847023372438
 21
159.571294053564
 31
0.0
  0
LINE
  5
1BBA9
  8
SU
  6
CONTINUOUS
 62
     3
 10
-123.7059758707246
 20
159.3712940535643
 30
0.0
 11
-117.8647023372439
 21
159.3712940535643
 31
0.0
  0
LINE
  5
1BBAA
  8
SU
  6
CONTINUOUS
 62
     3
 10
-123.8259758707246
 20
159.17129405356431
 30
0.0
 11
-117.74470233724379
 21
159.17129405356431
 31
0.0
  0
LINE
  5
1BBAB
  8
SU
  6
CONTINUOUS
 62
     3
 10
-123.9459758707246
 20
158.97129405356401
 30
0.0
 11
-117.6247023372439
 21
158.97129405356401
 31
0.0
  0
LINE
  5
1BBAC
  8
SU
  6
CONTINUOUS
 62
     3
 10
-124.0659758707246
 20
158.7712940535643
 30
0.0
 11
-117.5047023372439
 21
158.7712940535643
 31
0.0
  0
LINE
  5
1BBAD
  8
SU
  6
CONTINUOUS
 62
     3
 10
-124.1859758707245
 20
158.571294053564
 30
0.0
 11
-117.38470233724379
 21
158.571294053564
 31
0.0
  0
LINE
  5
1BBAE
  8
SU
  6
CONTINUOUS
 62
     3
 10
-124.30597587072459
 20
158.3712940535643
 30
0.0
 11
-117.2647023372439
 21
158.3712940535643
 31
0.0
  0
LINE
  5
1BBAF
  8
SU
  6
CONTINUOUS
 62
     3
 10
-124.4259758707247
 20
158.17129405356431
 30
0.0
 11
-117.1447023372439
 21
158.17129405356431
 31
0.0
  0
LINE
  5
1BBB0
  8
SU
  6
CONTINUOUS
 62
     3
 10
-124.5459758707247
 20
157.97129405356401
 30
0.0
 11
-117.0247023372438
 21
157.97129405356401
 31
0.0
  0
LINE
  5
1BBB1
  8
SU
  6
CONTINUOUS
 62
     3
 10
-124.66597587072459
 20
157.7712940535643
 30
0.0
 11
-116.9047023372439
 21
157.7712940535643
 31
0.0
  0
LINE
  5
1BBB2
  8
SU
  6
CONTINUOUS
 62
     3
 10
-124.7859758707247
 20
157.571294053564
 30
0.0
 11
-116.7847023372438
 21
157.571294053564
 31
0.0
  0
LINE
  5
1BBB3
  8
SU
  6
CONTINUOUS
 62
     3
 10
-124.9059758707246
 20
157.3712940535643
 30
0.0
 11
-116.6647023372439
 21
157.3712940535643
 31
0.0
  0
LINE
  5
1BBB4
  8
SU
  6
CONTINUOUS
 62
     3
 10
-125.02597587072459
 20
157.17129405356431
 30
0.0
 11
-116.54470233724381
 21
157.17129405356431
 31
0.0
  0
LINE
  5
1BBB5
  8
SU
  6
CONTINUOUS
 62
     3
 10
-125.1459758707246
 20
156.97129405356401
 30
0.0
 11
-116.4247023372439
 21
156.97129405356401
 31
0.0
  0
LINE
  5
1BBB6
  8
SU
  6
CONTINUOUS
 62
     3
 10
-125.2659758707246
 20
156.7712940535643
 30
0.0
 11
-116.3047023372439
 21
156.7712940535643
 31
0.0
  0
LINE
  5
1BBB7
  8
SU
  6
CONTINUOUS
 62
     3
 10
-125.38597587072459
 20
156.571294053564
 30
0.0
 11
-116.18470233724381
 21
156.571294053564
 31
0.0
  0
LINE
  5
1BBB8
  8
SU
  6
CONTINUOUS
 62
     3
 10
-125.5059758707246
 20
156.3712940535643
 30
0.0
 11
-116.0647023372439
 21
156.3712940535643
 31
0.0
  0
LINE
  5
1BBB9
  8
SU
  6
CONTINUOUS
 62
     3
 10
-125.6259758707246
 20
156.17129405356431
 30
0.0
 11
-115.9447023372438
 21
156.17129405356431
 31
0.0
  0
LINE
  5
1BBBA
  8
SU
  6
CONTINUOUS
 62
     3
 10
-125.74597587072461
 20
155.97129405356401
 30
0.0
 11
-115.82470233724391
 21
155.97129405356401
 31
0.0
  0
LINE
  5
1BBBB
  8
SU
  6
CONTINUOUS
 62
     3
 10
-125.8659758707247
 20
155.7712940535643
 30
0.0
 11
-115.7047023372439
 21
155.7712940535643
 31
0.0
  0
LINE
  5
1BBBC
  8
SU
  6
CONTINUOUS
 62
     3
 10
-125.9859758707247
 20
155.571294053564
 30
0.0
 11
-115.5847023372438
 21
155.571294053564
 31
0.0
  0
LINE
  5
1BBBD
  8
SU
  6
CONTINUOUS
 62
     3
 10
-126.10597587072471
 20
155.3712940535643
 30
0.0
 11
-115.46470233724391
 21
155.3712940535643
 31
0.0
  0
LINE
  5
1BBBE
  8
SU
  6
CONTINUOUS
 62
     3
 10
-126.2259758707247
 20
155.17129405356431
 30
0.0
 11
-115.3447023372438
 21
155.17129405356431
 31
0.0
  0
LINE
  5
1BBBF
  8
SU
  6
CONTINUOUS
 62
     3
 10
-126.3459758707247
 20
154.97129405356401
 30
0.0
 11
-115.2247023372438
 21
154.97129405356401
 31
0.0
  0
LINE
  5
1BBC0
  8
SU
  6
CONTINUOUS
 62
     3
 10
-126.46597587072461
 20
154.7712940535643
 30
0.0
 11
-115.10470233724391
 21
154.7712940535643
 31
0.0
  0
LINE
  5
1BBC1
  8
SU
  6
CONTINUOUS
 62
     3
 10
-126.5859758707245
 20
154.571294053564
 30
0.0
 11
-114.9847023372439
 21
154.571294053564
 31
0.0
  0
LINE
  5
1BBC2
  8
SU
  6
CONTINUOUS
 62
     3
 10
-126.7059758707246
 20
154.3712940535643
 30
0.0
 11
-114.8647023372439
 21
154.3712940535643
 31
0.0
  0
TEXT
  5
1BBC3
  8
SU
  6
CONTINUOUS
 62
     3
 10
-137.0853391039829
 20
148.9980696171792
 30
0.0
 40
4.0
  1
24
 50
90.0
 41
0.8299999999999999
  0
TEXT
  5
1BBC4
  8
SU
  6
CONTINUOUS
 62
     3
 10
-152.0853391039841
 20
148.13390836909701
 30
0.0
 40
4.0
  1
3
 50
90.0
 41
0.8299999999999999
  0
TEXT
  5
1BBC5
  8
SU
  6
CONTINUOUS
 62
     3
 10
-267.02629037036758
 20
100.03902199813319
 30
0.0
 40
4.0
  1
24
 41
0.8299999999999999
  0
TEXT
  5
1BBC6
  8
SU
  6
CONTINUOUS
 62
     3
 10
-249.21010113125081
 20
100.03902199813319
 30
0.0
 40
4.0
  1
11
 41
0.8299999999999999
  0
TEXT
  5
1BBC7
  8
SU
  6
CONTINUOUS
 62
     3
 10
-263.08762978120751
 20
85.039021998132597
 30
0.0
 40
4.0
  1
113
 41
0.8299999999999999
  0
TEXT
  5
1BBC8
  8
SU
  6
CONTINUOUS
 62
     3
 10
-296.56867126143362
 20
100.0390219981329
 30
0.0
 40
4.0
  1
30.5
 41
0.8299999999999999
  0
TEXT
  5
1BBC9
  8
SU
  6
CONTINUOUS
 62
     3
 10
-223.9472431340113
 20
100.0390219981329
 30
0.0
 40
4.0
  1
40
 41
0.8299999999999999
  0
TEXT
  5
1BBCA
  8
SU
  6
CONTINUOUS
 62
     3
 10
-190.0596248183713
 20
100.0390219981329
 30
0.0
 40
4.0
  1
7.5
 41
0.8299999999999999
  0
TEXT
  5
1BBCB
  8
SU
  6
CONTINUOUS
 62
     3
 10
-350.08533910398472
 20
124.32624383303811
 30
0.0
 40
4.0
  1
（20）
 50
90.0
 41
0.8299999999999999
  0
TEXT
  5
1BBCC
  8
SU
  6
CONTINUOUS
 62
     3
 10
114.3242182347195
 20
-30.44910340114982
 30
0.0
 40
4.0
  1
113
 50
90.0
 41
0.8299999999999999
  0
TEXT
  5
1BBCD
  8
SU
  6
CONTINUOUS
 62
     3
 10
100.3242157706039
 20
-24.264192890625331
 30
0.0
 40
4.0
  1
24
 50
90.0
 41
0.8299999999999999
  0
TEXT
  5
1BBCE
  8
SU
  6
CONTINUOUS
 62
     3
 10
100.3242157706039
 20
-102.6537171754122
 30
0.0
 40
4.0
  1
7.5
 50
90.0
 41
0.8299999999999999
  0
TEXT
  5
1BBCF
  8
SU
  6
CONTINUOUS
 62
     3
 10
100.3242157706039
 20
-67.185144890601649
 30
0.0
 40
4.0
  1
40
 50
90.0
 41
0.8299999999999999
  0
TEXT
  5
1BBD0
  8
SU
  6
CONTINUOUS
 62
     3
 10
100.3242157706039
 20
-41.448001177235767
 30
0.0
 40
4.0
  1
11
 50
90.0
 41
0.8299999999999999
  0
TEXT
  5
1BBD1
  8
SU
  6
CONTINUOUS
 62
     3
 10
247.71145386584149
 20
65.276764745842442
 30
0.0
 40
4.0
  1
（20）
 41
0.8299999999999999
  0
TEXT
  5
1BBD2
  8
SU
  6
CONTINUOUS
 62
     3
 10
65.711453873635449
 20
65.276764745842442
 30
0.0
 40
4.0
  1
（20）
 41
0.8299999999999999
  0
TEXT
  5
1BBD3
  8
SU
  6
CONTINUOUS
 62
     3
 10
100.32421578619071
 20
0.6934253007620213
 30
0.0
 40
4.0
  1
30.5
 50
90.0
 41
0.8299999999999999
  0
TEXT
  5
1BBD4
  8
SU
  6
CONTINUOUS
 62
     3
 10
160.727072913461
 20
-163.72324098492109
 30
0.0
 40
4.0
  1
W
 41
0.8299999999999999
  0
TEXT
  5
1BBD5
  8
SU
  6
CONTINUOUS
 62
     3
 10
252.7785014693026
 20
-133.7232409849212
 30
0.0
 40
4.0
  1
4
 41
0.8299999999999999
  0
TEXT
  5
1BBD6
  8
SU
  6
CONTINUOUS
 62
     3
 10
141.1074538658421
 20
-148.72324098492101
 30
0.0
 40
4.0
  1
ドアW（DW）＝W-56
 41
0.8299999999999999
  0
TEXT
  5
1BBD7
  8
SU
  6
CONTINUOUS
 62
     3
 10
69.149930071904976
 20
-133.7232409849212
 30
0.0
 40
4.0
  1
4
 41
0.8299999999999999
  0
TEXT
  5
1BBD8
  8
SU
  6
CONTINUOUS
 62
     3
 10
46.383263397444843
 20
-148.72324098492101
 30
0.0
 40
4.0
  1
24
 41
0.8299999999999999
  0
LINE
  5
1BBD9
  8
SU
  6
CONTINUOUS
 62
     3
 10
37.691943715171128
 20
-165.06387775166141
 30
0.0
 11
37.691943715171128
 21
-164.9826042181808
 31
0.0
  0
LINE
  5
1BBDA
  8
SU
  6
CONTINUOUS
 62
     3
 10
37.891943715171131
 20
-165.1838777516615
 30
0.0
 11
37.891943715171131
 21
-164.86260421818079
 31
0.0
  0
LINE
  5
1BBDB
  8
SU
  6
CONTINUOUS
 62
     3
 10
38.091943715171148
 20
-165.3038777516615
 30
0.0
 11
38.091943715171148
 21
-164.74260421818079
 31
0.0
  0
LINE
  5
1BBDC
  8
SU
  6
CONTINUOUS
 62
     3
 10
38.291943715171129
 20
-165.42387775166151
 30
0.0
 11
38.291943715171129
 21
-164.62260421818081
 31
0.0
  0
LINE
  5
1BBDD
  8
SU
  6
CONTINUOUS
 62
     3
 10
38.491943715171111
 20
-165.54387775166151
 30
0.0
 11
38.491943715171111
 21
-164.50260421818081
 31
0.0
  0
LINE
  5
1BBDE
  8
SU
  6
CONTINUOUS
 62
     3
 10
38.691943715171128
 20
-165.66387775166129
 30
0.0
 11
38.691943715171128
 21
-164.3826042181808
 31
0.0
  0
LINE
  5
1BBDF
  8
SU
  6
CONTINUOUS
 62
     3
 10
38.891943715171131
 20
-165.78387775166141
 30
0.0
 11
38.891943715171131
 21
-164.2626042181808
 31
0.0
  0
LINE
  5
1BBE0
  8
SU
  6
CONTINUOUS
 62
     3
 10
39.091943715171148
 20
-165.9038777516615
 30
0.0
 11
39.091943715171148
 21
-164.14260421818079
 31
0.0
  0
LINE
  5
1BBE1
  8
SU
  6
CONTINUOUS
 62
     3
 10
39.291943715171108
 20
-166.0238777516615
 30
0.0
 11
39.291943715171108
 21
-164.02260421818079
 31
0.0
  0
LINE
  5
1BBE2
  8
SU
  6
CONTINUOUS
 62
     3
 10
39.491943715171118
 20
-166.14387775166151
 30
0.0
 11
39.491943715171118
 21
-163.90260421818081
 31
0.0
  0
LINE
  5
1BBE3
  8
SU
  6
CONTINUOUS
 62
     3
 10
39.691943715171128
 20
-166.26387775166151
 30
0.0
 11
39.691943715171128
 21
-163.78260421818081
 31
0.0
  0
LINE
  5
1BBE4
  8
SU
  6
CONTINUOUS
 62
     3
 10
39.891943715171131
 20
-166.3838777516616
 30
0.0
 11
39.891943715171131
 21
-163.6626042181806
 31
0.0
  0
LINE
  5
1BBE5
  8
SU
  6
CONTINUOUS
 62
     3
 10
40.091943715171134
 20
-166.50387775166129
 30
0.0
 11
40.091943715171134
 21
-163.5426042181808
 31
0.0
  0
LINE
  5
1BBE6
  8
SU
  6
CONTINUOUS
 62
     3
 10
40.291943715171129
 20
-166.62387775166141
 30
0.0
 11
40.291943715171129
 21
-163.42260421818079
 31
0.0
  0
LINE
  5
1BBE7
  8
SU
  6
CONTINUOUS
 62
     3
 10
40.491943715171132
 20
-166.7438777516615
 30
0.0
 11
40.491943715171132
 21
-163.30260421818079
 31
0.0
  0
LINE
  5
1BBE8
  8
SU
  6
CONTINUOUS
 62
     3
 10
40.691943715171128
 20
-166.86387775166159
 30
0.0
 11
40.691943715171128
 21
-163.18260421818081
 31
0.0
  0
LINE
  5
1BBE9
  8
SU
  6
CONTINUOUS
 62
     3
 10
40.891943715171131
 20
-166.98387775166151
 30
0.0
 11
40.891943715171131
 21
-163.06260421818081
 31
0.0
  0
LINE
  5
1BBEA
  8
SU
  6
CONTINUOUS
 62
     3
 10
41.091943715171148
 20
-167.10387775166151
 30
0.0
 11
41.091943715171148
 21
-162.9426042181808
 31
0.0
  0
LINE
  5
1BBEB
  8
SU
  6
CONTINUOUS
 62
     3
 10
41.291943715171129
 20
-167.22387775166141
 30
0.0
 11
41.291943715171129
 21
-162.8226042181806
 31
0.0
  0
LINE
  5
1BBEC
  8
SU
  6
CONTINUOUS
 62
     3
 10
41.491943715171097
 20
-167.34387775166141
 30
0.0
 11
41.491943715171097
 21
-162.70260421818071
 31
0.0
  0
LINE
  5
1BBED
  8
SU
  6
CONTINUOUS
 62
     3
 10
41.691943715171142
 20
-167.46387775166141
 30
0.0
 11
41.691943715171142
 21
-162.5826042181809
 31
0.0
  0
LINE
  5
1BBEE
  8
SU
  6
CONTINUOUS
 62
     3
 10
41.891943715171131
 20
-167.5838777516615
 30
0.0
 11
41.891943715171131
 21
-162.4626042181809
 31
0.0
  0
LINE
  5
1BBEF
  8
SU
  6
CONTINUOUS
 62
     3
 10
42.091943715171134
 20
-167.70387775166159
 30
0.0
 11
42.091943715171134
 21
-162.34260421818081
 31
0.0
  0
LINE
  5
1BBF0
  8
SU
  6
CONTINUOUS
 62
     3
 10
42.291943715171101
 20
-167.8238777516616
 30
0.0
 11
42.291943715171101
 21
-162.22260421818049
 31
0.0
  0
LINE
  5
1BBF1
  8
SU
  6
CONTINUOUS
 62
     3
 10
42.491943715171118
 20
-167.9438777516612
 30
0.0
 11
42.491943715171118
 21
-162.1026042181808
 31
0.0
  0
LINE
  5
1BBF2
  8
SU
  6
CONTINUOUS
 62
     3
 10
42.691943715171128
 20
-168.06387775166141
 30
0.0
 11
42.691943715171128
 21
-161.9826042181808
 31
0.0
  0
LINE
  5
1BBF3
  8
SU
  6
CONTINUOUS
 62
     3
 10
42.891943715171131
 20
-168.1838777516615
 30
0.0
 11
42.891943715171131
 21
-161.86260421818079
 31
0.0
  0
LINE
  5
1BBF4
  8
SU
  6
CONTINUOUS
 62
     3
 10
43.091943715171134
 20
-168.30387775166159
 30
0.0
 11
43.091943715171134
 21
-161.74260421818079
 31
0.0
  0
LINE
  5
1BBF5
  8
SU
  6
CONTINUOUS
 62
     3
 10
43.291943715171143
 20
-168.42387775166151
 30
0.0
 11
43.291943715171143
 21
-161.62260421818081
 31
0.0
  0
LINE
  5
1BBF6
  8
SU
  6
CONTINUOUS
 62
     3
 10
43.491943715171111
 20
-168.54387775166151
 30
0.0
 11
43.491943715171111
 21
-161.50260421818081
 31
0.0
  0
LINE
  5
1BBF7
  8
SU
  6
CONTINUOUS
 62
     3
 10
43.691943715171128
 20
-168.6638777516614
 30
0.0
 11
43.691943715171128
 21
-161.3826042181806
 31
0.0
  0
LINE
  5
1BBF8
  8
SU
  6
CONTINUOUS
 62
     3
 10
43.891943715171116
 20
-168.78387775166141
 30
0.0
 11
43.891943715171116
 21
-161.26260421818071
 31
0.0
  0
LINE
  5
1BBF9
  8
SU
  6
CONTINUOUS
 62
     3
 10
44.091943715171148
 20
-168.90387775166141
 30
0.0
 11
44.091943715171148
 21
-161.14260421818079
 31
0.0
  0
LINE
  5
1BBFA
  8
SU
  6
CONTINUOUS
 62
     3
 10
44.291943715171129
 20
-169.02387775166139
 30
0.0
 11
44.291943715171129
 21
-161.02260421818079
 31
0.0
  0
LINE
  5
1BBFB
  8
SU
  6
CONTINUOUS
 62
     3
 10
44.491943715171111
 20
-169.14387775166159
 30
0.0
 11
44.491943715171111
 21
-160.90260421818081
 31
0.0
  0
LINE
  5
1BBFC
  8
SU
  6
CONTINUOUS
 62
     3
 10
44.691943715171128
 20
-169.2638777516616
 30
0.0
 11
44.691943715171128
 21
-160.78260421818081
 31
0.0
  0
LINE
  5
1BBFD
  8
SU
  6
CONTINUOUS
 62
     3
 10
44.891943715171138
 20
-169.3838777516614
 30
0.0
 11
44.891943715171138
 21
-160.6626042181808
 31
0.0
  0
LINE
  5
1BBFE
  8
SU
  6
CONTINUOUS
 62
     3
 10
45.091943715171134
 20
-169.50387775166141
 30
0.0
 11
45.091943715171134
 21
-160.5426042181808
 31
0.0
  0
LINE
  5
1BBFF
  8
SU
  6
CONTINUOUS
 62
     3
 10
45.291943715171129
 20
-169.62387775166141
 30
0.0
 11
45.291943715171129
 21
-160.42260421818079
 31
0.0
  0
LINE
  5
1BC00
  8
SU
  6
CONTINUOUS
 62
     3
 10
45.491943715171132
 20
-169.7438777516615
 30
0.0
 11
45.491943715171132
 21
-160.30260421818079
 31
0.0
  0
LINE
  5
1BC01
  8
SU
  6
CONTINUOUS
 62
     3
 10
45.691943715171128
 20
-169.86387775166151
 30
0.0
 11
45.691943715171128
 21
-160.18260421818081
 31
0.0
  0
LINE
  5
1BC02
  8
SU
  6
CONTINUOUS
 62
     3
 10
45.891943715171131
 20
-169.98387775166151
 30
0.0
 11
45.891943715171131
 21
-160.06260421818081
 31
0.0
  0
LINE
  5
1BC03
  8
SU
  6
CONTINUOUS
 62
     3
 10
46.091943715171134
 20
-170.1038777516616
 30
0.0
 11
46.091943715171134
 21
-159.9426042181808
 31
0.0
  0
LINE
  5
1BC04
  8
SU
  6
CONTINUOUS
 62
     3
 10
46.291943715171129
 20
-170.22387775166141
 30
0.0
 11
46.291943715171129
 21
-159.82260421818049
 31
0.0
  0
LINE
  5
1BC05
  8
SU
  6
CONTINUOUS
 62
     3
 10
46.491943715171097
 20
-170.34387775166141
 30
0.0
 11
46.491943715171097
 21
-159.70260421818071
 31
0.0
  0
LINE
  5
1BC06
  8
SU
  6
CONTINUOUS
 62
     3
 10
46.691943715171142
 20
-170.46387775166141
 30
0.0
 11
46.691943715171142
 21
-159.58260421818079
 31
0.0
  0
LINE
  5
1BC07
  8
SU
  6
CONTINUOUS
 62
     3
 10
46.891943715171131
 20
-170.5838777516615
 30
0.0
 11
46.891943715171131
 21
-159.4626042181809
 31
0.0
  0
LINE
  5
1BC08
  8
SU
  6
CONTINUOUS
 62
     3
 10
47.091943715171134
 20
-170.70387775166159
 30
0.0
 11
47.091943715171134
 21
-159.34260421818081
 31
0.0
  0
LINE
  5
1BC09
  8
SU
  6
CONTINUOUS
 62
     3
 10
47.291943715171129
 20
-170.8238777516616
 30
0.0
 11
47.291943715171129
 21
-159.22260421818081
 31
0.0
  0
LINE
  5
1BC0A
  8
SU
  6
CONTINUOUS
 62
     3
 10
47.491943715171118
 20
-170.9438777516614
 30
0.0
 11
47.491943715171118
 21
-159.1026042181808
 31
0.0
  0
TEXT
  5
1BC0B
  8
SU
  6
CONTINUOUS
 62
     3
 10
272.383263381858
 20
-148.72324098492101
 30
0.0
 40
4.0
  1
24
 41
0.8299999999999999
  0
LINE
  5
1BC0C
  8
SU
  6
CONTINUOUS
 62
     3
 10
277.75648782603668
 20
-170.9438777516614
 30
0.0
 11
277.75648782603668
 21
-159.1026042181808
 31
0.0
  0
LINE
  5
1BC0D
  8
SU
  6
CONTINUOUS
 62
     3
 10
277.95648782603672
 20
-170.8238777516616
 30
0.0
 11
277.95648782603672
 21
-159.22260421818081
 31
0.0
  0
LINE
  5
1BC0E
  8
SU
  6
CONTINUOUS
 62
     3
 10
278.15648782603671
 20
-170.70387775166159
 30
0.0
 11
278.15648782603671
 21
-159.34260421818081
 31
0.0
  0
LINE
  5
1BC0F
  8
SU
  6
CONTINUOUS
 62
     3
 10
278.3564878260367
 20
-170.5838777516615
 30
0.0
 11
278.3564878260367
 21
-159.4626042181809
 31
0.0
  0
LINE
  5
1BC10
  8
SU
  6
CONTINUOUS
 62
     3
 10
278.55648782603669
 20
-170.46387775166141
 30
0.0
 11
278.55648782603669
 21
-159.5826042181809
 31
0.0
  0
LINE
  5
1BC11
  8
SU
  6
CONTINUOUS
 62
     3
 10
278.75648782603662
 20
-170.34387775166141
 30
0.0
 11
278.75648782603662
 21
-159.70260421818091
 31
0.0
  0
LINE
  5
1BC12
  8
SU
  6
CONTINUOUS
 62
     3
 10
278.95648782603672
 20
-170.22387775166141
 30
0.0
 11
278.95648782603672
 21
-159.82260421818091
 31
0.0
  0
LINE
  5
1BC13
  8
SU
  6
CONTINUOUS
 62
     3
 10
279.15648782603671
 20
-170.1038777516616
 30
0.0
 11
279.15648782603671
 21
-159.9426042181808
 31
0.0
  0
LINE
  5
1BC14
  8
SU
  6
CONTINUOUS
 62
     3
 10
279.3564878260367
 20
-169.98387775166151
 30
0.0
 11
279.3564878260367
 21
-160.06260421818081
 31
0.0
  0
LINE
  5
1BC15
  8
SU
  6
CONTINUOUS
 62
     3
 10
279.5564878260364
 20
-169.86387775166151
 30
0.0
 11
279.5564878260364
 21
-160.18260421818081
 31
0.0
  0
LINE
  5
1BC16
  8
SU
  6
CONTINUOUS
 62
     3
 10
279.75648782603662
 20
-169.7438777516615
 30
0.0
 11
279.75648782603662
 21
-160.30260421818079
 31
0.0
  0
LINE
  5
1BC17
  8
SU
  6
CONTINUOUS
 62
     3
 10
279.95648782603672
 20
-169.62387775166141
 30
0.0
 11
279.95648782603672
 21
-160.42260421818079
 31
0.0
  0
LINE
  5
1BC18
  8
SU
  6
CONTINUOUS
 62
     3
 10
280.1564878260366
 20
-169.50387775166141
 30
0.0
 11
280.1564878260366
 21
-160.5426042181808
 31
0.0
  0
LINE
  5
1BC19
  8
SU
  6
CONTINUOUS
 62
     3
 10
280.35648782603653
 20
-169.3838777516614
 30
0.0
 11
280.35648782603653
 21
-160.6626042181808
 31
0.0
  0
LINE
  5
1BC1A
  8
SU
  6
CONTINUOUS
 62
     3
 10
280.55648782603669
 20
-169.2638777516616
 30
0.0
 11
280.55648782603669
 21
-160.78260421818081
 31
0.0
  0
LINE
  5
1BC1B
  8
SU
  6
CONTINUOUS
 62
     3
 10
280.75648782603662
 20
-169.14387775166159
 30
0.0
 11
280.75648782603662
 21
-160.9026042181809
 31
0.0
  0
LINE
  5
1BC1C
  8
SU
  6
CONTINUOUS
 62
     3
 10
280.95648782603672
 20
-169.02387775166139
 30
0.0
 11
280.95648782603672
 21
-161.0226042181809
 31
0.0
  0
LINE
  5
1BC1D
  8
SU
  6
CONTINUOUS
 62
     3
 10
281.15648782603671
 20
-168.90387775166141
 30
0.0
 11
281.15648782603671
 21
-161.14260421818091
 31
0.0
  0
LINE
  5
1BC1E
  8
SU
  6
CONTINUOUS
 62
     3
 10
281.3564878260367
 20
-168.78387775166141
 30
0.0
 11
281.3564878260367
 21
-161.26260421818091
 31
0.0
  0
LINE
  5
1BC1F
  8
SU
  6
CONTINUOUS
 62
     3
 10
281.55648782603652
 20
-168.6638777516614
 30
0.0
 11
281.55648782603652
 21
-161.3826042181806
 31
0.0
  0
LINE
  5
1BC20
  8
SU
  6
CONTINUOUS
 62
     3
 10
281.75648782603662
 20
-168.54387775166151
 30
0.0
 11
281.75648782603662
 21
-161.50260421818081
 31
0.0
  0
LINE
  5
1BC21
  8
SU
  6
CONTINUOUS
 62
     3
 10
281.95648782603672
 20
-168.42387775166151
 30
0.0
 11
281.95648782603672
 21
-161.6226042181809
 31
0.0
  0
LINE
  5
1BC22
  8
SU
  6
CONTINUOUS
 62
     3
 10
282.15648782603671
 20
-168.3038777516615
 30
0.0
 11
282.15648782603671
 21
-161.7426042181809
 31
0.0
  0
LINE
  5
1BC23
  8
SU
  6
CONTINUOUS
 62
     3
 10
282.35648782603641
 20
-168.1838777516615
 30
0.0
 11
282.35648782603641
 21
-161.86260421818091
 31
0.0
  0
LINE
  5
1BC24
  8
SU
  6
CONTINUOUS
 62
     3
 10
282.55648782603669
 20
-168.06387775166141
 30
0.0
 11
282.55648782603669
 21
-161.98260421818091
 31
0.0
  0
LINE
  5
1BC25
  8
SU
  6
CONTINUOUS
 62
     3
 10
282.75648782603662
 20
-167.9438777516612
 30
0.0
 11
282.75648782603662
 21
-162.1026042181808
 31
0.0
  0
LINE
  5
1BC26
  8
SU
  6
CONTINUOUS
 62
     3
 10
282.95648782603672
 20
-167.8238777516616
 30
0.0
 11
282.95648782603672
 21
-162.22260421818049
 31
0.0
  0
LINE
  5
1BC27
  8
SU
  6
CONTINUOUS
 62
     3
 10
283.15648782603671
 20
-167.70387775166159
 30
0.0
 11
283.15648782603671
 21
-162.34260421818081
 31
0.0
  0
LINE
  5
1BC28
  8
SU
  6
CONTINUOUS
 62
     3
 10
283.35648782603641
 20
-167.5838777516615
 30
0.0
 11
283.35648782603641
 21
-162.4626042181809
 31
0.0
  0
LINE
  5
1BC29
  8
SU
  6
CONTINUOUS
 62
     3
 10
283.55648782603652
 20
-167.46387775166141
 30
0.0
 11
283.55648782603652
 21
-162.5826042181809
 31
0.0
  0
LINE
  5
1BC2A
  8
SU
  6
CONTINUOUS
 62
     3
 10
283.75648782603662
 20
-167.34387775166141
 30
0.0
 11
283.75648782603662
 21
-162.70260421818091
 31
0.0
  0
LINE
  5
1BC2B
  8
SU
  6
CONTINUOUS
 62
     3
 10
283.95648782603672
 20
-167.22387775166141
 30
0.0
 11
283.95648782603672
 21
-162.82260421818091
 31
0.0
  0
LINE
  5
1BC2C
  8
SU
  6
CONTINUOUS
 62
     3
 10
284.15648782603671
 20
-167.10387775166151
 30
0.0
 11
284.15648782603671
 21
-162.9426042181808
 31
0.0
  0
LINE
  5
1BC2D
  8
SU
  6
CONTINUOUS
 62
     3
 10
284.35648782603658
 20
-166.98387775166151
 30
0.0
 11
284.35648782603658
 21
-163.06260421818081
 31
0.0
  0
LINE
  5
1BC2E
  8
SU
  6
CONTINUOUS
 62
     3
 10
284.55648782603669
 20
-166.86387775166159
 30
0.0
 11
284.55648782603669
 21
-163.18260421818081
 31
0.0
  0
LINE
  5
1BC2F
  8
SU
  6
CONTINUOUS
 62
     3
 10
284.75648782603662
 20
-166.7438777516615
 30
0.0
 11
284.75648782603662
 21
-163.30260421818079
 31
0.0
  0
LINE
  5
1BC30
  8
SU
  6
CONTINUOUS
 62
     3
 10
284.95648782603661
 20
-166.62387775166141
 30
0.0
 11
284.95648782603661
 21
-163.42260421818079
 31
0.0
  0
LINE
  5
1BC31
  8
SU
  6
CONTINUOUS
 62
     3
 10
285.15648782603671
 20
-166.50387775166121
 30
0.0
 11
285.15648782603671
 21
-163.5426042181808
 31
0.0
  0
LINE
  5
1BC32
  8
SU
  6
CONTINUOUS
 62
     3
 10
285.3564878260367
 20
-166.3838777516616
 30
0.0
 11
285.3564878260367
 21
-163.6626042181806
 31
0.0
  0
LINE
  5
1BC33
  8
SU
  6
CONTINUOUS
 62
     3
 10
285.55648782603652
 20
-166.26387775166151
 30
0.0
 11
285.55648782603652
 21
-163.78260421818081
 31
0.0
  0
LINE
  5
1BC34
  8
SU
  6
CONTINUOUS
 62
     3
 10
285.75648782603662
 20
-166.14387775166151
 30
0.0
 11
285.75648782603662
 21
-163.9026042181809
 31
0.0
  0
LINE
  5
1BC35
  8
SU
  6
CONTINUOUS
 62
     3
 10
285.95648782603672
 20
-166.0238777516615
 30
0.0
 11
285.95648782603672
 21
-164.0226042181809
 31
0.0
  0
LINE
  5
1BC36
  8
SU
  6
CONTINUOUS
 62
     3
 10
286.15648782603671
 20
-165.9038777516615
 30
0.0
 11
286.15648782603671
 21
-164.14260421818091
 31
0.0
  0
LINE
  5
1BC37
  8
SU
  6
CONTINUOUS
 62
     3
 10
286.35648782603641
 20
-165.78387775166141
 30
0.0
 11
286.35648782603641
 21
-164.26260421818091
 31
0.0
  0
LINE
  5
1BC38
  8
SU
  6
CONTINUOUS
 62
     3
 10
286.55648782603669
 20
-165.6638777516612
 30
0.0
 11
286.55648782603669
 21
-164.3826042181808
 31
0.0
  0
LINE
  5
1BC39
  8
SU
  6
CONTINUOUS
 62
     3
 10
286.75648782603662
 20
-165.54387775166151
 30
0.0
 11
286.75648782603662
 21
-164.50260421818081
 31
0.0
  0
LINE
  5
1BC3A
  8
SU
  6
CONTINUOUS
 62
     3
 10
286.95648782603672
 20
-165.42387775166151
 30
0.0
 11
286.95648782603672
 21
-164.62260421818081
 31
0.0
  0
LINE
  5
1BC3B
  8
SU
  6
CONTINUOUS
 62
     3
 10
287.15648782603671
 20
-165.3038777516615
 30
0.0
 11
287.15648782603671
 21
-164.74260421818079
 31
0.0
  0
LINE
  5
1BC3C
  8
SU
  6
CONTINUOUS
 62
     3
 10
287.3564878260367
 20
-165.1838777516615
 30
0.0
 11
287.3564878260367
 21
-164.86260421818091
 31
0.0
  0
LINE
  5
1BC3D
  8
SU
  6
CONTINUOUS
 62
     3
 10
287.55648782603657
 20
-165.06387775166141
 30
0.0
 11
287.55648782603657
 21
-164.98260421818091
 31
0.0
  0
ARC
  5
1BC3E
  8
SU
  6
CONTINUOUS
 62
     3
 10
287.624215770604
 20
-150.0232409849211
 30
0.0
 40
0.3000000000000114
 50
180.0
 51
0.0
  0
ARC
  5
1BC3F
  8
SU
  6
CONTINUOUS
 62
     3
 10
287.624215770604
 20
-150.0232409849211
 30
0.0
 40
0.3000000000000114
 50
0.0
 51
180.0
  0
ARC
  5
1BC40
  8
SU
  6
CONTINUOUS
 62
     3
 10
37.624215770603747
 20
-150.0232409849211
 30
0.0
 40
0.2999999999999971
 50
0.0
 51
180.0
  0
ARC
  5
1BC41
  8
SU
  6
CONTINUOUS
 62
     3
 10
37.624215770603747
 20
-150.0232409849211
 30
0.0
 40
0.2999999999999971
 50
180.0
 51
0.0
  0
ARC
  5
1BC42
  8
SU
  6
CONTINUOUS
 62
     3
 10
65.624215786190689
 20
-150.0232409849211
 30
0.0
 40
0.2999999999999971
 50
180.0
 51
0.0
  0
ARC
  5
1BC43
  8
SU
  6
CONTINUOUS
 62
     3
 10
65.624215786190689
 20
-150.0232409849211
 30
0.0
 40
0.2999999999999971
 50
0.0
 51
180.0
  0
ARC
  5
1BC44
  8
SU
  6
CONTINUOUS
 62
     3
 10
61.624215770603811
 20
-150.0232409849211
 30
0.0
 40
0.2999999999999971
 50
0.0
 51
180.0
  0
ARC
  5
1BC45
  8
SU
  6
CONTINUOUS
 62
     3
 10
61.624215770603811
 20
-150.0232409849211
 30
0.0
 40
0.2999999999999971
 50
180.0
 51
0.0
  0
ARC
  5
1BC46
  8
SU
  6
CONTINUOUS
 62
     3
 10
259.62421575501702
 20
-150.0232409849211
 30
0.0
 40
0.3000000000000114
 50
180.0
 51
0.0
  0
ARC
  5
1BC47
  8
SU
  6
CONTINUOUS
 62
     3
 10
259.62421575501702
 20
-150.0232409849211
 30
0.0
 40
0.3000000000000114
 50
0.0
 51
180.0
  0
ARC
  5
1BC48
  8
SU
  6
CONTINUOUS
 62
     3
 10
65.624215786190916
 20
-150.0232409849211
 30
0.0
 40
0.2999999999999971
 50
0.0
 51
180.0
  0
ARC
  5
1BC49
  8
SU
  6
CONTINUOUS
 62
     3
 10
65.624215786190916
 20
-150.0232409849211
 30
0.0
 40
0.2999999999999971
 50
180.0
 51
0.0
  0
ARC
  5
1BC4A
  8
SU
  6
CONTINUOUS
 62
     3
 10
259.62421575501702
 20
-150.0232409849211
 30
0.0
 40
0.3000000000000114
 50
0.0
 51
180.0
  0
ARC
  5
1BC4B
  8
SU
  6
CONTINUOUS
 62
     3
 10
259.62421575501702
 20
-150.0232409849211
 30
0.0
 40
0.3000000000000114
 50
180.0
 51
0.0
  0
ARC
  5
1BC4C
  8
SU
  6
CONTINUOUS
 62
     3
 10
263.62421577060388
 20
-150.0232409849211
 30
0.0
 40
0.3000000000000114
 50
180.0
 51
0.0
  0
ARC
  5
1BC4D
  8
SU
  6
CONTINUOUS
 62
     3
 10
263.62421577060388
 20
-150.0232409849211
 30
0.0
 40
0.3000000000000114
 50
0.0
 51
180.0
  0
ARC
  5
1BC4E
  8
SU
  6
CONTINUOUS
 62
     3
 10
101.6242157861904
 20
21.476759015062701
 30
0.0
 40
0.3000000000000007
 50
270.0
 51
90.0
  0
ARC
  5
1BC4F
  8
SU
  6
CONTINUOUS
 62
     3
 10
101.6242157861904
 20
21.476759015062701
 30
0.0
 40
0.3000000000000007
 50
90.0
 51
270.0
  0
ARC
  5
1BC50
  8
SU
  6
CONTINUOUS
 62
     3
 10
81.624215770603968
 20
63.976764745842438
 30
0.0
 40
0.2999999999999971
 50
180.0
 51
0.0
  0
ARC
  5
1BC51
  8
SU
  6
CONTINUOUS
 62
     3
 10
81.624215770603968
 20
63.976764745842438
 30
0.0
 40
0.2999999999999971
 50
0.0
 51
180.0
  0
ARC
  5
1BC52
  8
SU
  6
CONTINUOUS
 62
     3
 10
263.62421577060348
 20
63.976764745842438
 30
0.0
 40
0.3000000000000114
 50
180.0
 51
0.0
  0
ARC
  5
1BC53
  8
SU
  6
CONTINUOUS
 62
     3
 10
263.62421577060348
 20
63.976764745842438
 30
0.0
 40
0.3000000000000114
 50
0.0
 51
180.0
  0
ARC
  5
1BC54
  8
SU
  6
CONTINUOUS
 62
     3
 10
243.6242157706036
 20
63.976764745842438
 30
0.0
 40
0.3000000000000114
 50
0.0
 51
180.0
  0
ARC
  5
1BC55
  8
SU
  6
CONTINUOUS
 62
     3
 10
243.6242157706036
 20
63.976764745842438
 30
0.0
 40
0.3000000000000114
 50
180.0
 51
0.0
  0
ARC
  5
1BC56
  8
SU
  6
CONTINUOUS
 62
     3
 10
101.6242157706039
 20
-44.023239272473901
 30
0.0
 40
0.2999999999999971
 50
90.0
 51
270.0
  0
ARC
  5
1BC57
  8
SU
  6
CONTINUOUS
 62
     3
 10
101.6242157706039
 20
-44.023239272473901
 30
0.0
 40
0.2999999999999971
 50
270.0
 51
90.0
  0
ARC
  5
1BC58
  8
SU
  6
CONTINUOUS
 62
     3
 10
101.6242157706039
 20
-33.023239272473909
 30
0.0
 40
0.2999999999999971
 50
270.0
 51
90.0
  0
ARC
  5
1BC59
  8
SU
  6
CONTINUOUS
 62
     3
 10
101.6242157706039
 20
-33.023239272473909
 30
0.0
 40
0.2999999999999971
 50
90.0
 51
270.0
  0
ARC
  5
1BC5A
  8
SU
  6
CONTINUOUS
 62
     3
 10
101.6242157706039
 20
-84.023240984919894
 30
0.0
 40
0.2999999999999971
 50
90.0
 51
270.0
  0
ARC
  5
1BC5B
  8
SU
  6
CONTINUOUS
 62
     3
 10
101.6242157706039
 20
-84.023240984919894
 30
0.0
 40
0.2999999999999971
 50
270.0
 51
90.0
  0
ARC
  5
1BC5C
  8
SU
  6
CONTINUOUS
 62
     3
 10
101.6242157706039
 20
-84.023240984919894
 30
0.0
 40
0.2999999999999971
 50
270.0
 51
90.0
  0
ARC
  5
1BC5D
  8
SU
  6
CONTINUOUS
 62
     3
 10
101.6242157706039
 20
-84.023240984919894
 30
0.0
 40
0.2999999999999971
 50
90.0
 51
270.0
  0
ARC
  5
1BC5E
  8
SU
  6
CONTINUOUS
 62
     3
 10
101.6242157706039
 20
-91.523240984936066
 30
0.0
 40
0.2999999999999971
 50
90.0
 51
270.0
  0
ARC
  5
1BC5F
  8
SU
  6
CONTINUOUS
 62
     3
 10
101.6242157706039
 20
-91.523240984936066
 30
0.0
 40
0.2999999999999971
 50
270.0
 51
90.0
  0
ARC
  5
1BC60
  8
SU
  6
CONTINUOUS
 62
     3
 10
101.6242157706039
 20
-9.0232417468720385
 30
0.0
 40
0.3000000000000007
 50
270.0
 51
90.0
  0
ARC
  5
1BC61
  8
SU
  6
CONTINUOUS
 62
     3
 10
101.6242157706039
 20
-9.0232417468720385
 30
0.0
 40
0.3000000000000007
 50
90.0
 51
270.0
  0
ARC
  5
1BC62
  8
SU
  6
CONTINUOUS
 62
     3
 10
115.62421823471961
 20
21.476759015062701
 30
0.0
 40
0.3000000000000007
 50
270.0
 51
90.0
  0
ARC
  5
1BC63
  8
SU
  6
CONTINUOUS
 62
     3
 10
115.62421823471961
 20
21.476759015062701
 30
0.0
 40
0.3000000000000007
 50
90.0
 51
270.0
  0
ARC
  5
1BC64
  8
SU
  6
CONTINUOUS
 62
     3
 10
115.62421823471961
 20
-91.523240984936066
 30
0.0
 40
0.2999999999999971
 50
90.0
 51
270.0
  0
ARC
  5
1BC65
  8
SU
  6
CONTINUOUS
 62
     3
 10
115.62421823471961
 20
-91.523240984936066
 30
0.0
 40
0.2999999999999971
 50
270.0
 51
90.0
  0
ARC
  5
1BC66
  8
SU
  6
CONTINUOUS
 62
     3
 10
-348.7853391039846
 20
140.23902199813111
 30
0.0
 40
0.3000000000000114
 50
270.0
 51
90.0
  0
ARC
  5
1BC67
  8
SU
  6
CONTINUOUS
 62
     3
 10
-348.7853391039846
 20
140.23902199813111
 30
0.0
 40
0.3000000000000114
 50
90.0
 51
270.0
  0
ARC
  5
1BC68
  8
SU
  6
CONTINUOUS
 62
     3
 10
-348.78533910398471
 20
120.2389894774691
 30
0.0
 40
0.2999999999999971
 50
90.0
 51
270.0
  0
ARC
  5
1BC69
  8
SU
  6
CONTINUOUS
 62
     3
 10
-348.78533910398471
 20
120.2389894774691
 30
0.0
 40
0.2999999999999971
 50
270.0
 51
90.0
  0
ARC
  5
1BC6A
  8
SU
  6
CONTINUOUS
 62
     3
 10
-200.78533751785011
 20
98.739021998133126
 30
0.0
 40
0.3000000000000114
 50
0.0
 51
180.0
  0
ARC
  5
1BC6B
  8
SU
  6
CONTINUOUS
 62
     3
 10
-200.78533751785011
 20
98.739021998133126
 30
0.0
 40
0.3000000000000114
 50
180.0
 51
0.0
  0
ARC
  5
1BC6C
  8
SU
  6
CONTINUOUS
 62
     3
 10
-193.2853391040853
 20
98.739021998133126
 30
0.0
 40
0.3000000000000114
 50
180.0
 51
0.0
  0
ARC
  5
1BC6D
  8
SU
  6
CONTINUOUS
 62
     3
 10
-193.2853391040853
 20
98.739021998133126
 30
0.0
 40
0.3000000000000114
 50
0.0
 51
180.0
  0
ARC
  5
1BC6E
  8
SU
  6
CONTINUOUS
 62
     3
 10
-200.78533751785011
 20
98.739021998133126
 30
0.0
 40
0.3000000000000114
 50
180.0
 51
0.0
  0
ARC
  5
1BC6F
  8
SU
  6
CONTINUOUS
 62
     3
 10
-200.78533751785011
 20
98.739021998133126
 30
0.0
 40
0.3000000000000114
 50
0.0
 51
180.0
  0
ARC
  5
1BC70
  8
SU
  6
CONTINUOUS
 62
     3
 10
-240.78533922636319
 20
98.739021998133126
 30
0.0
 40
0.3000000000000114
 50
0.0
 51
180.0
  0
ARC
  5
1BC71
  8
SU
  6
CONTINUOUS
 62
     3
 10
-240.78533922636319
 20
98.739021998133126
 30
0.0
 40
0.3000000000000114
 50
180.0
 51
0.0
  0
ARC
  5
1BC72
  8
SU
  6
CONTINUOUS
 62
     3
 10
-275.7853367522161
 20
98.739021998133126
 30
0.0
 40
0.3000000000000114
 50
180.0
 51
0.0
  0
ARC
  5
1BC73
  8
SU
  6
CONTINUOUS
 62
     3
 10
-275.7853367522161
 20
98.739021998133126
 30
0.0
 40
0.3000000000000114
 50
0.0
 51
180.0
  0
ARC
  5
1BC74
  8
SU
  6
CONTINUOUS
 62
     3
 10
-306.28533910398443
 20
98.739021998133126
 30
0.0
 40
0.3000000000000114
 50
0.0
 51
180.0
  0
ARC
  5
1BC75
  8
SU
  6
CONTINUOUS
 62
     3
 10
-306.28533910398443
 20
98.739021998133126
 30
0.0
 40
0.3000000000000114
 50
180.0
 51
0.0
  0
ARC
  5
1BC76
  8
SU
  6
CONTINUOUS
 62
     3
 10
-193.2853391040853
 20
83.739021998132586
 30
0.0
 40
0.3000000000000114
 50
180.0
 51
0.0
  0
ARC
  5
1BC77
  8
SU
  6
CONTINUOUS
 62
     3
 10
-193.2853391040853
 20
83.739021998132586
 30
0.0
 40
0.3000000000000114
 50
0.0
 51
180.0
  0
ARC
  5
1BC78
  8
SU
  6
CONTINUOUS
 62
     3
 10
-306.28533910398443
 20
83.739021998132586
 30
0.0
 40
0.3000000000000114
 50
0.0
 51
180.0
  0
ARC
  5
1BC79
  8
SU
  6
CONTINUOUS
 62
     3
 10
-306.28533910398443
 20
83.739021998132586
 30
0.0
 40
0.3000000000000114
 50
180.0
 51
0.0
  0
ARC
  5
1BC7A
  8
SU
  6
CONTINUOUS
 62
     3
 10
-240.78533922636319
 20
98.739021998133239
 30
0.0
 40
0.3000000000000114
 50
180.0
 51
0.0
  0
ARC
  5
1BC7B
  8
SU
  6
CONTINUOUS
 62
     3
 10
-240.78533922636319
 20
98.739021998133239
 30
0.0
 40
0.3000000000000114
 50
0.0
 51
180.0
  0
ARC
  5
1BC7C
  8
SU
  6
CONTINUOUS
 62
     3
 10
-251.78533922661461
 20
98.739021998133239
 30
0.0
 40
0.3000000000000114
 50
0.0
 51
180.0
  0
ARC
  5
1BC7D
  8
SU
  6
CONTINUOUS
 62
     3
 10
-251.78533922661461
 20
98.739021998133239
 30
0.0
 40
0.3000000000000114
 50
180.0
 51
0.0
  0
ARC
  5
1BC7E
  8
SU
  6
CONTINUOUS
 62
     3
 10
-251.78533922661461
 20
98.739021998133424
 30
0.0
 40
0.3000000000000114
 50
180.0
 51
0.0
  0
ARC
  5
1BC7F
  8
SU
  6
CONTINUOUS
 62
     3
 10
-251.78533922661461
 20
98.739021998133424
 30
0.0
 40
0.3000000000000114
 50
0.0
 51
180.0
  0
ARC
  5
1BC80
  8
SU
  6
CONTINUOUS
 62
     3
 10
-275.7853367522161
 20
98.739021998133424
 30
0.0
 40
0.3000000000000114
 50
0.0
 51
180.0
  0
ARC
  5
1BC81
  8
SU
  6
CONTINUOUS
 62
     3
 10
-275.7853367522161
 20
98.739021998133424
 30
0.0
 40
0.3000000000000114
 50
180.0
 51
0.0
  0
ARC
  5
1BC82
  8
SU
  6
CONTINUOUS
 62
     3
 10
-135.78533910398301
 20
137.23898947746881
 30
0.0
 40
0.3000000000000114
 50
90.0
 51
270.0
  0
ARC
  5
1BC83
  8
SU
  6
CONTINUOUS
 62
     3
 10
-135.78533910398301
 20
137.23898947746881
 30
0.0
 40
0.3000000000000114
 50
270.0
 51
90.0
  0
ARC
  5
1BC84
  8
SU
  6
CONTINUOUS
 62
     3
 10
-135.78533910398301
 20
140.23902199813151
 30
0.0
 40
0.3000000000000114
 50
270.0
 51
90.0
  0
ARC
  5
1BC85
  8
SU
  6
CONTINUOUS
 62
     3
 10
-135.78533910398301
 20
140.23902199813151
 30
0.0
 40
0.3000000000000114
 50
90.0
 51
270.0
  0
ARC
  5
1BC86
  8
SU
  6
CONTINUOUS
 62
     3
 10
-135.78533910398301
 20
140.23902199813151
 30
0.0
 40
0.3000000000000114
 50
90.0
 51
270.0
  0
ARC
  5
1BC87
  8
SU
  6
CONTINUOUS
 62
     3
 10
-135.78533910398301
 20
140.23902199813151
 30
0.0
 40
0.3000000000000114
 50
270.0
 51
90.0
  0
ARC
  5
1BC88
  8
SU
  6
CONTINUOUS
 62
     3
 10
-135.78533910398301
 20
164.23902199813151
 30
0.0
 40
0.3000000000000114
 50
270.0
 51
90.0
  0
ARC
  5
1BC89
  8
SU
  6
CONTINUOUS
 62
     3
 10
-135.78533910398301
 20
164.23902199813151
 30
0.0
 40
0.3000000000000114
 50
90.0
 51
270.0
  0
ARC
  5
1BC8A
  8
SU
  6
CONTINUOUS
 62
     3
 10
-135.78533910397911
 20
-66.257134672280699
 30
0.0
 40
0.2999999999999971
 50
90.0
 51
270.0
  0
ARC
  5
1BC8B
  8
SU
  6
CONTINUOUS
 62
     3
 10
-135.78533910397911
 20
-66.257134672280699
 30
0.0
 40
0.2999999999999971
 50
270.0
 51
90.0
  0
ARC
  5
1BC8C
  8
SU
  6
CONTINUOUS
 62
     3
 10
-135.78533910398301
 20
-51.25713184439703
 30
0.0
 40
0.2999999999999971
 50
90.0
 51
270.0
  0
ARC
  5
1BC8D
  8
SU
  6
CONTINUOUS
 62
     3
 10
-135.78533910398301
 20
-51.25713184439703
 30
0.0
 40
0.2999999999999971
 50
270.0
 51
90.0
  0
ARC
  5
1BC8E
  8
SU
  6
CONTINUOUS
 62
     3
 10
-194.78533922661481
 20
-86.257134672288302
 30
0.0
 40
0.3000000000000114
 50
180.0
 51
0.0
  0
ARC
  5
1BC8F
  8
SU
  6
CONTINUOUS
 62
     3
 10
-194.78533922661481
 20
-86.257134672288302
 30
0.0
 40
0.3000000000000114
 50
0.0
 51
180.0
  0
ARC
  5
1BC90
  8
SU
  6
CONTINUOUS
 62
     3
 10
-193.28533910408521
 20
-86.257134672288302
 30
0.0
 40
0.3000000000000114
 50
0.0
 51
180.0
  0
ARC
  5
1BC91
  8
SU
  6
CONTINUOUS
 62
     3
 10
-193.28533910408521
 20
-86.257134672288302
 30
0.0
 40
0.3000000000000114
 50
180.0
 51
0.0
  0
ARC
  5
1BC92
  8
SU
  6
CONTINUOUS
 62
     3
 10
-135.78533910398301
 20
-206.08455641742711
 30
0.0
 40
0.3000000000000114
 50
90.0
 51
270.0
  0
ARC
  5
1BC93
  8
SU
  6
CONTINUOUS
 62
     3
 10
-135.78533910398301
 20
-206.08455641742711
 30
0.0
 40
0.3000000000000114
 50
270.0
 51
90.0
  0
ARC
  5
1BC94
  8
SU
  6
CONTINUOUS
 62
     3
 10
-120.7853391039843
 20
-218.08455641742711
 30
0.0
 40
0.3000000000000114
 50
90.0
 51
270.0
  0
ARC
  5
1BC95
  8
SU
  6
CONTINUOUS
 62
     3
 10
-120.7853391039843
 20
-218.08455641742711
 30
0.0
 40
0.3000000000000114
 50
270.0
 51
90.0
  0
ARC
  5
1BC96
  8
SU
  6
CONTINUOUS
 62
     3
 10
-135.78533910398261
 20
-198.08455641742719
 30
0.0
 40
0.3000000000000114
 50
90.0
 51
270.0
  0
ARC
  5
1BC97
  8
SU
  6
CONTINUOUS
 62
     3
 10
-135.78533910398261
 20
-198.08455641742719
 30
0.0
 40
0.3000000000000114
 50
270.0
 51
90.0
  0
ARC
  5
1BC98
  8
SU
  6
CONTINUOUS
 62
     3
 10
-348.78533910398471
 20
-51.257131844397527
 30
0.0
 40
0.2999999999999971
 50
90.0
 51
270.0
  0
ARC
  5
1BC99
  8
SU
  6
CONTINUOUS
 62
     3
 10
-348.78533910398471
 20
-51.257131844397527
 30
0.0
 40
0.2999999999999971
 50
270.0
 51
90.0
  0
ARC
  5
1BC9A
  8
SU
  6
CONTINUOUS
 62
     3
 10
-348.78533910398471
 20
-31.257131844397509
 30
0.0
 40
0.3000000000000007
 50
270.0
 51
90.0
  0
ARC
  5
1BC9B
  8
SU
  6
CONTINUOUS
 62
     3
 10
-348.78533910398471
 20
-31.257131844397509
 30
0.0
 40
0.3000000000000007
 50
90.0
 51
270.0
  0
ARC
  5
1BC9C
  8
SU
  6
CONTINUOUS
 62
     3
 10
-348.78533910398471
 20
-66.257134672283172
 30
0.0
 40
0.2999999999999971
 50
90.0
 51
270.0
  0
ARC
  5
1BC9D
  8
SU
  6
CONTINUOUS
 62
     3
 10
-348.78533910398471
 20
-66.257134672283172
 30
0.0
 40
0.2999999999999971
 50
270.0
 51
90.0
  0
ARC
  5
1BC9E
  8
SU
  6
CONTINUOUS
 62
     3
 10
-348.78533910398471
 20
-51.257131844397527
 30
0.0
 40
0.2999999999999971
 50
270.0
 51
90.0
  0
ARC
  5
1BC9F
  8
SU
  6
CONTINUOUS
 62
     3
 10
-348.78533910398471
 20
-51.257131844397527
 30
0.0
 40
0.2999999999999971
 50
90.0
 51
270.0
  0
ARC
  5
1BCA0
  8
SU
  6
CONTINUOUS
 62
     3
 10
-304.78533486696062
 20
-86.257134672291158
 30
0.0
 40
0.3000000000000114
 50
0.0
 51
180.0
  0
ARC
  5
1BCA1
  8
SU
  6
CONTINUOUS
 62
     3
 10
-304.78533486696062
 20
-86.257134672291158
 30
0.0
 40
0.3000000000000114
 50
180.0
 51
0.0
  0
ARC
  5
1BCA2
  8
SU
  6
CONTINUOUS
 62
     3
 10
-306.28533910398562
 20
-86.257134672291158
 30
0.0
 40
0.3000000000000114
 50
180.0
 51
0.0
  0
ARC
  5
1BCA3
  8
SU
  6
CONTINUOUS
 62
     3
 10
-306.28533910398562
 20
-86.257134672291158
 30
0.0
 40
0.3000000000000114
 50
0.0
 51
180.0
  0
ARC
  5
1BCA4
  8
SU
  6
CONTINUOUS
 62
     3
 10
-363.78533910398471
 20
-66.257134672283144
 30
0.0
 40
0.2999999999999971
 50
90.0
 51
270.0
  0
ARC
  5
1BCA5
  8
SU
  6
CONTINUOUS
 62
     3
 10
-363.78533910398471
 20
-66.257134672283144
 30
0.0
 40
0.2999999999999971
 50
270.0
 51
90.0
  0
ARC
  5
1BCA6
  8
SU
  6
CONTINUOUS
 62
     3
 10
-363.78533910398471
 20
-31.257131844397509
 30
0.0
 40
0.3000000000000007
 50
270.0
 51
90.0
  0
ARC
  5
1BCA7
  8
SU
  6
CONTINUOUS
 62
     3
 10
-363.78533910398471
 20
-31.257131844397509
 30
0.0
 40
0.3000000000000007
 50
90.0
 51
270.0
  0
ARC
  5
1BCA8
  8
SU
  6
CONTINUOUS
 62
     3
 10
-304.78533486696062
 20
-86.257134672288544
 30
0.0
 40
0.3000000000000114
 50
0.0
 51
180.0
  0
ARC
  5
1BCA9
  8
SU
  6
CONTINUOUS
 62
     3
 10
-304.78533486696062
 20
-86.257134672288544
 30
0.0
 40
0.3000000000000114
 50
180.0
 51
0.0
  0
ARC
  5
1BCAA
  8
SU
  6
CONTINUOUS
 62
     3
 10
-194.78533922661481
 20
-86.257134672288544
 30
0.0
 40
0.3000000000000114
 50
180.0
 51
0.0
  0
ARC
  5
1BCAB
  8
SU
  6
CONTINUOUS
 62
     3
 10
-194.78533922661481
 20
-86.257134672288544
 30
0.0
 40
0.3000000000000114
 50
0.0
 51
180.0
  0
ARC
  5
1BCAC
  8
SU
  6
CONTINUOUS
 62
     3
 10
-135.78533910398301
 20
-46.257131844397023
 30
0.0
 40
0.2999999999999971
 50
90.0
 51
270.0
  0
ARC
  5
1BCAD
  8
SU
  6
CONTINUOUS
 62
     3
 10
-135.78533910398301
 20
-46.257131844397023
 30
0.0
 40
0.2999999999999971
 50
270.0
 51
90.0
  0
ARC
  5
1BCAE
  8
SU
  6
CONTINUOUS
 62
     3
 10
263.6242157861895
 20
63.976764745842402
 30
0.0
 40
0.3000000000000114
 50
0.0
 51
180.0
  0
ARC
  5
1BCAF
  8
SU
  6
CONTINUOUS
 62
     3
 10
263.6242157861895
 20
63.976764745842402
 30
0.0
 40
0.3000000000000114
 50
180.0
 51
0.0
  0
ARC
  5
1BCB0
  8
SU
  6
CONTINUOUS
 62
     3
 10
272.6242157861895
 20
63.976764745842303
 30
0.0
 40
0.3000000000000114
 50
0.0
 51
180.0
  0
ARC
  5
1BCB1
  8
SU
  6
CONTINUOUS
 62
     3
 10
272.6242157861895
 20
63.976764745842303
 30
0.0
 40
0.3000000000000114
 50
180.0
 51
0.0
  0
ARC
  5
1BCB2
  8
SU
  6
CONTINUOUS
 62
     3
 10
296.62421578618978
 20
63.976764745842303
 30
0.0
 40
0.3000000000000114
 50
180.0
 51
0.0
  0
ARC
  5
1BCB3
  8
SU
  6
CONTINUOUS
 62
     3
 10
296.62421578618978
 20
63.976764745842303
 30
0.0
 40
0.3000000000000114
 50
0.0
 51
180.0
  0
ARC
  5
1BCB4
  8
SU
  6
CONTINUOUS
 62
     3
 10
-120.7853391039842
 20
173.23902199813151
 30
0.0
 40
0.3000000000000114
 50
270.0
 51
90.0
  0
ARC
  5
1BCB5
  8
SU
  6
CONTINUOUS
 62
     3
 10
-120.7853391039842
 20
173.23902199813151
 30
0.0
 40
0.3000000000000114
 50
90.0
 51
270.0
  0
ARC
  5
1BCB6
  8
SU
  6
CONTINUOUS
 62
     3
 10
-33.37578668100798
 20
29.976761399249249
 30
0.0
 40
0.3000000000000007
 50
270.0
 51
90.0
  0
ARC
  5
1BCB7
  8
SU
  6
CONTINUOUS
 62
     3
 10
-33.37578668100798
 20
29.976761399249249
 30
0.0
 40
0.3000000000000007
 50
90.0
 51
270.0
  0
ARC
  5
1BCB8
  8
SU
  6
CONTINUOUS
 62
     3
 10
-48.375786681008002
 20
29.976761399249249
 30
0.0
 40
0.3000000000000007
 50
90.0
 51
270.0
  0
ARC
  5
1BCB9
  8
SU
  6
CONTINUOUS
 62
     3
 10
-48.375786681008002
 20
29.976761399249249
 30
0.0
 40
0.3000000000000007
 50
270.0
 51
90.0
  0
ARC
  5
1BCBA
  8
SU
  6
CONTINUOUS
 62
     3
 10
-48.375786681008002
 20
43.976764745842473
 30
0.0
 40
0.2999999999999971
 50
270.0
 51
90.0
  0
ARC
  5
1BCBB
  8
SU
  6
CONTINUOUS
 62
     3
 10
-48.375786681008002
 20
43.976764745842473
 30
0.0
 40
0.2999999999999971
 50
90.0
 51
270.0
  0
ARC
  5
1BCBC
  8
SU
  6
CONTINUOUS
 62
     3
 10
-48.375786681007959
 20
-100.0232386007505
 30
0.0
 40
0.2999999999999971
 50
270.0
 51
90.0
  0
ARC
  5
1BCBD
  8
SU
  6
CONTINUOUS
 62
     3
 10
-48.375786681007959
 20
-100.0232386007505
 30
0.0
 40
0.2999999999999971
 50
90.0
 51
270.0
  0
ARC
  5
1BCBE
  8
SU
  6
CONTINUOUS
 62
     3
 10
-48.375786681007959
 20
-114.0232419517374
 30
0.0
 40
0.2999999999999971
 50
90.0
 51
270.0
  0
ARC
  5
1BCBF
  8
SU
  6
CONTINUOUS
 62
     3
 10
-48.375786681007959
 20
-114.0232419517374
 30
0.0
 40
0.2999999999999971
 50
270.0
 51
90.0
  0
ARC
  5
1BCC0
  8
SU
  6
CONTINUOUS
 62
     3
 10
-33.37578668100798
 20
-100.0232386007505
 30
0.0
 40
0.2999999999999971
 50
90.0
 51
270.0
  0
ARC
  5
1BCC1
  8
SU
  6
CONTINUOUS
 62
     3
 10
-33.37578668100798
 20
-100.0232386007505
 30
0.0
 40
0.2999999999999971
 50
270.0
 51
90.0
  0
ARC
  5
1BCC2
  8
SU
  6
CONTINUOUS
 62
     3
 10
-33.375786681008002
 20
-87.523238600750787
 30
0.0
 40
0.2999999999999971
 50
90.0
 51
270.0
  0
ARC
  5
1BCC3
  8
SU
  6
CONTINUOUS
 62
     3
 10
-33.375786681008002
 20
-87.523238600750787
 30
0.0
 40
0.2999999999999971
 50
270.0
 51
90.0
  0
ARC
  5
1BCC4
  8
SU
  6
CONTINUOUS
 62
     3
 10
-33.37578668100798
 20
17.476761399249192
 30
0.0
 40
0.3000000000000007
 50
270.0
 51
90.0
  0
ARC
  5
1BCC5
  8
SU
  6
CONTINUOUS
 62
     3
 10
-33.37578668100798
 20
17.476761399249192
 30
0.0
 40
0.3000000000000007
 50
90.0
 51
270.0
  0
ARC
  5
1BCC6
  8
SU
  6
CONTINUOUS
 62
     3
 10
-184.78533910398409
 20
225.23902104446711
 30
0.0
 40
0.3000000000000114
 50
180.0
 51
0.0
  0
ARC
  5
1BCC7
  8
SU
  6
CONTINUOUS
 62
     3
 10
-184.78533910398409
 20
225.23902104446711
 30
0.0
 40
0.3000000000000114
 50
0.0
 51
180.0
  0
ARC
  5
1BCC8
  8
SU
  6
CONTINUOUS
 62
     3
 10
-184.78533910398409
 20
240.23902104446711
 30
0.0
 40
0.3000000000000114
 50
0.0
 51
180.0
  0
ARC
  5
1BCC9
  8
SU
  6
CONTINUOUS
 62
     3
 10
-184.78533910398409
 20
240.23902104446711
 30
0.0
 40
0.3000000000000114
 50
180.0
 51
0.0
  0
ARC
  5
1BCCA
  8
SU
  6
CONTINUOUS
 62
     3
 10
-170.78533910398431
 20
240.23902104446711
 30
0.0
 40
0.3000000000000114
 50
180.0
 51
0.0
  0
ARC
  5
1BCCB
  8
SU
  6
CONTINUOUS
 62
     3
 10
-170.78533910398431
 20
240.23902104446711
 30
0.0
 40
0.3000000000000114
 50
0.0
 51
180.0
  0
ARC
  5
1BCCC
  8
SU
  6
CONTINUOUS
 62
     3
 10
61.624215786190689
 20
63.976764745842438
 30
0.0
 40
0.2999999999999971
 50
180.0
 51
0.0
  0
ARC
  5
1BCCD
  8
SU
  6
CONTINUOUS
 62
     3
 10
61.624215786190689
 20
63.976764745842438
 30
0.0
 40
0.2999999999999971
 50
0.0
 51
180.0
  0
ARC
  5
1BCCE
  8
SU
  6
CONTINUOUS
 62
     3
 10
52.624215786190767
 20
63.976764745842331
 30
0.0
 40
0.2999999999999971
 50
180.0
 51
0.0
  0
ARC
  5
1BCCF
  8
SU
  6
CONTINUOUS
 62
     3
 10
52.624215786190767
 20
63.976764745842331
 30
0.0
 40
0.2999999999999971
 50
0.0
 51
180.0
  0
ARC
  5
1BCD0
  8
SU
  6
CONTINUOUS
 62
     3
 10
28.624215786190771
 20
63.976764745842331
 30
0.0
 40
0.3000000000000007
 50
0.0
 51
180.0
  0
ARC
  5
1BCD1
  8
SU
  6
CONTINUOUS
 62
     3
 10
28.624215786190771
 20
63.976764745842331
 30
0.0
 40
0.3000000000000007
 50
180.0
 51
0.0
  0
ARC
  5
1BCD2
  8
SU
  6
CONTINUOUS
 62
     3
 10
-314.78533910398471
 20
225.23902104446711
 30
0.0
 40
0.3000000000000114
 50
0.0
 51
180.0
  0
ARC
  5
1BCD3
  8
SU
  6
CONTINUOUS
 62
     3
 10
-314.78533910398471
 20
225.23902104446711
 30
0.0
 40
0.3000000000000114
 50
180.0
 51
0.0
  0
ARC
  5
1BCD4
  8
SU
  6
CONTINUOUS
 62
     3
 10
-302.28533910398443
 20
225.23902104446711
 30
0.0
 40
0.3000000000000114
 50
0.0
 51
180.0
  0
ARC
  5
1BCD5
  8
SU
  6
CONTINUOUS
 62
     3
 10
-302.28533910398443
 20
225.23902104446711
 30
0.0
 40
0.3000000000000114
 50
180.0
 51
0.0
  0
ARC
  5
1BCD6
  8
SU
  6
CONTINUOUS
 62
     3
 10
-197.2853391039844
 20
225.23902104446711
 30
0.0
 40
0.3000000000000114
 50
180.0
 51
0.0
  0
ARC
  5
1BCD7
  8
SU
  6
CONTINUOUS
 62
     3
 10
-197.2853391039844
 20
225.23902104446711
 30
0.0
 40
0.3000000000000114
 50
0.0
 51
180.0
  0
ARC
  5
1BCD8
  8
SU
  6
CONTINUOUS
 62
     3
 10
-314.78533910398471
 20
240.23902104446711
 30
0.0
 40
0.3000000000000114
 50
180.0
 51
0.0
  0
ARC
  5
1BCD9
  8
SU
  6
CONTINUOUS
 62
     3
 10
-314.78533910398471
 20
240.23902104446711
 30
0.0
 40
0.3000000000000114
 50
0.0
 51
180.0
  0
ARC
  5
1BCDA
  8
SU
  6
CONTINUOUS
 62
     3
 10
-328.78533910398471
 20
240.23902104446711
 30
0.0
 40
0.3000000000000114
 50
0.0
 51
180.0
  0
ARC
  5
1BCDB
  8
SU
  6
CONTINUOUS
 62
     3
 10
-328.78533910398471
 20
240.23902104446711
 30
0.0
 40
0.3000000000000114
 50
180.0
 51
0.0
  0
ARC
  5
1BCDC
  8
SU
  6
CONTINUOUS
 62
     3
 10
-348.78533910398471
 20
173.23902199813151
 30
0.0
 40
0.3000000000000114
 50
270.0
 51
90.0
  0
ARC
  5
1BCDD
  8
SU
  6
CONTINUOUS
 62
     3
 10
-348.78533910398471
 20
173.23902199813151
 30
0.0
 40
0.3000000000000114
 50
90.0
 51
270.0
  0
ARC
  5
1BCDE
  8
SU
  6
CONTINUOUS
 62
     3
 10
-348.78533910398471
 20
149.23902199813139
 30
0.0
 40
0.3000000000000114
 50
270.0
 51
90.0
  0
ARC
  5
1BCDF
  8
SU
  6
CONTINUOUS
 62
     3
 10
-348.78533910398471
 20
149.23902199813139
 30
0.0
 40
0.3000000000000114
 50
90.0
 51
270.0
  0
ARC
  5
1BCE0
  8
SU
  6
CONTINUOUS
 62
     3
 10
-348.78533910398471
 20
140.23902199813111
 30
0.0
 40
0.3000000000000114
 50
90.0
 51
270.0
  0
ARC
  5
1BCE1
  8
SU
  6
CONTINUOUS
 62
     3
 10
-348.78533910398471
 20
140.23902199813111
 30
0.0
 40
0.3000000000000114
 50
270.0
 51
90.0
  0
ENDSEC
  0
EOF
