  0
SECTION
  2
HEADER
  9
$ACADVER
  1
AC1009
  9
$INSBASE
 10
0.0
 20
0.0
 30
0.0
  9
$EXTMIN
 10
-382.3442516009606
 20
-269.33518848444231
 30
-0.0000000000112498
  9
$EXTMAX
 10
338.66717711797349
 20
247.7653363621389
 30
0.0000000000002956
  9
$LIMMIN
 10
-410.0
 20
-286.0
  9
$LIMMAX
 10
408.99999999999989
 20
279.0
  9
$ORTHOMODE
 70
     1
  9
$REGENMODE
 70
     1
  9
$FILLMODE
 70
     1
  9
$QTEXTMODE
 70
     0
  9
$MIRRTEXT
 70
     0
  9
$DRAGMODE
 70
     2
  9
$LTSCALE
 40
1.0
  9
$OSMODE
 70
     0
  9
$ATTMODE
 70
     1
  9
$TEXTSIZE
 40
2.5
  9
$TRACEWID
 40
1.0
  9
$TEXTSTYLE
  7
STANDARD
  9
$CLAYER
  8
0
  9
$CELTYPE
  6
BYLAYER
  9
$CECOLOR
 62
   256
  9
$DIMSCALE
 40
1.0
  9
$DIMASZ
 40
1.5
  9
$DIMEXO
 40
3.0
  9
$DIMDLI
 40
7.0
  9
$DIMRND
 40
0.0
  9
$DIMDLE
 40
0.0
  9
$DIMEXE
 40
1.0
  9
$DIMTP
 40
0.1
  9
$DIMTM
 40
0.1
  9
$DIMTXT
 40
10.0
  9
$DIMCEN
 40
0.0
  9
$DIMTSZ
 40
0.0
  9
$DIMTOL
 70
     0
  9
$DIMLIM
 70
     0
  9
$DIMTIH
 70
     0
  9
$DIMTOH
 70
     0
  9
$DIMSE1
 70
     0
  9
$DIMSE2
 70
     0
  9
$DIMTAD
 70
     1
  9
$DIMZIN
 70
     0
  9
$DIMBLK
  1
DOTSMALL
  9
$DIMASO
 70
     1
  9
$DIMSHO
 70
     1
  9
$DIMPOST
  1

  9
$DIMAPOST
  1
"
  9
$DIMALT
 70
     0
  9
$DIMALTD
 70
     2
  9
$DIMALTF
 40
0.0393701
  9
$DIMLFAC
 40
1.0
  9
$DIMTOFL
 70
     1
  9
$DIMTVP
 40
0.0
  9
$DIMTIX
 70
     0
  9
$DIMSOXD
 70
     0
  9
$DIMSAH
 70
     0
  9
$DIMBLK1
  1

  9
$DIMBLK2
  1

  9
$DIMSTYLE
  2
SANKYO
  9
$DIMCLRD
 70
   256
  9
$DIMCLRE
 70
   256
  9
$DIMCLRT
 70
   256
  9
$DIMTFAC
 40
0.71
  9
$DIMGAP
 40
0.5
  9
$LUNITS
 70
     2
  9
$LUPREC
 70
     4
  9
$SKETCHINC
 40
1.0
  9
$FILLETRAD
 40
0.5
  9
$AUNITS
 70
     0
  9
$AUPREC
 70
     0
  9
$MENU
  1
.
  9
$ELEVATION
 40
0.0
  9
$PELEVATION
 40
0.0
  9
$THICKNESS
 40
0.0
  9
$LIMCHECK
 70
     0
  9
$BLIPMODE
 70
     0
  9
$CHAMFERA
 40
10.0
  9
$CHAMFERB
 40
10.0
  9
$SKPOLY
 70
     0
  9
$TDCREATE
 40
2452388.6082117362
  9
$TDUPDATE
 40
2456027.6124229971
  9
$TDINDWG
 40
1.7320338425999999
  9
$TDUSRTIMER
 40
1.7320336111000001
  9
$USRTIMER
 70
     1
  9
$ANGBASE
 50
0.0
  9
$ANGDIR
 70
     0
  9
$PDMODE
 70
     0
  9
$PDSIZE
 40
0.0
  9
$PLINEWID
 40
0.0
  9
$COORDS
 70
     1
  9
$SPLFRAME
 70
     0
  9
$SPLINETYPE
 70
     6
  9
$SPLINESEGS
 70
     8
  9
$ATTDIA
 70
     0
  9
$ATTREQ
 70
     1
  9
$HANDLING
 70
-16383
  9
$HANDSEED
  5
1A810
  9
$SURFTAB1
 70
     6
  9
$SURFTAB2
 70
     6
  9
$SURFTYPE
 70
     6
  9
$SURFU
 70
     6
  9
$SURFV
 70
     6
  9
$UCSNAME
  2

  9
$UCSORG
 10
0.0
 20
0.0
 30
0.0
  9
$UCSXDIR
 10
1.0
 20
0.0
 30
0.0
  9
$UCSYDIR
 10
0.0
 20
1.0
 30
0.0
  9
$PUCSNAME
  2

  9
$PUCSORG
 10
0.0
 20
0.0
 30
0.0
  9
$PUCSXDIR
 10
1.0
 20
0.0
 30
0.0
  9
$PUCSYDIR
 10
0.0
 20
1.0
 30
0.0
  9
$USERI1
 70
     0
  9
$USERI2
 70
     1
  9
$USERI3
 70
     0
  9
$USERI4
 70
     0
  9
$USERI5
 70
     0
  9
$USERR1
 40
0.0
  9
$USERR2
 40
0.0
  9
$USERR3
 40
0.0
  9
$USERR4
 40
0.0
  9
$USERR5
 40
0.0
  9
$WORLDVIEW
 70
     1
  9
$SHADEDGE
 70
     3
  9
$SHADEDIF
 70
    70
  9
$TILEMODE
 70
     1
  9
$MAXACTVP
 70
    48
  9
$PLIMCHECK
 70
     0
  9
$PEXTMIN
 10
1.0000000000000000E+020
 20
1.0000000000000000E+020
 30
1.0000000000000000E+020
  9
$PEXTMAX
 10
-1.0000000000000000E+020
 20
-1.0000000000000000E+020
 30
-1.0000000000000000E+020
  9
$PLIMMIN
 10
0.0
 20
0.0
  9
$PLIMMAX
 10
420.0
 20
297.0
  9
$UNITMODE
 70
     0
  9
$VISRETAIN
 70
     1
  9
$PLINEGEN
 70
     0
  9
$PSLTSCALE
 70
     1
  0
ENDSEC
  0
SECTION
  2
TABLES
  0
TABLE
  2
VPORT
 70
     2
  0
VPORT
  2
*ACTIVE
 70
     0
 10
0.0
 20
0.0
 11
1.0
 21
1.0
 12
-21.838537241493551
 22
-10.784926061151729
 13
0.0
 23
0.0
 14
2.5
 24
2.5
 15
10.0
 25
10.0
 16
0.0
 26
0.0
 36
1.0
 17
0.0
 27
0.0
 37
0.0
 40
521.32750461371938
 41
1.3969986357435189
 42
50.0
 43
0.0
 44
0.0
 50
0.0
 51
0.0
 71
    16
 72
   100
 73
     1
 74
     0
 75
     0
 76
     0
 77
     0
 78
     0
  0
ENDTAB
  0
TABLE
  2
LTYPE
 70
    17
  0
LTYPE
  2
CONTINUOUS
 70
     0
  3
Solid line
 72
    65
 73
     0
 40
0.0
  0
LTYPE
  2
CENTER2
 70
     0
  3
Center (.5x) ___ _ ___ _ ___ _ ___ _ ___ _ ___
 72
    65
 73
     4
 40
28.574999999999989
 49
19.050000000000001
 49
-3.174999999999998
 49
3.174999999999998
 49
-3.174999999999998
  0
LTYPE
  2
DASHED2
 70
     0
  3
Dashed (.5x) _ _ _ _ _ _ _ _ _ _ _ _ _ _ _ _ _
 72
    65
 73
     2
 40
9.5249999999999986
 49
6.349999999999997
 49
-3.174999999999998
  0
ENDTAB
  0
TABLE
  2
LAYER
 70
     4
  0
LAYER
  2
0
 70
     0
 62
     7
  6
CONTINUOUS
  0
LAYER
  2
SU
 70
     0
 62
     7
  6
CONTINUOUS
  0
LAYER
  2
KI
 70
     0
 62
     7
  6
CONTINUOUS
  0
LAYER
  2
OS
 70
     0
 62
     7
  6
CONTINUOUS
  0
ENDTAB
  0
TABLE
  2
STYLE
 70
     4
  0
STYLE
  2
STANDARD
 70
     0
 40
0.0
 41
0.8299999999999999
 50
0.0
 71
     0
 42
2.5
  3
txt.shx
  4
extfont.shx
  0
ENDTAB
  0
TABLE
  2
VIEW
 70
     6
  0
VIEW
  2
AM_VIEW1
 70
     0
 40
148.9999998536185
 10
126.61001776470241
 20
223.4999997804278
 41
253.2200355294051
 11
0.0
 21
0.0
 31
1.0
 12
0.0
 22
0.0
 32
0.0
 42
50.0
 43
0.0
 44
0.0
 50
0.0
 71
    16
  0
VIEW
  2
AM_VIEW2
 70
     0
 40
148.9999998536185
 10
294.38998139545481
 20
223.4999997804278
 41
253.2200355294051
 11
0.0
 21
0.0
 31
1.0
 12
0.0
 22
0.0
 32
0.0
 42
50.0
 43
0.0
 44
0.0
 50
0.0
 71
    16
  0
VIEW
  2
AM_VIEW3
 70
     0
 40
148.9999998536185
 10
126.61001776470241
 20
74.499999926809267
 41
253.2200355294051
 11
0.0
 21
0.0
 31
1.0
 12
0.0
 22
0.0
 32
0.0
 42
50.0
 43
0.0
 44
0.0
 50
0.0
 71
    16
  0
VIEW
  2
AM_VIEW4
 70
     0
 40
148.9999998536185
 10
294.38998139545481
 20
74.499999926809267
 41
253.2200355294051
 11
0.0
 21
0.0
 31
1.0
 12
0.0
 22
0.0
 32
0.0
 42
50.0
 43
0.0
 44
0.0
 50
0.0
 71
    16
  0
VIEW
  2
AM_VIEW5
 70
     0
 40
148.9999998536185
 10
210.49999958007871
 20
148.9999998536185
 41
253.2200355294051
 11
0.0
 21
0.0
 31
1.0
 12
0.0
 22
0.0
 32
0.0
 42
50.0
 43
0.0
 44
0.0
 50
0.0
 71
    16
  0
VIEW
  2
AM_VIEW6
 70
     0
 40
297.99701970723982
 10
210.49999958007871
 20
148.9999998536185
 41
506.43500665810018
 11
0.0
 21
0.0
 31
1.0
 12
0.0
 22
0.0
 32
0.0
 42
50.0
 43
0.0
 44
0.0
 50
0.0
 71
    16
  0
ENDTAB
  0
TABLE
  2
UCS
 70
     0
  0
ENDTAB
  0
TABLE
  2
APPID
 70
    22
  0
APPID
  2
ACAD
 70
     0
  0
APPID
  2
MCAD_NO_VIS
 70
     0
  0
APPID
  2
ACAD_TEMP_GRAPHIC
 70
     0
  0
APPID
  2
ACATTRIBSERVICES
 70
     0
  0
APPID
  2
GENIUS_GENDIMSH_14
 70
     0
  0
APPID
  2
GENIUS_GENOLIS_13
 70
     0
  0
APPID
  2
GENIUS_GENOENT_13
 70
     0
  0
APPID
  2
GENIUS_GENODEF_13
 70
     0
  0
APPID
  2
GENIUS_GENOBJ-N-TIT_13
 70
     0
  0
APPID
  2
GENIUS_GENTITLE_13
 70
     0
  0
APPID
  2
GENIUS_GENOREF_13
 70
     0
  0
APPID
  2
GENIUS_GENSCREG_15
 70
     0
  0
APPID
  2
GENIUS_GENOBJ-N-SDF_13
 70
     0
  0
APPID
  2
GENIUS_GENOBJ-N-FIL_13
 70
     0
  0
APPID
  2
GENIUS_GENREC_14
 70
     0
  0
APPID
  2
GENIUS_GENOBJ-N-REC_13
 70
     0
  0
APPID
  2
GENIUS_GENDTOL_13
 70
     0
  0
APPID
  2
GENIUS_GENOBJ-N-CEN_13
 70
     0
  0
APPID
  2
GENIUS_GENOBJ-N-HTC_13
 70
     0
  0
APPID
  2
GENIUS_GENHATCH_13
 70
     0
  0
APPID
  2
GENIUS_GENFIL_13
 70
     0
  0
APPID
  2
GENIUS_GENOBJ-N-CHA_13
 70
     0
  0
ENDTAB
  0
TABLE
  2
DIMSTYLE
 70
     7
  0
DIMSTYLE
  2
SANKYO
 70
     0
  3

  4
"
  5

  6

  7

 40
1.0
 41
2.399999999999999
 42
3.0
 43
7.0
 44
3.0
 45
0.0
 46
0.0
 47
0.1
 48
0.1
140
4.0
141
0.0
142
0.0
143
0.0393701
144
1.0
145
0.0
146
0.71
147
1.3
 71
     0
 72
     0
 73
     0
 74
     0
 75
     0
 76
     0
 77
     1
 78
     8
170
     0
171
     2
172
     1
173
     0
174
     0
175
     0
176
   256
177
   256
178
   256
  0
ENDTAB
  0
ENDSEC
  0
SECTION
  2
BLOCKS
  0
BLOCK
  8
0
  2
$MODEL_SPACE
 70
     0
 10
0.0
 20
0.0
 30
0.0
  3
$MODEL_SPACE
  1

  0
ENDBLK
  5
1A257
  8
0
  0
BLOCK
 67
     1
  8
0
  2
$PAPER_SPACE
 70
     0
 10
0.0
 20
0.0
 30
0.0
  3
$PAPER_SPACE
  1

  0
ENDBLK
  5
1A253
 67
     1
  8
0
  0
BLOCK
  8
0
  2
_DOTSMALL
 70
     0
 10
0.0
 20
0.0
 30
0.0
  3
_DOTSMALL
  1

  0
POLYLINE
  5
1A29F
  8
0
  6
BYBLOCK
 62
     0
 66
     1
 10
0.0
 20
0.0
 30
0.0
 70
     1
 40
1.0
 41
1.0
  0
VERTEX
  5
1A2A0
  8
0
  6
BYBLOCK
 62
     0
 10
-0.125
 20
0.0
 30
0.0
 42
1.0
  0
VERTEX
  5
1A2A1
  8
0
  6
BYBLOCK
 62
     0
 10
0.125
 20
0.0
 30
0.0
 42
1.0
  0
SEQEND
  5
1A2A2
  8
0
  6
BYBLOCK
 62
     0
  0
ENDBLK
  5
1A2A3
  8
0
  0
ENDSEC
  0
SECTION
  2
ENTITIES
  0
LINE
  5
1A2A8
  8
KI
  6
CONTINUOUS
 62
     7
 10
-342.03012743547112
 20
61.427500745685251
 30
0.0
 11
-342.03012743547112
 21
147.42750074568511
 31
0.0
  0
LINE
  5
1A2A9
  8
KI
  6
CONTINUOUS
 62
     7
 10
-342.03012743547112
 20
147.42750074568511
 30
0.0
 11
-160.0301274354712
 21
147.42750074568511
 31
0.0
  0
TEXT
  5
1A2AA
  8
KI
  6
CONTINUOUS
 62
     7
 10
218.53418216888841
 20
-260.2109944256826
 30
0.0
 40
7.0
  1
厚壁枠（ノンケーシング枠）
 41
0.84552428
  0
TEXT
  5
1A2AB
  8
KI
  6
CONTINUOUS
 62
     7
 10
-360.9705629193391
 20
240.74721860395829
 30
0.0
 40
7.0
  1
●標準たて枠
 41
0.84552428
  0
LINE
  5
1A2AC
  8
KI
  6
CONTINUOUS
 62
     7
 10
-342.03012743547282
 20
25.17942241047875
 30
0.0
 11
-342.03012743547112
 21
-71.068655924728091
 31
0.0
  0
LINE
  5
1A2AD
  8
KI
  6
CONTINUOUS
 62
     7
 10
-207.53012914793371
 20
-63.068653096843491
 30
0.0
 11
-207.5301291479341
 21
25.17942241047426
 31
0.0
  0
LINE
  5
1A2AE
  8
KI
  6
CONTINUOUS
 62
     7
 10
-167.53012743942071
 20
-63.068653096843491
 30
0.0
 11
-167.53012743942111
 21
25.17942241047426
 31
0.0
  0
LINE
  5
1A2AF
  8
KI
  6
CONTINUOUS
 62
     7
 10
-218.5301291481853
 20
-48.068653096843491
 30
0.0
 11
-218.53012914818541
 21
25.17942241047426
 31
0.0
  0
LINE
  5
1A2B0
  8
KI
  6
CONTINUOUS
 62
     7
 10
-242.53012667378701
 20
25.17942241047426
 30
0.0
 11
-242.5301266737867
 21
-48.068653096843491
 31
0.0
  0
LINE
  5
1A2B1
  8
KI
  6
CONTINUOUS
 62
     7
 10
-160.03012743547291
 20
25.17942241047875
 30
0.0
 11
-160.0301274354712
 21
-71.068655924727196
 31
0.0
  0
LINE
  5
1A2B2
  8
OS
  6
CONTINUOUS
 62
     2
 10
-136.03012686326639
 20
-231.89607766987399
 30
0.0
 11
-363.03012743547202
 21
-231.89607766987399
 31
0.0
  0
LINE
  5
1A2B3
  8
OS
  6
CONTINUOUS
 62
     2
 10
-136.03012686326639
 20
-228.8960776698739
 30
0.0
 11
-363.03012743547202
 21
-228.8960776698739
 31
0.0
  0
LINE
  5
1A2B4
  8
OS
  6
CONTINUOUS
 62
     2
 10
-136.03012686326639
 20
-225.89607766987399
 30
0.0
 11
-363.03012743547202
 21
-225.89607766987399
 31
0.0
  0
LINE
  5
1A2B5
  8
OS
  6
CONTINUOUS
 62
     2
 10
-136.03012686326639
 20
-222.8960776698739
 30
0.0
 11
-363.03012743547202
 21
-222.8960776698739
 31
0.0
  0
LINE
  5
1A2B6
  8
OS
  6
CONTINUOUS
 62
     2
 10
-136.03012686326639
 20
-234.8960776698739
 30
0.0
 11
-363.03012743547202
 21
-234.8960776698739
 31
0.0
  0
LINE
  5
1A2B7
  8
OS
  6
CONTINUOUS
 62
     2
 10
-136.03012686326639
 20
-83.068655924727196
 30
0.0
 11
-363.03012743547112
 21
-83.068655924727196
 31
0.0
  0
LINE
  5
1A2B8
  8
SU
  6
CONTINUOUS
 62
     3
 10
-282.0003471160918
 20
-247.157205492429
 30
0.0
 11
-227.54125602726239
 21
-247.157205492429
 31
0.0
  0
LINE
  5
1A2B9
  8
KI
  6
CONTINUOUS
 62
     7
 10
-342.03012743547191
 20
-124.2480153134684
 30
0.0
 11
-342.03012743547191
 21
-222.8960776698737
 31
0.0
  0
LINE
  5
1A2BA
  8
KI
  6
DASHED2
 62
     7
 10
-342.03012743547191
 20
-222.8960776698737
 30
0.0
 11
-342.03012743547191
 21
-234.89607766986541
 31
0.0
  0
LINE
  5
1A2BB
  8
OS
  6
CONTINUOUS
 62
     2
 10
-270.03012743547112
 20
-80.068655924731502
 30
0.0
 11
-363.03012743547112
 21
-80.068655924720147
 31
0.0
  0
LINE
  5
1A2BC
  8
OS
  6
CONTINUOUS
 62
     2
 10
-270.03012743547112
 20
-71.068655924731502
 30
0.0
 11
-363.03012743547112
 21
-71.068655924727196
 31
0.0
  0
LINE
  5
1A2BD
  8
OS
  6
CONTINUOUS
 62
     2
 10
-270.03012743547112
 20
-74.068655924731502
 30
0.0
 11
-363.03012743547112
 21
-74.068655924727196
 31
0.0
  0
LINE
  5
1A2BE
  8
OS
  6
CONTINUOUS
 62
     2
 10
-270.03012743547112
 20
-77.068655924731502
 30
0.0
 11
-363.03012743547112
 21
-77.068655924727196
 31
0.0
  0
LINE
  5
1A2BF
  8
SU
  6
CONTINUOUS
 62
     3
 10
-310.93077604314539
 20
-42.521684092897743
 30
0.0
 11
-273.29489133791191
 21
-42.521684092897743
 31
0.0
  0
LINE
  5
1A2C0
  8
KI
  6
DASHED2
 62
     7
 10
-342.03012743547112
 20
-71.068655924728091
 30
0.0
 11
-342.03012743547112
 21
-83.068655924719906
 31
0.0
  0
LINE
  5
1A2C1
  8
SU
  6
CONTINUOUS
 62
     3
 10
-273.29489133791191
 20
-42.521684092897743
 30
0.0
 11
-259.42899715540648
 21
-59.046413247523581
 31
0.0
  0
LINE
  5
1A2C2
  8
OS
  6
CONTINUOUS
 62
     2
 10
-270.03012743547112
 20
-83.068655924727196
 30
0.0
 11
-270.03012743547112
 21
-71.068655924735594
 31
0.0
  0
LINE
  5
1A2C3
  8
KI
  6
CONTINUOUS
 62
     7
 10
-198.78012829367711
 20
-166.1460776698739
 30
0.0
 11
-198.78012829367711
 21
-214.8960776698739
 31
0.0
  0
LINE
  5
1A2C4
  8
KI
  6
CONTINUOUS
 62
     7
 10
-176.28012829367739
 20
-166.1460776698739
 30
0.0
 11
-176.28012829367739
 21
-214.8960776698739
 31
0.0
  0
LINE
  5
1A2C5
  8
KI
  6
CONTINUOUS
 62
     7
 10
-218.5301291481853
 20
-222.8960776698739
 30
0.0
 11
-218.53012914818541
 21
-124.2480153134684
 31
0.0
  0
LINE
  5
1A2C6
  8
KI
  6
CONTINUOUS
 62
     7
 10
-207.53012914793371
 20
-214.8960776698739
 30
0.0
 11
-207.5301291479341
 21
-124.2480153134684
 31
0.0
  0
LINE
  5
1A2C7
  8
KI
  6
CONTINUOUS
 62
     7
 10
-167.53012743942071
 20
-214.8960776698739
 30
0.0
 11
-167.53012743942091
 21
-124.2480153134684
 31
0.0
  0
LINE
  5
1A2C8
  8
KI
  6
CONTINUOUS
 62
     7
 10
-160.0301274354712
 20
-124.2480153134684
 30
0.0
 11
-160.0301274354712
 21
-222.8960776698737
 31
0.0
  0
LINE
  5
1A2C9
  8
KI
  6
CONTINUOUS
 62
     7
 10
-242.53012667378701
 20
-124.2480153134684
 30
0.0
 11
-242.5301266737867
 21
-222.8960776698739
 31
0.0
  0
LINE
  5
1A2CA
  8
KI
  6
CONTINUOUS
 62
     7
 10
-180.03012829367731
 20
-214.8960776698739
 30
0.0
 11
-167.53012743942071
 21
-214.8960776698739
 31
0.0
  0
LINE
  5
1A2CB
  8
SU
  6
CONTINUOUS
 62
     3
 10
-227.54125602726239
 20
-247.157205492429
 30
0.0
 11
-198.78012829367711
 21
-218.3960776698739
 31
0.0
  0
LINE
  5
1A2CC
  8
KI
  6
CONTINUOUS
 62
     7
 10
-195.03012829367711
 20
-214.8960776698739
 30
0.0
 11
-195.03012829367711
 21
-184.39607766987399
 31
0.0
  0
LINE
  5
1A2CD
  8
KI
  6
CONTINUOUS
 62
     7
 10
-180.03012829367731
 20
-214.8960776698739
 30
0.0
 11
-180.03012829367731
 21
-184.39607766987399
 31
0.0
  0
LINE
  5
1A2CE
  8
KI
  6
CONTINUOUS
 62
     7
 10
-207.53012914793371
 20
-214.8960776698739
 30
0.0
 11
-195.03012829367711
 21
-214.8960776698739
 31
0.0
  0
LINE
  5
1A2CF
  8
KI
  6
CONTINUOUS
 62
     7
 10
-180.03012829367731
 20
-184.39607766987399
 30
0.0
 11
-195.03012829367711
 21
-184.39607766987399
 31
0.0
  0
LINE
  5
1A2D0
  8
KI
  6
DASHED2
 62
     7
 10
-160.0301274354712
 20
-222.8960776698737
 30
0.0
 11
-160.0301274354712
 21
-234.89607766986541
 31
0.0
  0
ARC
  5
1A2D1
  8
KI
  6
CONTINUOUS
 62
     7
 10
-187.53012829367711
 20
-166.1460776698739
 30
0.0
 40
11.25
 50
0.0
 51
180.0
  0
LINE
  5
1A2D2
  8
KI
  6
CONTINUOUS
 62
     7
 10
-207.53012914793371
 20
-63.068653096843491
 30
0.0
 11
-167.53012743942071
 21
-63.068653096843491
 31
0.0
  0
LINE
  5
1A2D3
  8
OS
  6
CONTINUOUS
 62
     2
 10
-136.03012686326639
 20
-71.068655924727196
 30
0.0
 11
-163.0301274354712
 21
-71.068655924727196
 31
0.0
  0
LINE
  5
1A2D4
  8
OS
  6
CONTINUOUS
 62
     2
 10
-136.03012686326639
 20
-80.068655924727196
 30
0.0
 11
-163.0301274354712
 21
-80.068655924727196
 31
0.0
  0
LINE
  5
1A2D5
  8
OS
  6
CONTINUOUS
 62
     2
 10
-136.03012686326639
 20
-77.068655924727196
 30
0.0
 11
-163.0301274354712
 21
-77.068655924727196
 31
0.0
  0
LINE
  5
1A2D6
  8
OS
  6
CONTINUOUS
 62
     2
 10
-136.03012686326639
 20
-74.068655924727196
 30
0.0
 11
-163.0301274354712
 21
-74.068655924727196
 31
0.0
  0
LINE
  5
1A2D7
  8
OS
  6
CONTINUOUS
 62
     2
 10
-163.0301274354712
 20
-83.068655924727196
 30
0.0
 11
-163.0301274354712
 21
-71.068655924735594
 31
0.0
  0
LINE
  5
1A2D8
  8
KI
  6
DASHED2
 62
     7
 10
-160.0301274354712
 20
-71.068655924727196
 30
0.0
 11
-160.0301274354712
 21
-83.068655924718996
 31
0.0
  0
LINE
  5
1A2D9
  8
KI
  6
CONTINUOUS
 62
     7
 10
-218.53012914818541
 20
27.179422410477439
 30
0.0
 11
-218.5301291481853
 21
103.42746822502259
 31
0.0
  0
LINE
  5
1A2DA
  8
KI
  6
CONTINUOUS
 62
     7
 10
-207.53012914793371
 20
120.42746822502259
 30
0.0
 11
-207.5301291479341
 21
27.179422410477439
 31
0.0
  0
LINE
  5
1A2DB
  8
KI
  6
CONTINUOUS
 62
     7
 10
-167.53012743942071
 20
120.42746822502259
 30
0.0
 11
-167.53012743942111
 21
27.179422410477439
 31
0.0
  0
LINE
  5
1A2DC
  8
KI
  6
CONTINUOUS
 62
     7
 10
-242.5301266737867
 20
103.42746822502259
 30
0.0
 11
-242.53012667378701
 21
27.179422410477439
 31
0.0
  0
LINE
  5
1A2DD
  8
KI
  6
CONTINUOUS
 62
     7
 10
-167.53012743942071
 20
120.42746822502259
 30
0.0
 11
-207.53012914793371
 21
120.42746822502259
 31
0.0
  0
LINE
  5
1A2DE
  8
KI
  6
CONTINUOUS
 62
     7
 10
-342.03012743547112
 20
147.42750074568511
 30
0.0
 11
-342.03012743547282
 21
27.17942241047022
 31
0.0
  0
LINE
  5
1A2DF
  8
KI
  6
CONTINUOUS
 62
     7
 10
-160.0301274354712
 20
147.42750074568511
 30
0.0
 11
-160.03012743547291
 21
27.17942241047022
 31
0.0
  0
LINE
  5
1A2E0
  8
KI
  6
CONTINUOUS
 62
     7
 10
259.62421578619012
 20
-57.53535926548021
 30
0.0
 11
163.62421578619001
 21
-57.53535926548021
 31
0.0
  0
LINE
  5
1A2E1
  8
KI
  6
CONTINUOUS
 62
     7
 10
259.62421578619012
 20
-97.535360973993278
 30
0.0
 11
163.62421578619001
 21
-97.535360973993278
 31
0.0
  0
LINE
  5
1A2E2
  8
KI
  6
CONTINUOUS
 62
     7
 10
81.624215786190348
 20
-22.535361739878319
 30
0.0
 11
161.62421578619009
 21
-22.535361739878319
 31
0.0
  0
LINE
  5
1A2E3
  8
KI
  6
CONTINUOUS
 62
     7
 10
161.62421578619009
 20
-46.53535926548021
 30
0.0
 11
81.624215786190348
 21
-46.535359265480203
 31
0.0
  0
LINE
  5
1A2E4
  8
KI
  6
CONTINUOUS
 62
     7
 10
67.624223916355845
 20
-57.535359265480203
 30
0.0
 11
161.62421578619009
 21
-57.53535926548021
 31
0.0
  0
LINE
  5
1A2E5
  8
KI
  6
CONTINUOUS
 62
     7
 10
65.624221206300831
 20
-97.535360973993278
 30
0.0
 11
161.62421578619009
 21
-97.535360973993278
 31
0.0
  0
LINE
  5
1A2E6
  8
KI
  6
CONTINUOUS
 62
     7
 10
65.624221206300831
 20
-97.535360973993278
 30
0.0
 11
67.624223916355845
 21
-57.535359265480203
 31
0.0
  0
LINE
  5
1A2E7
  8
KI
  6
CONTINUOUS
 62
     7
 10
243.62421578619009
 20
-22.535361739878319
 30
0.0
 11
163.62421578619001
 21
-22.535361739878319
 31
0.0
  0
LINE
  5
1A2E8
  8
KI
  6
CONTINUOUS
 62
     7
 10
163.62421578619001
 20
-46.53535926548021
 30
0.0
 11
243.62421578619009
 21
-46.53535926548021
 31
0.0
  0
LINE
  5
1A2E9
  8
KI
  6
CONTINUOUS
 62
     7
 10
259.62421578619012
 20
-57.53535926548021
 30
0.0
 11
259.62421578619012
 21
-97.535360973993278
 31
0.0
  0
TEXT
  5
1A2EA
  8
KI
  6
CONTINUOUS
 62
     7
 10
218.6672664069456
 20
-242.4411371107378
 30
0.0
 40
7.0
  1
D TOS多機能商品シリーズ
 41
0.84552428
  0
TEXT
  5
1A2EB
  8
KI
  6
CONTINUOUS
 62
     7
 10
218.6672664069456
 20
-251.36442957220399
 30
0.0
 40
7.0
  1
防音ドア
 41
0.84552428
  0
TEXT
  5
1A2EC
  8
KI
  6
CONTINUOUS
 62
     7
 10
217.70790036644311
 20
-269.30914795167661
 30
0.0
 40
7.0
  1
dt05a002
 41
0.84552428
  0
LINE
  5
1A2ED
  8
KI
  6
CONTINUOUS
 62
     7
 10
256.81603256421721
 20
-102.0353609779423
 30
0.0
 11
163.62421578619001
 21
-102.0353609779423
 31
0.0
  0
LINE
  5
1A2EE
  8
KI
  6
CONTINUOUS
 62
     7
 10
61.624215786190348
 20
-102.0353609779423
 30
0.0
 11
161.62421578619009
 21
-102.0353609779423
 31
0.0
  0
LINE
  5
1A2EF
  8
KI
  6
CONTINUOUS
 62
     7
 10
261.32421578618982
 20
-102.0353609779423
 30
0.0
 11
259.13007649192349
 21
-102.0353609779423
 31
0.0
  0
LINE
  5
1A2F0
  8
KI
  6
CONTINUOUS
 62
     7
 10
263.62421578619012
 20
4.964639022057681
 30
0.0
 11
163.62421578619001
 21
4.964639022057681
 31
0.0
  0
LINE
  5
1A2F1
  8
KI
  6
CONTINUOUS
 62
     7
 10
61.624215786190391
 20
4.964639022057681
 30
0.0
 11
161.62421578619009
 21
4.964639022057681
 31
0.0
  0
LINE
  5
1A2F2
  8
KI
  6
CONTINUOUS
 62
     7
 10
263.62421578619012
 20
-18.535360977942311
 30
0.0
 11
163.62421578619001
 21
-18.535360977942311
 31
0.0
  0
LINE
  5
1A2F3
  8
KI
  6
CONTINUOUS
 62
     7
 10
61.624215786190391
 20
-18.535360977942311
 30
0.0
 11
161.62421578619009
 21
-18.535360977942311
 31
0.0
  0
LINE
  5
1A2F4
  8
OS
  6
CONTINUOUS
 62
     2
 10
-270.03012743547112
 20
-71.274716685386807
 30
0.0
 11
-248.50369152011569
 21
-49.748280770032729
 31
0.0
  0
LINE
  5
1A2F5
  8
OS
  6
CONTINUOUS
 62
     2
 10
-172.929622372083
 20
-83.068655924727054
 30
0.0
 11
-163.0301274354712
 21
-73.169160988115323
 31
0.0
  0
LINE
  5
1A2F6
  8
OS
  6
CONTINUOUS
 62
     2
 10
-182.82911730869429
 20
-83.068655924727196
 30
0.0
 11
-167.8291144808108
 21
-68.068653096843491
 31
0.0
  0
LINE
  5
1A2F7
  8
OS
  6
CONTINUOUS
 62
     2
 10
-202.6281071819179
 20
-83.068655924727125
 30
0.0
 11
-187.62810435403441
 21
-68.068653096843491
 31
0.0
  0
LINE
  5
1A2F8
  8
OS
  6
CONTINUOUS
 62
     2
 10
-212.52760211852981
 20
-83.068655924727153
 30
0.0
 11
-197.52759929064601
 21
-68.068653096843491
 31
0.0
  0
LINE
  5
1A2F9
  8
OS
  6
CONTINUOUS
 62
     2
 10
-232.32659199175279
 20
-83.068655924727054
 30
0.0
 11
-217.3265891638695
 21
-68.068653096843491
 31
0.0
  0
LINE
  5
1A2FA
  8
OS
  6
CONTINUOUS
 62
     2
 10
-222.4270970551413
 20
-83.068655924727196
 30
0.0
 11
-207.4270942272577
 21
-68.068653096843491
 31
0.0
  0
LINE
  5
1A2FB
  8
OS
  6
CONTINUOUS
 62
     2
 10
-192.72861224530629
 20
-83.068655924727054
 30
0.0
 11
-177.7286094174226
 21
-68.068653096843491
 31
0.0
  0
LINE
  5
1A2FC
  8
OS
  6
CONTINUOUS
 62
     2
 10
-252.1255818649762
 20
-83.068655924726954
 30
0.0
 11
-218.53012914793371
 21
-49.473203207684527
 31
0.0
  0
LINE
  5
1A2FD
  8
OS
  6
CONTINUOUS
 62
     2
 10
-242.2260869283644
 20
-83.068655924727125
 30
0.0
 11
-218.53012914793371
 21
-59.372698144296358
 31
0.0
  0
LINE
  5
1A2FE
  8
OS
  6
CONTINUOUS
 62
     2
 10
-262.025076801588
 20
-83.068655924727054
 30
0.0
 11
-227.02507397370439
 21
-48.068653096843491
 31
0.0
  0
LINE
  5
1A2FF
  8
OS
  6
CONTINUOUS
 62
     2
 10
-270.03012743547112
 20
-81.174211621998666
 30
0.0
 11
-236.924568910316
 21
-48.068653096843491
 31
0.0
  0
LINE
  5
1A300
  8
SU
  6
CONTINUOUS
 62
     3
 10
-339.03012743547049
 20
122.4275007456849
 30
0.0
 11
-339.03012743547049
 21
63.927500745685933
 31
0.0
  0
LINE
  5
1A301
  8
SU
  6
CONTINUOUS
 62
     3
 10
-163.0301274354712
 20
122.42750074568499
 30
0.0
 11
-163.0301274354712
 21
63.927500745685933
 31
0.0
  0
LINE
  5
1A302
  8
SU
  6
CONTINUOUS
 62
     3
 10
-339.03012743547049
 20
66.927500745685933
 30
0.0
 11
-163.0301274354712
 21
66.927500745685933
 31
0.0
  0
LINE
  5
1A303
  8
SU
  6
CONTINUOUS
 62
     3
 10
-163.0301274354712
 20
122.42750074568499
 30
0.0
 11
-163.0301274354712
 21
63.92750074568616
 31
0.0
  0
LINE
  5
1A304
  8
SU
  6
CONTINUOUS
 62
     3
 10
-160.03012743547151
 20
122.42750074568499
 30
0.0
 11
-160.03012743547151
 21
63.92750074568616
 31
0.0
  0
LINE
  5
1A305
  8
SU
  6
CONTINUOUS
 62
     3
 10
-165.43012743547101
 20
66.92750074568616
 30
0.0
 11
-167.83012743547101
 21
66.92750074568616
 31
0.0
  0
LINE
  5
1A306
  8
SU
  6
CONTINUOUS
 62
     3
 10
-160.03012743547151
 20
66.92750074568616
 30
0.0
 11
-150.41679410213811
 21
66.92750074568616
 31
0.0
  0
LINE
  5
1A307
  8
SU
  6
CONTINUOUS
 62
     3
 10
-163.0301274354712
 20
66.92750074568616
 30
0.0
 11
-160.03012743547151
 21
66.92750074568616
 31
0.0
  0
LINE
  5
1A308
  8
SU
  6
CONTINUOUS
 62
     3
 10
243.62421578619009
 20
-21.535361739878319
 30
0.0
 11
243.62421578619009
 21
99.964639022057682
 31
0.0
  0
LINE
  5
1A309
  8
SU
  6
CONTINUOUS
 62
     3
 10
263.62421578619012
 20
96.964639022057696
 30
0.0
 11
243.62421578619009
 21
96.964639022057696
 31
0.0
  0
LINE
  5
1A30A
  8
SU
  6
CONTINUOUS
 62
     3
 10
81.624215786190348
 20
-21.535361739878319
 30
0.0
 11
81.624215786190376
 21
99.964639022057568
 31
0.0
  0
LINE
  5
1A30B
  8
SU
  6
CONTINUOUS
 62
     3
 10
61.624215786190391
 20
96.964639022057554
 30
0.0
 11
81.624215786190376
 21
96.964639022057554
 31
0.0
  0
LINE
  5
1A30C
  8
SU
  6
CONTINUOUS
 62
     3
 10
101.62421578619031
 20
-22.535361739878329
 30
0.0
 11
101.62421578619031
 21
76.964632855890386
 31
0.0
  0
LINE
  5
1A30D
  8
SU
  6
CONTINUOUS
 62
     3
 10
62.624215786190398
 20
76.964632855890443
 30
0.0
 11
118.62421823471919
 21
76.964632855890386
 31
0.0
  0
LINE
  5
1A30E
  8
SU
  6
CONTINUOUS
 62
     3
 10
62.624215786190177
 20
-105.0353609779422
 30
0.0
 11
118.62421823471919
 21
-105.0353609779422
 31
0.0
  0
LINE
  5
1A30F
  8
SU
  6
CONTINUOUS
 62
     3
 10
115.62421823471919
 20
76.964632855890386
 30
0.0
 11
115.62421823471919
 21
-105.0353609779422
 31
0.0
  0
LINE
  5
1A310
  8
SU
  6
CONTINUOUS
 62
     3
 10
277.62421578619012
 20
-184.5353609779275
 30
0.0
 11
287.62421578618989
 21
-178.5353609779275
 31
0.0
  0
LINE
  5
1A311
  8
SU
  6
CONTINUOUS
 62
     3
 10
277.62421578619012
 20
-172.5353609779275
 30
0.0
 11
287.62421578618989
 21
-178.5353609779275
 31
0.0
  0
LINE
  5
1A312
  8
SU
  6
CONTINUOUS
 62
     3
 10
277.62421578619012
 20
-184.5353609779275
 30
0.0
 11
277.62421578619012
 21
-172.5353609779275
 31
0.0
  0
LINE
  5
1A313
  8
SU
  6
CONTINUOUS
 62
     3
 10
263.62421577060343
 20
-163.53536097792741
 30
0.0
 11
287.62421578619001
 21
-163.53536097792741
 31
0.0
  0
LINE
  5
1A314
  8
SU
  6
CONTINUOUS
 62
     3
 10
82.624215786190348
 20
-46.535359265480203
 30
0.0
 11
104.62421578619031
 21
-46.535359265480203
 31
0.0
  0
LINE
  5
1A315
  8
SU
  6
CONTINUOUS
 62
     3
 10
82.624215786190348
 20
-22.535361739878319
 30
0.0
 11
104.62421578619031
 21
-22.535361739878329
 31
0.0
  0
LINE
  5
1A316
  8
SU
  6
CONTINUOUS
 62
     3
 10
101.62421578619031
 20
-46.535359265480203
 30
0.0
 11
101.62421578619031
 21
-22.535361739878329
 31
0.0
  0
LINE
  5
1A317
  8
SU
  6
CONTINUOUS
 62
     3
 10
101.62421578619031
 20
-57.53535926548021
 30
0.0
 11
101.62421578619031
 21
-46.535359265480203
 31
0.0
  0
LINE
  5
1A318
  8
SU
  6
CONTINUOUS
 62
     3
 10
101.62421578619031
 20
-57.53535926548021
 30
0.0
 11
101.62421578619031
 21
-97.535360977926175
 31
0.0
  0
LINE
  5
1A319
  8
KI
  6
DASHED2
 62
     7
 10
81.624250781250907
 20
-35.585352305766357
 30
0.0
 11
83.624253491306376
 21
-37.084085767359831
 31
0.0
  0
LINE
  5
1A31A
  8
KI
  6
DASHED2
 62
     7
 10
81.624250781250907
 20
-33.485368707491588
 30
0.0
 11
83.624253491306376
 21
-31.9866352458981
 31
0.0
  0
LINE
  5
1A31B
  8
KI
  6
DASHED2
 62
     7
 10
57.880312114277899
 20
-33.374889297133997
 30
0.0
 11
59.696940706632731
 21
-35.82396612272133
 31
0.0
  0
LINE
  5
1A31C
  8
KI
  6
DASHED2
 62
     7
 10
56.770163805917591
 20
-33.374889297133997
 30
0.0
 11
58.586792398272891
 21
-35.82396612272133
 31
0.0
  0
LINE
  5
1A31D
  8
KI
  6
DASHED2
 62
     7
 10
55.659980502497213
 20
-33.374889297133997
 30
0.0
 11
57.476609094852051
 21
-35.82396612272133
 31
0.0
  0
LINE
  5
1A31E
  8
KI
  6
DASHED2
 62
     7
 10
54.549832194137373
 20
-33.374889297133997
 30
0.0
 11
56.366460786492212
 21
-35.82396612272133
 31
0.0
  0
LINE
  5
1A31F
  8
KI
  6
DASHED2
 62
     7
 10
53.439683885777072
 20
-33.374889297133997
 30
0.0
 11
55.25631247813191
 21
-35.82396612272133
 31
0.0
  0
LINE
  5
1A320
  8
KI
  6
DASHED2
 62
     7
 10
52.329500582356673
 20
-33.374889297133997
 30
0.0
 11
54.146129174711533
 21
-35.82396612272133
 31
0.0
  0
LINE
  5
1A321
  8
KI
  6
DASHED2
 62
     7
 10
51.219352273996833
 20
-33.374889297133997
 30
0.0
 11
53.035980866351231
 21
-35.82396612272133
 31
0.0
  0
LINE
  5
1A322
  8
KI
  6
DASHED2
 62
     7
 10
50.109203965636539
 20
-33.374889297133997
 30
0.0
 11
51.925832557991392
 21
-35.82396612272133
 31
0.0
  0
LINE
  5
1A323
  8
KI
  6
DASHED2
 62
     7
 10
48.999020662216132
 20
-33.374889297133997
 30
0.0
 11
50.815649254570971
 21
-35.82396612272133
 31
0.0
  0
LINE
  5
1A324
  8
KI
  6
DASHED2
 62
     7
 10
47.888872353856293
 20
-33.374889297133997
 30
0.0
 11
49.705500946210691
 21
-35.82396612272133
 31
0.0
  0
LINE
  5
1A325
  8
KI
  6
DASHED2
 62
     7
 10
46.77868905043546
 20
-33.374889297133997
 30
0.0
 11
48.595317642790292
 21
-35.82396612272133
 31
0.0
  0
LINE
  5
1A326
  8
KI
  6
DASHED2
 62
     7
 10
61.210792034418432
 20
-33.374889297133997
 30
0.0
 11
63.027420626773278
 21
-35.82396612272133
 31
0.0
  0
LINE
  5
1A327
  8
KI
  6
DASHED2
 62
     7
 10
60.100643726058138
 20
-33.374889297133997
 30
0.0
 11
61.917272318413438
 21
-35.82396612272133
 31
0.0
  0
LINE
  5
1A328
  8
KI
  6
DASHED2
 62
     7
 10
58.990495417698298
 20
-33.374889297133997
 30
0.0
 11
60.807124010053137
 21
-35.82396612272133
 31
0.0
  0
LINE
  5
1A329
  8
KI
  6
DASHED2
 62
     7
 10
64.541306949619525
 20
-33.374889297133997
 30
0.0
 11
66.357900546913811
 21
-35.82396612272133
 31
0.0
  0
LINE
  5
1A32A
  8
KI
  6
DASHED2
 62
     7
 10
63.431123646198671
 20
-33.374889297133997
 30
0.0
 11
65.247752238553971
 21
-35.82396612272133
 31
0.0
  0
LINE
  5
1A32B
  8
KI
  6
DASHED2
 62
     7
 10
62.320975337838831
 20
-33.374889297133997
 30
0.0
 11
64.137603930193677
 21
-35.82396612272133
 31
0.0
  0
LINE
  5
1A32C
  8
KI
  6
DASHED2
 62
     7
 10
57.880312114277899
 20
-33.374889301083023
 30
0.0
 11
59.696940706632731
 21
-35.823966126670349
 31
0.0
  0
LINE
  5
1A32D
  8
KI
  6
DASHED2
 62
     7
 10
56.770163805917591
 20
-33.374889301083023
 30
0.0
 11
58.586792398272891
 21
-35.823966126670349
 31
0.0
  0
LINE
  5
1A32E
  8
KI
  6
DASHED2
 62
     7
 10
55.659980502497213
 20
-33.374889301083023
 30
0.0
 11
57.476609094852051
 21
-35.823966126670349
 31
0.0
  0
LINE
  5
1A32F
  8
KI
  6
DASHED2
 62
     7
 10
54.549832194137373
 20
-33.374889301083023
 30
0.0
 11
56.366460786492212
 21
-35.823966126670349
 31
0.0
  0
LINE
  5
1A330
  8
KI
  6
DASHED2
 62
     7
 10
53.439683885777072
 20
-33.374889301083023
 30
0.0
 11
55.25631247813191
 21
-35.823966126670349
 31
0.0
  0
LINE
  5
1A331
  8
KI
  6
DASHED2
 62
     7
 10
52.329500582356673
 20
-33.374889301083023
 30
0.0
 11
54.146129174711533
 21
-35.823966126670349
 31
0.0
  0
LINE
  5
1A332
  8
KI
  6
DASHED2
 62
     7
 10
51.219352273996833
 20
-33.374889301083023
 30
0.0
 11
53.035980866351231
 21
-35.823966126670349
 31
0.0
  0
LINE
  5
1A333
  8
KI
  6
DASHED2
 62
     7
 10
50.109203965636539
 20
-33.374889301083023
 30
0.0
 11
51.925832557991392
 21
-35.823966126670349
 31
0.0
  0
LINE
  5
1A334
  8
KI
  6
DASHED2
 62
     7
 10
48.999020662216132
 20
-33.374889301083023
 30
0.0
 11
50.815649254570971
 21
-35.823966126670349
 31
0.0
  0
LINE
  5
1A335
  8
KI
  6
DASHED2
 62
     7
 10
47.888872353856293
 20
-33.374889301083023
 30
0.0
 11
49.705500946210691
 21
-35.823966126670349
 31
0.0
  0
LINE
  5
1A336
  8
KI
  6
DASHED2
 62
     7
 10
46.77868905043546
 20
-33.374889301083023
 30
0.0
 11
48.595317642790292
 21
-35.823966126670349
 31
0.0
  0
LINE
  5
1A337
  8
KI
  6
DASHED2
 62
     7
 10
45.668540742075137
 20
-33.374889301083023
 30
0.0
 11
47.485169334430452
 21
-35.823966126670349
 31
0.0
  0
LINE
  5
1A338
  8
KI
  6
DASHED2
 62
     7
 10
44.558392433715312
 20
-33.374889301083023
 30
0.0
 11
46.375021026070137
 21
-35.823966126670349
 31
0.0
  0
LINE
  5
1A339
  8
KI
  6
DASHED2
 62
     7
 10
43.448209130294892
 20
-33.374889301083023
 30
0.0
 11
45.264837722649759
 21
-35.823966126670349
 31
0.0
  0
LINE
  5
1A33A
  8
KI
  6
DASHED2
 62
     7
 10
42.338060821934619
 20
-33.374889301083023
 30
0.0
 11
44.154689414289933
 21
-35.823966126670349
 31
0.0
  0
LINE
  5
1A33B
  8
KI
  6
DASHED2
 62
     7
 10
81.624250781250907
 20
-33.485368707491588
 30
0.0
 11
43.509625461700217
 21
-33.485368707491581
 31
0.0
  0
LINE
  5
1A33C
  8
KI
  6
DASHED2
 62
     7
 10
43.509625461700217
 20
-33.485368707491581
 30
0.0
 11
34.921312657231397
 21
-34.530898636398511
 31
0.0
  0
LINE
  5
1A33D
  8
KI
  6
DASHED2
 62
     7
 10
43.509625461700217
 20
-35.585352305766357
 30
0.0
 11
34.921312657231397
 21
-34.539822376859398
 31
0.0
  0
LINE
  5
1A33E
  8
KI
  6
DASHED2
 62
     7
 10
81.624250781250907
 20
-35.585352305766357
 30
0.0
 11
43.509625461700217
 21
-35.585352305766357
 31
0.0
  0
LINE
  5
1A33F
  8
KI
  6
DASHED2
 62
     7
 10
61.210792034418432
 20
-33.374889301083023
 30
0.0
 11
63.027420626773278
 21
-35.823966126670349
 31
0.0
  0
LINE
  5
1A340
  8
KI
  6
DASHED2
 62
     7
 10
60.100643726058138
 20
-33.374889301083023
 30
0.0
 11
61.917272318412977
 21
-35.823966126670349
 31
0.0
  0
LINE
  5
1A341
  8
KI
  6
DASHED2
 62
     7
 10
58.990495417698298
 20
-33.374889301083023
 30
0.0
 11
60.807124010053137
 21
-35.823966126670349
 31
0.0
  0
LINE
  5
1A342
  8
KI
  6
DASHED2
 62
     7
 10
64.541306949619525
 20
-33.374889301083023
 30
0.0
 11
66.357900546913811
 21
-35.823966126670349
 31
0.0
  0
LINE
  5
1A343
  8
KI
  6
DASHED2
 62
     7
 10
63.431123646198671
 20
-33.374889301083023
 30
0.0
 11
65.247752238553971
 21
-35.823966126670349
 31
0.0
  0
LINE
  5
1A344
  8
KI
  6
DASHED2
 62
     7
 10
62.320975337838831
 20
-33.374889301083023
 30
0.0
 11
64.137603930193677
 21
-35.823966126670349
 31
0.0
  0
LINE
  5
1A345
  8
KI
  6
CENTER2
 62
     7
 10
87.979213811384952
 20
-34.535360506628969
 30
0.0
 11
29.509011575282891
 21
-34.535360506628962
 31
0.0
  0
LINE
  5
1A346
  8
KI
  6
CONTINUOUS
 62
     7
 10
57.124215786190348
 20
-28.535361739878319
 30
0.0
 11
57.124215786190348
 21
-40.53535926548065
 31
0.0
  0
LINE
  5
1A347
  8
KI
  6
CONTINUOUS
 62
     7
 10
57.124215786190348
 20
-40.53535926548065
 30
0.0
 11
61.624215786190348
 21
-40.53535926548065
 31
0.0
  0
LINE
  5
1A348
  8
KI
  6
CONTINUOUS
 62
     7
 10
61.624215786190348
 20
-40.535359265480238
 30
0.0
 11
61.624215786190348
 21
-46.53535926548021
 31
0.0
  0
LINE
  5
1A349
  8
KI
  6
CONTINUOUS
 62
     7
 10
57.124215786190348
 20
-28.535361739878319
 30
0.0
 11
61.624215786190348
 21
-28.535361739878319
 31
0.0
  0
LINE
  5
1A34A
  8
KI
  6
CONTINUOUS
 62
     7
 10
61.624215786190348
 20
-22.535361739878319
 30
0.0
 11
61.624215786190348
 21
-28.535361739878301
 31
0.0
  0
LINE
  5
1A34B
  8
KI
  6
CONTINUOUS
 62
     7
 10
61.624215786190348
 20
-22.535361739878319
 30
0.0
 11
81.624215786190348
 21
-22.535361739878329
 31
0.0
  0
LINE
  5
1A34C
  8
KI
  6
CONTINUOUS
 62
     7
 10
81.624215786190348
 20
-22.535361739878329
 30
0.0
 11
81.624215786190348
 21
-46.535359265480217
 31
0.0
  0
LINE
  5
1A34D
  8
KI
  6
CONTINUOUS
 62
     7
 10
61.624215786190348
 20
-46.53535926548021
 30
0.0
 11
81.624215786190348
 21
-46.535359265480217
 31
0.0
  0
LINE
  5
1A34E
  8
KI
  6
CONTINUOUS
 62
     7
 10
81.624250781250907
 20
-47.035365265480877
 30
0.0
 11
81.624250781251376
 21
-49.261457996709503
 31
0.0
  0
ARC
  5
1A34F
  8
KI
  6
CONTINUOUS
 62
     7
 10
70.063374891101034
 20
-56.543388315136418
 30
0.0
 40
9.2190722294335075
 50
92.804687340448481
 51
144.3741318244827
  0
LINE
  5
1A350
  8
KI
  6
CONTINUOUS
 62
     7
 10
79.457246055848941
 20
-46.535359265479741
 30
0.0
 11
79.624250781252698
 21
-46.702363990883541
 31
0.0
  0
LINE
  5
1A351
  8
KI
  6
CONTINUOUS
 62
     7
 10
78.759220443743374
 20
-46.73535926548049
 30
0.0
 11
79.359226443742614
 21
-47.335365265480611
 31
0.0
  0
LINE
  5
1A352
  8
KI
  6
CONTINUOUS
 62
     7
 10
78.55922044374222
 20
-46.535359265480217
 30
0.0
 11
78.759220443742933
 21
-46.73535926548049
 31
0.0
  0
LINE
  5
1A353
  8
KI
  6
CONTINUOUS
 62
     7
 10
77.861194831635785
 20
-46.73535926548049
 30
0.0
 11
78.461200831635892
 21
-47.335365265480611
 31
0.0
  0
LINE
  5
1A354
  8
KI
  6
CONTINUOUS
 62
     7
 10
77.661194831635484
 20
-46.535359265479741
 30
0.0
 11
77.861194831635785
 21
-46.73535926548049
 31
0.0
  0
LINE
  5
1A355
  8
KI
  6
CONTINUOUS
 62
     7
 10
76.96316921952905
 20
-46.735359265480483
 30
0.0
 11
77.563175219529171
 21
-47.335365265480611
 31
0.0
  0
LINE
  5
1A356
  8
KI
  6
CONTINUOUS
 62
     7
 10
76.763169219528763
 20
-46.535359265479741
 30
0.0
 11
76.96316921952905
 21
-46.735359265480483
 31
0.0
  0
LINE
  5
1A357
  8
KI
  6
CONTINUOUS
 62
     7
 10
76.065143607421874
 20
-46.735359265480483
 30
0.0
 11
76.66514960742245
 21
-47.335365265480142
 31
0.0
  0
LINE
  5
1A358
  8
KI
  6
CONTINUOUS
 62
     7
 10
75.865143607421601
 20
-46.535359265479741
 30
0.0
 11
76.065143607421874
 21
-46.735359265480483
 31
0.0
  0
LINE
  5
1A359
  8
KI
  6
CONTINUOUS
 62
     7
 10
75.167117995315166
 20
-46.735359265481378
 30
0.0
 11
75.767123995314833
 21
-47.335365265481059
 31
0.0
  0
LINE
  5
1A35A
  8
KI
  6
CONTINUOUS
 62
     7
 10
74.967117995314425
 20
-46.53535926548065
 30
0.0
 11
75.167117995315166
 21
-46.73535926548093
 31
0.0
  0
LINE
  5
1A35B
  8
KI
  6
CONTINUOUS
 62
     7
 10
74.269092383208431
 20
-46.735359265481378
 30
0.0
 11
74.624250781251817
 21
-47.090517663524317
 31
0.0
  0
LINE
  5
1A35C
  8
KI
  6
CONTINUOUS
 62
     7
 10
74.624250781251817
 20
-47.090517663524317
 30
0.0
 11
74.848462916926692
 21
-47.314729799199633
 31
0.0
  0
LINE
  5
1A35D
  8
KI
  6
CONTINUOUS
 62
     7
 10
74.069092383208158
 20
-46.535359265481112
 30
0.0
 11
74.269092383208431
 21
-46.73535926548093
 31
0.0
  0
LINE
  5
1A35E
  8
KI
  6
CONTINUOUS
 62
     7
 10
73.371066771101241
 20
-46.73535926548093
 30
0.0
 11
73.971066771100269
 21
-47.335359265480392
 31
0.0
  0
LINE
  5
1A35F
  8
KI
  6
CONTINUOUS
 62
     7
 10
73.171066771101422
 20
-46.535359265481112
 30
0.0
 11
73.371066771101241
 21
-46.73535926548093
 31
0.0
  0
LINE
  5
1A360
  8
KI
  6
CONTINUOUS
 62
     7
 10
72.473041158994079
 20
-46.73535926548093
 30
0.0
 11
73.073041158994442
 21
-47.335359265480847
 31
0.0
  0
LINE
  5
1A361
  8
KI
  6
CONTINUOUS
 62
     7
 10
72.273041158994261
 20
-46.53535926548065
 30
0.0
 11
72.473041158994079
 21
-46.73535926548093
 31
0.0
  0
LINE
  5
1A362
  8
KI
  6
CONTINUOUS
 62
     7
 10
71.624250781251817
 20
-46.784594499844943
 30
0.0
 11
72.175015546887707
 21
-47.335359265480847
 31
0.0
  0
LINE
  5
1A363
  8
KI
  6
CONTINUOUS
 62
     7
 10
71.624250781251817
 20
-46.53535926548065
 30
0.0
 11
71.624250781251817
 21
-47.335359265480847
 31
0.0
  0
LINE
  5
1A364
  8
KI
  6
CONTINUOUS
 62
     7
 10
79.624250781250893
 20
-46.535359265480217
 30
0.0
 11
79.624250781251817
 21
-47.335365265481059
 31
0.0
  0
LINE
  5
1A365
  8
KI
  6
CONTINUOUS
 62
     7
 10
70.61227202898192
 20
-47.335359265481301
 30
0.0
 11
74.37424078125116
 21
-47.335359265480847
 31
0.0
  0
LINE
  5
1A366
  8
KI
  6
CONTINUOUS
 62
     7
 10
74.624240781251615
 20
-47.135359265480567
 30
0.0
 11
74.874250781251362
 21
-47.335359265480847
 31
0.0
  0
LINE
  5
1A367
  8
KI
  6
CONTINUOUS
 62
     7
 10
74.624240781251615
 20
-47.135365265480317
 30
0.0
 11
74.37424078125116
 21
-47.335359265480847
 31
0.0
  0
LINE
  5
1A368
  8
KI
  6
CONTINUOUS
 62
     7
 10
74.874240781251615
 20
-47.335365265481059
 30
0.0
 11
80.624250781250907
 21
-47.335365265481059
 31
0.0
  0
ARC
  5
1A369
  8
KI
  6
CONTINUOUS
 62
     7
 10
69.912272028981647
 20
-47.03535926548065
 30
0.0
 40
0.3
 50
90.000000000348507
 51
180.000000000086
  0
LINE
  5
1A36A
  8
KI
  6
CONTINUOUS
 62
     7
 10
69.61227202898192
 20
-47.335359265480847
 30
0.0
 11
69.612272028981451
 21
-47.03535926548065
 31
0.0
  0
ARC
  5
1A36B
  8
KI
  6
CONTINUOUS
 62
     7
 10
70.312272028980814
 20
-47.035359265477929
 30
0.0
 40
0.3
 50
0.0000000000863075
 51
90.000000000348507
  0
LINE
  5
1A36C
  8
KI
  6
CONTINUOUS
 62
     7
 10
69.912272028981647
 20
-46.735359265480483
 30
0.0
 11
70.312272028980814
 21
-46.735359265478202
 31
0.0
  0
ARC
  5
1A36D
  8
KI
  6
CONTINUOUS
 62
     7
 10
80.924250781251061
 20
-47.035359265477929
 30
0.0
 40
0.3
 50
90.000000000348507
 51
180.000000000086
  0
ARC
  5
1A36E
  8
KI
  6
CONTINUOUS
 62
     7
 10
81.324250781250726
 20
-47.035359265476117
 30
0.0
 40
0.3
 50
0.0000000000863075
 51
90.000000000348507
  0
LINE
  5
1A36F
  8
KI
  6
CONTINUOUS
 62
     7
 10
80.924250781251061
 20
-46.735359265478671
 30
0.0
 11
81.324250781250726
 21
-46.735359265475942
 31
0.0
  0
LINE
  5
1A370
  8
KI
  6
CONTINUOUS
 62
     7
 10
80.624250781250907
 20
-47.335365265481059
 30
0.0
 11
80.624250781250907
 21
-47.035359265477929
 31
0.0
  0
LINE
  5
1A371
  8
KI
  6
CONTINUOUS
 62
     7
 10
70.612272028981451
 20
-47.035359265477929
 30
0.0
 11
70.61227202898192
 21
-47.335359265481301
 31
0.0
  0
LINE
  5
1A372
  8
KI
  6
CONTINUOUS
 62
     7
 10
71.624250781251817
 20
-46.53535926548065
 30
0.0
 11
79.624250781250893
 21
-46.535359265480217
 31
0.0
  0
ARC
  5
1A373
  8
KI
  6
CONTINUOUS
 62
     7
 10
80.183408838165292
 20
-54.528758114880112
 30
0.0
 40
0.5
 50
26.019067362292621
 51
120.7030765990648
  0
ARC
  5
1A374
  8
KI
  6
CONTINUOUS
 62
     7
 10
87.171575182802485
 20
-51.117522391129668
 30
0.0
 40
7.2763100519022599
 50
206.0190673622925
 51
241.88676723364111
  0
ARC
  5
1A375
  8
KI
  6
CONTINUOUS
 62
     7
 10
67.407659611301483
 20
-33.014575800352389
 30
0.0
 40
24.521586859558742
 50
266.28881364656843
 51
300.70307659906382
  0
ARC
  5
1A376
  8
KI
  6
CONTINUOUS
 62
     7
 10
87.171575182802485
 20
-51.117522391129668
 30
0.0
 40
5.776310051902259
 50
196.18682820039569
 51
241.88676723364111
  0
LINE
  5
1A377
  8
KI
  6
CONTINUOUS
 62
     7
 10
81.624250781252272
 20
-49.261457996709503
 30
0.0
 11
81.624250781250439
 21
-52.727786282437698
 31
0.0
  0
ARC
  5
1A378
  8
KI
  6
CONTINUOUS
 62
     7
 10
67.407659611301483
 20
-33.014575800352389
 30
0.0
 40
23.321944298558741
 50
266.28881364656843
 51
301.58910060604359
  0
LINE
  5
1A379
  8
KI
  6
CONTINUOUS
 62
     7
 10
79.624250781251817
 20
-49.835328696797312
 30
0.0
 11
79.624250781251817
 21
-52.880828241398923
 31
0.0
  0
LINE
  5
1A37A
  8
KI
  6
CONTINUOUS
 62
     7
 10
66.067532374930693
 20
-50.15101769833619
 30
0.0
 11
66.067532571357901
 21
-50.151017457234147
 31
0.0
  0
LINE
  5
1A37B
  8
KI
  6
CONTINUOUS
 62
     7
 10
69.112427715192212
 20
-49.335328696797298
 30
0.0
 11
79.124250781251817
 21
-49.335328696797312
 31
0.0
  0
ARC
  5
1A37C
  8
KI
  6
CONTINUOUS
 62
     7
 10
79.124250781251817
 20
-49.835328696797312
 30
0.0
 40
0.5
 50
359.99999999999829
 51
90.0
  0
ARC
  5
1A37D
  8
KI
  6
CONTINUOUS
 62
     7
 10
62.120573686666958
 20
-52.452821135863907
 30
0.0
 40
0.3
 50
73.716937057229643
 51
257.14909562687677
  0
ARC
  5
1A37E
  8
KI
  6
CONTINUOUS
 62
     7
 10
63.481404425159887
 20
-51.337369784705622
 30
0.0
 40
0.5
 50
319.32741197263817
 51
335.44260642604002
  0
ARC
  5
1A37F
  8
KI
  6
CONTINUOUS
 62
     7
 10
71.758267686683325
 20
-55.119364141677202
 30
0.0
 40
10.0
 50
160.1968242058378
 51
162.81541990369109
  0
ARC
  5
1A380
  8
KI
  6
CONTINUOUS
 62
     7
 10
62.455507232900459
 20
-51.450761146048627
 30
0.0
 40
0.3
 50
67.613299124407419
 51
249.3373552809833
  0
ARC
  5
1A381
  8
KI
  6
CONTINUOUS
 62
     7
 10
65.984276991822867
 20
-53.488097316274519
 30
0.0
 40
4.0
 50
244.29819125374499
 51
267.65265816413881
  0
ARC
  5
1A382
  8
KI
  6
CONTINUOUS
 62
     7
 10
71.758267686692875
 20
-55.119371179455001
 30
0.0
 40
8.7999999999999972
 50
164.1980865301324
 51
164.22396225264791
  0
ARC
  5
1A383
  8
KI
  6
CONTINUOUS
 62
     7
 10
63.984276991823769
 20
-56.952198931412212
 30
0.0
 40
0.3
 50
147.85090437317251
 51
332.1490956268604
  0
ARC
  5
1A384
  8
KI
  6
CONTINUOUS
 62
     7
 10
65.984276991822867
 20
-53.488097316274519
 30
0.0
 40
4.0
 50
229.29819125370301
 51
235.70180874629281
  0
ARC
  5
1A385
  8
KI
  6
CONTINUOUS
 62
     7
 10
63.15584986707573
 20
-56.316524441019382
 30
0.0
 40
0.3
 50
132.85090437312351
 51
317.14909562685301
  0
ARC
  5
1A386
  8
KI
  6
CONTINUOUS
 62
     7
 10
61.984276991822853
 20
-53.488097316276352
 30
0.0
 40
0.3
 50
87.850904373219379
 51
272.14909562685881
  0
ARC
  5
1A387
  8
KI
  6
CONTINUOUS
 62
     7
 10
62.120573686667392
 20
-54.523373496686958
 30
0.0
 40
0.3
 50
102.85090437317641
 51
287.14909562692998
  0
ARC
  5
1A388
  8
KI
  6
CONTINUOUS
 62
     7
 10
65.984276991822867
 20
-53.488097316274519
 30
0.0
 40
4.0
 50
199.29819125377301
 51
205.7018087462628
  0
ARC
  5
1A389
  8
KI
  6
CONTINUOUS
 62
     7
 10
62.520175376684719
 20
-55.48809731627361
 30
0.0
 40
0.3
 50
117.8509043731132
 51
302.1490956268803
  0
ARC
  5
1A38A
  8
KI
  6
CONTINUOUS
 62
     7
 10
65.984276991822867
 20
-53.488097316274519
 30
0.0
 40
4.0
 50
214.29819125372151
 51
220.70180874624359
  0
ARC
  5
1A38B
  8
KI
  6
CONTINUOUS
 62
     7
 10
65.984276991822867
 20
-53.488097316274519
 30
0.0
 40
4.0
 50
169.29819125371779
 51
175.7018087463002
  0
ARC
  5
1A38C
  8
KI
  6
CONTINUOUS
 62
     7
 10
65.98427699180013
 20
-53.488097316274519
 30
0.0
 40
4.0
 50
184.2981912537584
 51
190.70180874632001
  0
ARC
  5
1A38D
  8
KI
  6
CONTINUOUS
 62
     7
 10
65.984276991822867
 20
-53.488097316274519
 30
0.0
 40
2.799999999999998
 50
139.32741197264451
 51
267.65265816413881
  0
ARC
  5
1A38E
  8
KI
  6
CONTINUOUS
 62
     7
 10
69.147297677411302
 20
-56.584251778462288
 30
0.0
 40
7.2490069497939373
 50
90.275611457649703
 51
135.96157026528149
  0
ARC
  5
1A38F
  8
KI
  6
CONTINUOUS
 62
     7
 10
84.003530180457886
 20
-56.824296495892327
 30
0.0
 40
0.7573354118943643
 50
249.86775998205039
 51
53.905774485226729
  0
ARC
  5
1A390
  8
KI
  6
CONTINUOUS
 62
     7
 10
82.67466252111592
 20
-40.035866638894383
 30
0.0
 40
2.5000001067820641
 50
268.84468078613151
 51
348.47491455078188
  0
LINE
  5
1A391
  8
KI
  6
CONTINUOUS
 62
     7
 10
82.624234638748121
 20
-42.535353849319208
 30
0.0
 11
81.624250781250907
 21
-42.535353849319208
 31
0.0
  0
LINE
  5
1A392
  8
KI
  6
DASHED2
 62
     7
 10
83.624253491306376
 20
-40.035359210515352
 30
0.0
 11
82.624234638748121
 21
-41.285365278682193
 31
0.0
  0
LINE
  5
1A393
  8
KI
  6
DASHED2
 62
     7
 10
81.624215786190348
 20
-40.035359206566334
 30
0.0
 11
82.624234638748121
 21
-41.285365274733167
 31
0.0
  0
LINE
  5
1A394
  8
KI
  6
DASHED2
 62
     7
 10
83.624253491306376
 20
-29.03536180274169
 30
0.0
 11
83.624253491306376
 21
-40.035359210515352
 31
0.0
  0
LINE
  5
1A395
  8
KI
  6
DASHED2
 62
     7
 10
82.624234638748121
 20
-27.78535573457485
 30
0.0
 11
82.624234638748121
 21
-41.285365278682193
 31
0.0
  0
LINE
  5
1A396
  8
KI
  6
DASHED2
 62
     7
 10
82.624234638748121
 20
-27.78535573457485
 30
0.0
 11
81.624250781250907
 21
-29.03536180274169
 31
0.0
  0
LINE
  5
1A397
  8
KI
  6
DASHED2
 62
     7
 10
82.624234638748121
 20
-27.78535573457485
 30
0.0
 11
83.624253491306376
 21
-29.03536180274169
 31
0.0
  0
LINE
  5
1A398
  8
KI
  6
CONTINUOUS
 62
     7
 10
85.124246775082256
 20
-40.535368636794011
 30
0.0
 11
85.124246775082256
 21
-28.535352376463031
 31
0.0
  0
ARC
  5
1A399
  8
KI
  6
CONTINUOUS
 62
     7
 10
82.67466252111592
 20
-29.03485437436267
 30
0.0
 40
2.5000001067820641
 50
11.52507019042889
 51
91.155303955076519
  0
LINE
  5
1A39A
  8
KI
  6
CONTINUOUS
 62
     7
 10
82.624234638748121
 20
-26.53536716393829
 30
0.0
 11
81.624250781250907
 21
-26.53536716393829
 31
0.0
  0
ARC
  5
1A39B
  8
KI
  6
CONTINUOUS
 62
     7
 10
68.676439935844996
 20
-86.705025510888944
 30
0.0
 40
16.06232918379629
 50
100.9541706765956
 51
116.0435154452659
  0
LINE
  5
1A39C
  8
KI
  6
CONTINUOUS
 62
     7
 10
65.624215786190334
 20
-70.935360119736842
 30
0.0
 11
66.954222994392353
 21
-70.935360119736842
 31
0.0
  0
LINE
  5
1A39D
  8
KI
  6
DASHED2
 62
     7
 10
52.624215786190348
 20
-86.135360119737086
 30
0.0
 11
61.624215786190312
 21
-86.135360119737086
 31
0.0
  0
ARC
  5
1A39E
  8
KI
  6
DASHED2
 62
     7
 10
68.676439935844996
 20
-86.705025510888944
 30
0.0
 40
16.06232918379629
 50
116.0435154452659
 51
177.96752584043799
  0
LINE
  5
1A39F
  8
KI
  6
CONTINUOUS
 62
     7
 10
61.624215786190312
 20
-86.135360119737086
 30
0.0
 11
66.194221997032969
 21
-86.135360119737086
 31
0.0
  0
LINE
  5
1A3A0
  8
SU
  6
CONTINUOUS
 62
     3
 10
47.624215786190177
 20
-184.5353609779275
 30
0.0
 11
37.62421578619017
 21
-178.5353609779275
 31
0.0
  0
LINE
  5
1A3A1
  8
SU
  6
CONTINUOUS
 62
     3
 10
47.624215786190177
 20
-172.5353609779275
 30
0.0
 11
37.62421578619017
 21
-178.5353609779275
 31
0.0
  0
LINE
  5
1A3A2
  8
SU
  6
CONTINUOUS
 62
     3
 10
47.624215786190177
 20
-184.5353609779275
 30
0.0
 11
47.624215786190177
 21
-172.5353609779275
 31
0.0
  0
LINE
  5
1A3A3
  8
SU
  6
CONTINUOUS
 62
     3
 10
61.624215801777027
 20
-163.53536097792741
 30
0.0
 11
37.624215786190092
 21
-163.53536097792741
 31
0.0
  0
LINE
  5
1A3A4
  8
SU
  6
CONTINUOUS
 62
     3
 10
61.62421578619017
 20
-106.03536097794171
 30
0.0
 11
61.62421578619017
 21
-166.53536097792741
 31
0.0
  0
LINE
  5
1A3A5
  8
SU
  6
CONTINUOUS
 62
     3
 10
65.624215801777041
 20
-163.53536097792741
 30
0.0
 11
61.62421578619017
 21
-163.53536097792741
 31
0.0
  0
LINE
  5
1A3A6
  8
SU
  6
CONTINUOUS
 62
     3
 10
63.624215793983609
 20
-163.53536097792741
 30
0.0
 11
68.324215801777044
 21
-148.53536097792741
 31
0.0
  0
LINE
  5
1A3A7
  8
SU
  6
CONTINUOUS
 62
     3
 10
68.324215801777044
 20
-148.53536097792741
 30
0.0
 11
73.295644373205619
 21
-148.53536097792741
 31
0.0
  0
LINE
  5
1A3A8
  8
SU
  6
CONTINUOUS
 62
     3
 10
101.62421578619031
 20
-97.535360977926175
 30
0.0
 11
101.62421578619031
 21
-105.0353609779422
 31
0.0
  0
LINE
  5
1A3A9
  8
SU
  6
CONTINUOUS
 62
     3
 10
101.62421578619031
 20
-105.0353609779422
 30
0.0
 11
101.62421578619031
 21
-116.9915514541328
 31
0.0
  0
LINE
  5
1A3AA
  8
KI
  6
CONTINUOUS
 62
     7
 10
60.544215786190342
 20
-103.6153609779419
 30
0.0
 11
60.544215786190421
 21
-105.0253609779425
 31
0.0
  0
LINE
  5
1A3AB
  8
KI
  6
CONTINUOUS
 62
     7
 10
61.624215786190348
 20
-66.035360977942318
 30
0.0
 11
61.624215786190348
 21
-105.0253609779425
 31
0.0
  0
ARC
  5
1A3AC
  8
KI
  6
CONTINUOUS
 62
     7
 10
60.544215786190421
 20
-105.0253609779425
 30
0.0
 40
1.0800000000000001
 50
297.90344809752992
 51
0.0
  0
LINE
  5
1A3AD
  8
KI
  6
CONTINUOUS
 62
     7
 10
58.589637425159822
 20
-107.2824899501139
 30
0.0
 11
61.049637425118483
 21
-105.9797974435614
 31
0.0
  0
LINE
  5
1A3AE
  8
KI
  6
CONTINUOUS
 62
     7
 10
58.084215786190377
 20
-106.3280534845167
 30
0.0
 11
58.589637425159822
 21
-107.2824899501139
 31
0.0
  0
LINE
  5
1A3AF
  8
KI
  6
CONTINUOUS
 62
     7
 10
58.084215786190377
 20
-106.3280534845167
 30
0.0
 11
60.544215786190421
 21
-105.0253609779425
 31
0.0
  0
LINE
  5
1A3B0
  8
KI
  6
DASHED2
 62
     7
 10
51.67421578619053
 20
-87.485360977942605
 30
0.0
 11
51.67421578619053
 21
-76.299108364897265
 31
0.0
  0
LINE
  5
1A3B1
  8
KI
  6
DASHED2
 62
     7
 10
52.67421578619053
 20
-88.485360977942605
 30
0.0
 11
61.624215786190348
 21
-88.485360977942605
 31
0.0
  0
LINE
  5
1A3B2
  8
KI
  6
DASHED2
 62
     7
 10
52.67421578619053
 20
-84.065360977942504
 30
0.0
 11
61.624215786190348
 21
-84.065360977942504
 31
0.0
  0
ARC
  5
1A3B3
  8
KI
  6
DASHED2
 62
     7
 10
52.67421578619053
 20
-87.485360977942605
 30
0.0
 40
1.0
 50
180.0
 51
270.0
  0
ARC
  5
1A3B4
  8
KI
  6
DASHED2
 62
     7
 10
52.67421578619053
 20
-83.065360977942532
 30
0.0
 40
1.0
 50
180.0
 51
270.0
  0
LINE
  5
1A3B5
  8
KI
  6
DASHED2
 62
     7
 10
60.544215786190421
 20
-66.035360977942318
 30
0.0
 11
61.624215786190348
 21
-66.035360977942318
 31
0.0
  0
LINE
  5
1A3B6
  8
KI
  6
DASHED2
 62
     7
 10
60.544215786190421
 20
-66.035360977942318
 30
0.0
 11
60.544215786190342
 21
-103.6153609779419
 31
0.0
  0
LINE
  5
1A3B7
  8
KI
  6
DASHED2
 62
     7
 10
243.6241807911295
 20
-35.585352305766357
 30
0.0
 11
241.62417808107381
 21
-37.084085767359831
 31
0.0
  0
LINE
  5
1A3B8
  8
KI
  6
DASHED2
 62
     7
 10
243.6241807911295
 20
-33.485368707491588
 30
0.0
 11
241.62417808107381
 21
-31.9866352458981
 31
0.0
  0
LINE
  5
1A3B9
  8
KI
  6
DASHED2
 62
     7
 10
267.36811945810229
 20
-33.374889297134011
 30
0.0
 11
265.55149086574761
 21
-35.823966122721338
 31
0.0
  0
LINE
  5
1A3BA
  8
KI
  6
DASHED2
 62
     7
 10
268.47826776646281
 20
-33.374889297134011
 30
0.0
 11
266.66163917410751
 21
-35.823966122721338
 31
0.0
  0
LINE
  5
1A3BB
  8
KI
  6
DASHED2
 62
     7
 10
269.58845106988321
 20
-33.374889297134011
 30
0.0
 11
267.77182247752842
 21
-35.823966122721338
 31
0.0
  0
LINE
  5
1A3BC
  8
KI
  6
DASHED2
 62
     7
 10
270.69859937824282
 20
-33.374889297134011
 30
0.0
 11
268.8819707858882
 21
-35.823966122721338
 31
0.0
  0
LINE
  5
1A3BD
  8
KI
  6
DASHED2
 62
     7
 10
271.80874768660328
 20
-33.374889297134011
 30
0.0
 11
269.99211909424849
 21
-35.823966122721338
 31
0.0
  0
LINE
  5
1A3BE
  8
KI
  6
DASHED2
 62
     7
 10
272.9189309900238
 20
-33.374889297134011
 30
0.0
 11
271.10230239766889
 21
-35.823966122721338
 31
0.0
  0
LINE
  5
1A3BF
  8
KI
  6
DASHED2
 62
     7
 10
274.02907929838352
 20
-33.374889297134011
 30
0.0
 11
272.21245070602902
 21
-35.823966122721338
 31
0.0
  0
LINE
  5
1A3C0
  8
KI
  6
DASHED2
 62
     7
 10
275.13922760674382
 20
-33.374889297134011
 30
0.0
 11
273.32259901438903
 21
-35.823966122721338
 31
0.0
  0
LINE
  5
1A3C1
  8
KI
  6
DASHED2
 62
     7
 10
276.24941091016422
 20
-33.374889297134011
 30
0.0
 11
274.43278231780943
 21
-35.823966122721338
 31
0.0
  0
LINE
  5
1A3C2
  8
KI
  6
DASHED2
 62
     7
 10
277.35955921852411
 20
-33.374889297134011
 30
0.0
 11
275.54293062616972
 21
-35.823966122721338
 31
0.0
  0
LINE
  5
1A3C3
  8
KI
  6
DASHED2
 62
     7
 10
278.46974252194502
 20
-33.374889297134011
 30
0.0
 11
276.65311392959012
 21
-35.823966122721338
 31
0.0
  0
LINE
  5
1A3C4
  8
KI
  6
DASHED2
 62
     7
 10
264.03763953796192
 20
-33.374889297134011
 30
0.0
 11
262.22101094560719
 21
-35.823966122721338
 31
0.0
  0
LINE
  5
1A3C5
  8
KI
  6
DASHED2
 62
     7
 10
265.14778784632222
 20
-33.374889297134011
 30
0.0
 11
263.33115925396669
 21
-35.823966122721338
 31
0.0
  0
LINE
  5
1A3C6
  8
KI
  6
DASHED2
 62
     7
 10
266.257936154682
 20
-33.374889297134011
 30
0.0
 11
264.44130756232721
 21
-35.823966122721338
 31
0.0
  0
LINE
  5
1A3C7
  8
KI
  6
DASHED2
 62
     7
 10
260.70712462276077
 20
-33.374889297133997
 30
0.0
 11
258.89053102546649
 21
-35.82396612272133
 31
0.0
  0
LINE
  5
1A3C8
  8
KI
  6
DASHED2
 62
     7
 10
261.8173079261818
 20
-33.374889297134011
 30
0.0
 11
260.00067933382638
 21
-35.82396612272133
 31
0.0
  0
LINE
  5
1A3C9
  8
KI
  6
DASHED2
 62
     7
 10
262.92745623454152
 20
-33.374889297134011
 30
0.0
 11
261.11082764218662
 21
-35.82396612272133
 31
0.0
  0
LINE
  5
1A3CA
  8
KI
  6
DASHED2
 62
     7
 10
267.36811945810229
 20
-33.37488930108303
 30
0.0
 11
265.55149086574761
 21
-35.823966126670364
 31
0.0
  0
LINE
  5
1A3CB
  8
KI
  6
DASHED2
 62
     7
 10
268.47826776646281
 20
-33.37488930108303
 30
0.0
 11
266.66163917410751
 21
-35.823966126670364
 31
0.0
  0
LINE
  5
1A3CC
  8
KI
  6
DASHED2
 62
     7
 10
269.58845106988321
 20
-33.37488930108303
 30
0.0
 11
267.77182247752842
 21
-35.823966126670364
 31
0.0
  0
LINE
  5
1A3CD
  8
KI
  6
DASHED2
 62
     7
 10
270.69859937824282
 20
-33.37488930108303
 30
0.0
 11
268.8819707858882
 21
-35.823966126670364
 31
0.0
  0
LINE
  5
1A3CE
  8
KI
  6
DASHED2
 62
     7
 10
271.80874768660328
 20
-33.37488930108303
 30
0.0
 11
269.99211909424849
 21
-35.823966126670364
 31
0.0
  0
LINE
  5
1A3CF
  8
KI
  6
DASHED2
 62
     7
 10
272.9189309900238
 20
-33.37488930108303
 30
0.0
 11
271.10230239766889
 21
-35.823966126670364
 31
0.0
  0
LINE
  5
1A3D0
  8
KI
  6
DASHED2
 62
     7
 10
274.02907929838352
 20
-33.37488930108303
 30
0.0
 11
272.21245070602902
 21
-35.823966126670364
 31
0.0
  0
LINE
  5
1A3D1
  8
KI
  6
DASHED2
 62
     7
 10
275.13922760674382
 20
-33.37488930108303
 30
0.0
 11
273.32259901438903
 21
-35.823966126670364
 31
0.0
  0
LINE
  5
1A3D2
  8
KI
  6
DASHED2
 62
     7
 10
276.24941091016422
 20
-33.37488930108303
 30
0.0
 11
274.43278231780943
 21
-35.823966126670364
 31
0.0
  0
LINE
  5
1A3D3
  8
KI
  6
DASHED2
 62
     7
 10
277.35955921852411
 20
-33.37488930108303
 30
0.0
 11
275.54293062616972
 21
-35.823966126670364
 31
0.0
  0
LINE
  5
1A3D4
  8
KI
  6
DASHED2
 62
     7
 10
278.46974252194502
 20
-33.37488930108303
 30
0.0
 11
276.65311392959012
 21
-35.823966126670364
 31
0.0
  0
LINE
  5
1A3D5
  8
KI
  6
DASHED2
 62
     7
 10
279.57989083030532
 20
-33.37488930108303
 30
0.0
 11
277.7632622379499
 21
-35.823966126670364
 31
0.0
  0
LINE
  5
1A3D6
  8
KI
  6
DASHED2
 62
     7
 10
280.6900391386651
 20
-33.37488930108303
 30
0.0
 11
278.8734105463102
 21
-35.823966126670364
 31
0.0
  0
LINE
  5
1A3D7
  8
KI
  6
DASHED2
 62
     7
 10
281.8002224420855
 20
-33.37488930108303
 30
0.0
 11
279.98359384973071
 21
-35.823966126670364
 31
0.0
  0
LINE
  5
1A3D8
  8
KI
  6
DASHED2
 62
     7
 10
282.91037075044562
 20
-33.37488930108303
 30
0.0
 11
281.09374215809038
 21
-35.823966126670364
 31
0.0
  0
LINE
  5
1A3D9
  8
KI
  6
DASHED2
 62
     7
 10
243.6241807911295
 20
-33.485368707491588
 30
0.0
 11
281.73880611067989
 21
-33.485368707491588
 31
0.0
  0
LINE
  5
1A3DA
  8
KI
  6
DASHED2
 62
     7
 10
281.73880611067989
 20
-33.485368707491588
 30
0.0
 11
290.32711891514901
 21
-34.53089863639854
 31
0.0
  0
LINE
  5
1A3DB
  8
KI
  6
DASHED2
 62
     7
 10
281.73880611067989
 20
-35.585352305766371
 30
0.0
 11
290.32711891514901
 21
-34.539822376859412
 31
0.0
  0
LINE
  5
1A3DC
  8
KI
  6
DASHED2
 62
     7
 10
243.6241807911295
 20
-35.585352305766357
 30
0.0
 11
281.73880611067989
 21
-35.585352305766371
 31
0.0
  0
LINE
  5
1A3DD
  8
KI
  6
DASHED2
 62
     7
 10
264.03763953796192
 20
-33.37488930108303
 30
0.0
 11
262.22101094560719
 21
-35.823966126670364
 31
0.0
  0
LINE
  5
1A3DE
  8
KI
  6
DASHED2
 62
     7
 10
265.14778784632222
 20
-33.37488930108303
 30
0.0
 11
263.33115925396748
 21
-35.823966126670364
 31
0.0
  0
LINE
  5
1A3DF
  8
KI
  6
DASHED2
 62
     7
 10
266.257936154682
 20
-33.37488930108303
 30
0.0
 11
264.44130756232721
 21
-35.823966126670364
 31
0.0
  0
LINE
  5
1A3E0
  8
KI
  6
DASHED2
 62
     7
 10
260.70712462276077
 20
-33.37488930108303
 30
0.0
 11
258.89053102546649
 21
-35.823966126670349
 31
0.0
  0
LINE
  5
1A3E1
  8
KI
  6
DASHED2
 62
     7
 10
261.8173079261818
 20
-33.37488930108303
 30
0.0
 11
260.00067933382638
 21
-35.823966126670349
 31
0.0
  0
LINE
  5
1A3E2
  8
KI
  6
DASHED2
 62
     7
 10
262.92745623454152
 20
-33.37488930108303
 30
0.0
 11
261.11082764218662
 21
-35.823966126670349
 31
0.0
  0
LINE
  5
1A3E3
  8
KI
  6
CENTER2
 62
     7
 10
237.2692177609953
 20
-34.535360506628969
 30
0.0
 11
295.73941999709751
 21
-34.535360506628983
 31
0.0
  0
LINE
  5
1A3E4
  8
KI
  6
CONTINUOUS
 62
     7
 10
268.12421578619012
 20
-28.535361739878319
 30
0.0
 11
268.12421578619012
 21
-40.53535926548065
 31
0.0
  0
LINE
  5
1A3E5
  8
KI
  6
CONTINUOUS
 62
     7
 10
268.12421578619012
 20
-40.53535926548065
 30
0.0
 11
263.62421578619012
 21
-40.53535926548065
 31
0.0
  0
LINE
  5
1A3E6
  8
KI
  6
CONTINUOUS
 62
     7
 10
263.62421578619012
 20
-40.535359265480238
 30
0.0
 11
263.62421578619012
 21
-46.53535926548021
 31
0.0
  0
LINE
  5
1A3E7
  8
KI
  6
CONTINUOUS
 62
     7
 10
268.12421578619012
 20
-28.535361739878319
 30
0.0
 11
263.62421578619012
 21
-28.535361739878319
 31
0.0
  0
LINE
  5
1A3E8
  8
KI
  6
CONTINUOUS
 62
     7
 10
263.62421578619012
 20
-22.535361739878319
 30
0.0
 11
263.62421578619012
 21
-28.535361739878301
 31
0.0
  0
LINE
  5
1A3E9
  8
KI
  6
CONTINUOUS
 62
     7
 10
263.62421578619012
 20
-22.535361739878319
 30
0.0
 11
243.62421578619009
 21
-22.535361739878319
 31
0.0
  0
LINE
  5
1A3EA
  8
KI
  6
CONTINUOUS
 62
     7
 10
243.62421578619009
 20
-22.535361739878319
 30
0.0
 11
243.62421578619009
 21
-46.535359265480203
 31
0.0
  0
LINE
  5
1A3EB
  8
KI
  6
CONTINUOUS
 62
     7
 10
263.62421578619012
 20
-46.53535926548021
 30
0.0
 11
243.62421578619009
 21
-46.535359265480203
 31
0.0
  0
LINE
  5
1A3EC
  8
KI
  6
CONTINUOUS
 62
     7
 10
243.6241807911295
 20
-47.03536526548087
 30
0.0
 11
243.62418079112911
 21
-49.261457996709488
 31
0.0
  0
ARC
  5
1A3ED
  8
KI
  6
CONTINUOUS
 62
     7
 10
255.18505668127929
 20
-56.543388315136418
 30
0.0
 40
9.2190722294335075
 50
35.625868175516771
 51
87.195312659551448
  0
LINE
  5
1A3EE
  8
KI
  6
CONTINUOUS
 62
     7
 10
245.7911855165315
 20
-46.535359265479741
 30
0.0
 11
245.62418079112771
 21
-46.702363990883541
 31
0.0
  0
LINE
  5
1A3EF
  8
KI
  6
CONTINUOUS
 62
     7
 10
246.48921112863701
 20
-46.735359265480483
 30
0.0
 11
245.88920512863771
 21
-47.335365265480597
 31
0.0
  0
LINE
  5
1A3F0
  8
KI
  6
CONTINUOUS
 62
     7
 10
246.68921112863799
 20
-46.53535926548021
 30
0.0
 11
246.48921112863721
 21
-46.735359265480483
 31
0.0
  0
LINE
  5
1A3F1
  8
KI
  6
CONTINUOUS
 62
     7
 10
247.3872367407447
 20
-46.735359265480483
 30
0.0
 11
246.7872307407446
 21
-47.335365265480597
 31
0.0
  0
LINE
  5
1A3F2
  8
KI
  6
CONTINUOUS
 62
     7
 10
247.5872367407448
 20
-46.535359265479741
 30
0.0
 11
247.3872367407447
 21
-46.735359265480483
 31
0.0
  0
LINE
  5
1A3F3
  8
KI
  6
CONTINUOUS
 62
     7
 10
248.2852623528513
 20
-46.735359265480483
 30
0.0
 11
247.6852563528513
 21
-47.335365265480597
 31
0.0
  0
LINE
  5
1A3F4
  8
KI
  6
CONTINUOUS
 62
     7
 10
248.48526235285149
 20
-46.535359265479741
 30
0.0
 11
248.2852623528513
 21
-46.735359265480483
 31
0.0
  0
LINE
  5
1A3F5
  8
KI
  6
CONTINUOUS
 62
     7
 10
249.1832879649584
 20
-46.735359265480483
 30
0.0
 11
248.58328196495799
 21
-47.335365265480142
 31
0.0
  0
LINE
  5
1A3F6
  8
KI
  6
CONTINUOUS
 62
     7
 10
249.38328796495881
 20
-46.535359265479741
 30
0.0
 11
249.1832879649584
 21
-46.735359265480483
 31
0.0
  0
LINE
  5
1A3F7
  8
KI
  6
CONTINUOUS
 62
     7
 10
250.0813135770652
 20
-46.735359265481378
 30
0.0
 11
249.48130757706559
 21
-47.335365265481059
 31
0.0
  0
LINE
  5
1A3F8
  8
KI
  6
CONTINUOUS
 62
     7
 10
250.28131357706599
 20
-46.53535926548065
 30
0.0
 11
250.0813135770652
 21
-46.73535926548093
 31
0.0
  0
LINE
  5
1A3F9
  8
KI
  6
CONTINUOUS
 62
     7
 10
250.97933918917181
 20
-46.735359265481378
 30
0.0
 11
250.62418079112831
 21
-47.090517663524317
 31
0.0
  0
LINE
  5
1A3FA
  8
KI
  6
CONTINUOUS
 62
     7
 10
250.62418079112831
 20
-47.090517663524317
 30
0.0
 11
250.39996865545359
 21
-47.314729799199633
 31
0.0
  0
LINE
  5
1A3FB
  8
KI
  6
CONTINUOUS
 62
     7
 10
251.17933918917231
 20
-46.535359265481112
 30
0.0
 11
250.97933918917181
 21
-46.73535926548093
 31
0.0
  0
LINE
  5
1A3FC
  8
KI
  6
CONTINUOUS
 62
     7
 10
251.8773648012789
 20
-46.73535926548093
 30
0.0
 11
251.27736480127999
 21
-47.335359265480392
 31
0.0
  0
LINE
  5
1A3FD
  8
KI
  6
CONTINUOUS
 62
     7
 10
252.077364801279
 20
-46.535359265481112
 30
0.0
 11
251.8773648012789
 21
-46.73535926548093
 31
0.0
  0
LINE
  5
1A3FE
  8
KI
  6
CONTINUOUS
 62
     7
 10
252.7753904133863
 20
-46.73535926548093
 30
0.0
 11
252.175390413386
 21
-47.335359265480847
 31
0.0
  0
LINE
  5
1A3FF
  8
KI
  6
CONTINUOUS
 62
     7
 10
252.97539041338601
 20
-46.53535926548065
 30
0.0
 11
252.7753904133863
 21
-46.73535926548093
 31
0.0
  0
LINE
  5
1A400
  8
KI
  6
CONTINUOUS
 62
     7
 10
253.6241807911284
 20
-46.784594499844943
 30
0.0
 11
253.07341602549269
 21
-47.335359265480847
 31
0.0
  0
LINE
  5
1A401
  8
KI
  6
CONTINUOUS
 62
     7
 10
253.6241807911284
 20
-46.53535926548065
 30
0.0
 11
253.6241807911284
 21
-47.335359265480847
 31
0.0
  0
LINE
  5
1A402
  8
KI
  6
CONTINUOUS
 62
     7
 10
245.6241807911295
 20
-46.53535926548021
 30
0.0
 11
245.62418079112831
 21
-47.335365265481059
 31
0.0
  0
LINE
  5
1A403
  8
KI
  6
CONTINUOUS
 62
     7
 10
254.63615954339829
 20
-47.335359265481301
 30
0.0
 11
250.87419079112919
 21
-47.335359265480847
 31
0.0
  0
LINE
  5
1A404
  8
KI
  6
CONTINUOUS
 62
     7
 10
250.6241907911288
 20
-47.135359265480567
 30
0.0
 11
250.37418079112871
 21
-47.335359265480847
 31
0.0
  0
LINE
  5
1A405
  8
KI
  6
CONTINUOUS
 62
     7
 10
250.6241907911288
 20
-47.135365265480317
 30
0.0
 11
250.87419079112919
 21
-47.335359265480847
 31
0.0
  0
LINE
  5
1A406
  8
KI
  6
CONTINUOUS
 62
     7
 10
250.3741907911288
 20
-47.335365265481059
 30
0.0
 11
244.6241807911295
 21
-47.335365265481059
 31
0.0
  0
ARC
  5
1A407
  8
KI
  6
CONTINUOUS
 62
     7
 10
255.33615954339879
 20
-47.03535926548065
 30
0.0
 40
0.3
 50
359.99999999991371
 51
89.999999999651507
  0
LINE
  5
1A408
  8
KI
  6
CONTINUOUS
 62
     7
 10
255.63615954339841
 20
-47.335359265480847
 30
0.0
 11
255.6361595433988
 21
-47.03535926548065
 31
0.0
  0
ARC
  5
1A409
  8
KI
  6
CONTINUOUS
 62
     7
 10
254.93615954339961
 20
-47.035359265477929
 30
0.0
 40
0.3
 50
89.999999999651507
 51
179.9999999999136
  0
LINE
  5
1A40A
  8
KI
  6
CONTINUOUS
 62
     7
 10
255.33615954339879
 20
-46.735359265480483
 30
0.0
 11
254.93615954339961
 21
-46.735359265478202
 31
0.0
  0
ARC
  5
1A40B
  8
KI
  6
CONTINUOUS
 62
     7
 10
244.32418079112909
 20
-47.035359265477929
 30
0.0
 40
0.3
 50
359.99999999991371
 51
89.999999999651507
  0
ARC
  5
1A40C
  8
KI
  6
CONTINUOUS
 62
     7
 10
243.9241807911296
 20
-47.03535926547611
 30
0.0
 40
0.3
 50
89.999999999651507
 51
179.9999999999136
  0
LINE
  5
1A40D
  8
KI
  6
CONTINUOUS
 62
     7
 10
244.32418079112909
 20
-46.735359265478657
 30
0.0
 11
243.9241807911296
 21
-46.735359265475921
 31
0.0
  0
LINE
  5
1A40E
  8
KI
  6
CONTINUOUS
 62
     7
 10
244.6241807911295
 20
-47.335365265481059
 30
0.0
 11
244.6241807911295
 21
-47.035359265477929
 31
0.0
  0
LINE
  5
1A40F
  8
KI
  6
CONTINUOUS
 62
     7
 10
254.636159543399
 20
-47.035359265477929
 30
0.0
 11
254.63615954339829
 21
-47.335359265481301
 31
0.0
  0
LINE
  5
1A410
  8
KI
  6
CONTINUOUS
 62
     7
 10
253.6241807911284
 20
-46.53535926548065
 30
0.0
 11
245.6241807911295
 21
-46.53535926548021
 31
0.0
  0
ARC
  5
1A411
  8
KI
  6
CONTINUOUS
 62
     7
 10
245.06502273421481
 20
-54.528758114880112
 30
0.0
 40
0.5
 50
59.296923400935462
 51
153.98093263770701
  0
ARC
  5
1A412
  8
KI
  6
CONTINUOUS
 62
     7
 10
238.07685638957801
 20
-51.117522391129647
 30
0.0
 40
7.2763100519022599
 50
298.11323276635829
 51
333.98093263770693
  0
ARC
  5
1A413
  8
KI
  6
CONTINUOUS
 62
     7
 10
257.84077196107881
 20
-33.014575800352389
 30
0.0
 40
24.521586859558742
 50
239.2969234009355
 51
273.71118635343129
  0
ARC
  5
1A414
  8
KI
  6
CONTINUOUS
 62
     7
 10
238.07685638957801
 20
-51.117522391129647
 30
0.0
 40
5.776310051902259
 50
298.11323276635829
 51
343.81317179960399
  0
LINE
  5
1A415
  8
KI
  6
CONTINUOUS
 62
     7
 10
243.6241807911282
 20
-49.261457996709488
 30
0.0
 11
243.6241807911299
 21
-52.727786282437663
 31
0.0
  0
ARC
  5
1A416
  8
KI
  6
CONTINUOUS
 62
     7
 10
257.84077196107881
 20
-33.014575800352389
 30
0.0
 40
23.321944298558741
 50
238.41089939395661
 51
273.71118635343129
  0
LINE
  5
1A417
  8
KI
  6
CONTINUOUS
 62
     7
 10
245.62418079112831
 20
-49.835328696797312
 30
0.0
 11
245.62418079112831
 21
-52.880828241398923
 31
0.0
  0
LINE
  5
1A418
  8
KI
  6
CONTINUOUS
 62
     7
 10
259.18089919744961
 20
-50.15101769833619
 30
0.0
 11
259.18089900102228
 21
-50.151017457234147
 31
0.0
  0
LINE
  5
1A419
  8
KI
  6
CONTINUOUS
 62
     7
 10
256.1360038571882
 20
-49.335328696797298
 30
0.0
 11
246.12418079112831
 21
-49.335328696797298
 31
0.0
  0
ARC
  5
1A41A
  8
KI
  6
CONTINUOUS
 62
     7
 10
246.12418079112831
 20
-49.835328696797312
 30
0.0
 40
0.5
 50
90.0
 51
180.00000000000151
  0
ARC
  5
1A41B
  8
KI
  6
CONTINUOUS
 62
     7
 10
263.12785788571352
 20
-52.452821135863907
 30
0.0
 40
0.3
 50
282.850904373123
 51
106.2830629427703
  0
ARC
  5
1A41C
  8
KI
  6
CONTINUOUS
 62
     7
 10
261.7670271472204
 20
-51.337369784705622
 30
0.0
 40
0.5
 50
204.55739357395959
 51
220.6725880273606
  0
ARC
  5
1A41D
  8
KI
  6
CONTINUOUS
 62
     7
 10
253.4901638856968
 20
-55.119364141677202
 30
0.0
 40
10.0
 50
17.184580096308611
 51
19.803175794162041
  0
ARC
  5
1A41E
  8
KI
  6
CONTINUOUS
 62
     7
 10
262.79292433948001
 20
-51.450761146048627
 30
0.0
 40
0.3
 50
290.66264471901661
 51
112.3867008755925
  0
ARC
  5
1A41F
  8
KI
  6
CONTINUOUS
 62
     7
 10
259.2641545805576
 20
-53.488097316274519
 30
0.0
 40
4.0
 50
272.34734183586102
 51
295.70180874625493
  0
ARC
  5
1A420
  8
KI
  6
CONTINUOUS
 62
     7
 10
253.49016388568751
 20
-55.119371179455001
 30
0.0
 40
8.7999999999999972
 50
15.77603774735214
 51
15.80191346986744
  0
ARC
  5
1A421
  8
KI
  6
CONTINUOUS
 62
     7
 10
261.26415458055641
 20
-56.952198931412212
 30
0.0
 40
0.3
 50
207.8509043731396
 51
32.14909562682768
  0
ARC
  5
1A422
  8
KI
  6
CONTINUOUS
 62
     7
 10
259.2641545805576
 20
-53.488097316274519
 30
0.0
 40
4.0
 50
304.29819125370682
 51
310.7018087462971
  0
ARC
  5
1A423
  8
KI
  6
CONTINUOUS
 62
     7
 10
262.09258170530472
 20
-56.316524441019382
 30
0.0
 40
0.3
 50
222.85090437314639
 51
47.149095626876061
  0
ARC
  5
1A424
  8
KI
  6
CONTINUOUS
 62
     7
 10
263.26415458055732
 20
-53.488097316276352
 30
0.0
 40
0.3
 50
267.85090437314102
 51
92.149095626780564
  0
ARC
  5
1A425
  8
KI
  6
CONTINUOUS
 62
     7
 10
263.12785788571301
 20
-54.523373496686958
 30
0.0
 40
0.3
 50
252.8509043730698
 51
77.149095626823382
  0
ARC
  5
1A426
  8
KI
  6
CONTINUOUS
 62
     7
 10
259.2641545805576
 20
-53.488097316274519
 30
0.0
 40
4.0
 50
334.29819125373621
 51
340.70180874622662
  0
ARC
  5
1A427
  8
KI
  6
CONTINUOUS
 62
     7
 10
262.72825619569562
 20
-55.48809731627361
 30
0.0
 40
0.3
 50
237.85090437311931
 51
62.149095626886691
  0
ARC
  5
1A428
  8
KI
  6
CONTINUOUS
 62
     7
 10
259.2641545805576
 20
-53.488097316274519
 30
0.0
 40
4.0
 50
319.29819125375622
 51
325.70180874627903
  0
ARC
  5
1A429
  8
KI
  6
CONTINUOUS
 62
     7
 10
259.2641545805576
 20
-53.488097316274519
 30
0.0
 40
4.0
 50
4.298191253699688
 51
10.70180874628195
  0
ARC
  5
1A42A
  8
KI
  6
CONTINUOUS
 62
     7
 10
259.26415458058023
 20
-53.488097316274519
 30
0.0
 40
4.0
 50
349.29819125367982
 51
355.70180874624123
  0
ARC
  5
1A42B
  8
KI
  6
CONTINUOUS
 62
     7
 10
259.2641545805576
 20
-53.488097316274519
 30
0.0
 40
2.799999999999998
 50
272.34734183586102
 51
40.672588027355467
  0
ARC
  5
1A42C
  8
KI
  6
CONTINUOUS
 62
     7
 10
256.10113389496911
 20
-56.584251778462288
 30
0.0
 40
7.2490069497939373
 50
44.038429734718477
 51
89.724388542350269
  0
ARC
  5
1A42D
  8
KI
  6
CONTINUOUS
 62
     7
 10
241.24490139192241
 20
-56.824296495892312
 30
0.0
 40
0.7573354118943643
 50
126.0942255147736
 51
290.13224001794953
  0
ARC
  5
1A42E
  8
KI
  6
CONTINUOUS
 62
     7
 10
242.57376905126441
 20
-40.035866638894369
 30
0.0
 40
2.5000001067820641
 50
191.52508544921761
 51
271.1553192138681
  0
LINE
  5
1A42F
  8
KI
  6
CONTINUOUS
 62
     7
 10
242.62419693363231
 20
-42.535353849319208
 30
0.0
 11
243.6241807911295
 21
-42.535353849319208
 31
0.0
  0
LINE
  5
1A430
  8
KI
  6
DASHED2
 62
     7
 10
241.62417808107381
 20
-40.035359210515317
 30
0.0
 11
242.62419693363231
 21
-41.285365278682171
 31
0.0
  0
LINE
  5
1A431
  8
KI
  6
DASHED2
 62
     7
 10
243.62421578619009
 20
-40.035359206566319
 30
0.0
 11
242.62419693363231
 21
-41.285365274733159
 31
0.0
  0
LINE
  5
1A432
  8
KI
  6
DASHED2
 62
     7
 10
241.62417808107381
 20
-29.035361802741669
 30
0.0
 11
241.62417808107381
 21
-40.035359210515317
 31
0.0
  0
LINE
  5
1A433
  8
KI
  6
DASHED2
 62
     7
 10
242.62419693363231
 20
-27.785355734574829
 30
0.0
 11
242.62419693363231
 21
-41.285365278682171
 31
0.0
  0
LINE
  5
1A434
  8
KI
  6
DASHED2
 62
     7
 10
242.62419693363231
 20
-27.785355734574829
 30
0.0
 11
243.6241807911295
 21
-29.035361802741669
 31
0.0
  0
LINE
  5
1A435
  8
KI
  6
DASHED2
 62
     7
 10
242.62419693363231
 20
-27.785355734574829
 30
0.0
 11
241.62417808107381
 21
-29.035361802741669
 31
0.0
  0
LINE
  5
1A436
  8
KI
  6
CONTINUOUS
 62
     7
 10
240.1241847972982
 20
-40.535368636794011
 30
0.0
 11
240.1241847972982
 21
-28.53535237646301
 31
0.0
  0
ARC
  5
1A437
  8
KI
  6
CONTINUOUS
 62
     7
 10
242.57376905126441
 20
-29.034854374362641
 30
0.0
 40
2.5000001067820641
 50
88.844696044923452
 51
168.47492980957091
  0
LINE
  5
1A438
  8
KI
  6
CONTINUOUS
 62
     7
 10
242.62419693363231
 20
-26.535367163938279
 30
0.0
 11
243.6241807911295
 21
-26.535367163938279
 31
0.0
  0
LINE
  5
1A439
  8
KI
  6
DASHED2
 62
     7
 10
253.62421578619009
 20
-64.535360973993292
 30
0.0
 11
253.62421578619009
 21
-97.535360973993278
 31
0.0
  0
LINE
  5
1A43A
  8
KI
  6
DASHED2
 62
     7
 10
259.62421578619012
 20
-64.535360973993292
 30
0.0
 11
253.62421578619009
 21
-64.535360973993292
 31
0.0
  0
LINE
  5
1A43B
  8
KI
  6
DASHED2
 62
     7
 10
247.62421578619009
 20
-94.785360973993264
 30
0.0
 11
253.62421578619009
 21
-94.785360973993264
 31
0.0
  0
LINE
  5
1A43C
  8
KI
  6
DASHED2
 62
     7
 10
247.62421578619009
 20
-67.285360973993292
 30
0.0
 11
253.62421578619009
 21
-67.285360973993292
 31
0.0
  0
LINE
  5
1A43D
  8
KI
  6
DASHED2
 62
     7
 10
241.62421578619009
 20
-69.035360973993292
 30
0.0
 11
247.62421578619009
 21
-69.035360973993292
 31
0.0
  0
LINE
  5
1A43E
  8
KI
  6
DASHED2
 62
     7
 10
241.62421578619009
 20
-93.035360973993278
 30
0.0
 11
247.62421578619009
 21
-93.035360973993278
 31
0.0
  0
LINE
  5
1A43F
  8
KI
  6
DASHED2
 62
     7
 10
247.62421578619009
 20
-67.285360973993292
 30
0.0
 11
247.62421578619009
 21
-94.785360973993264
 31
0.0
  0
LINE
  5
1A440
  8
KI
  6
DASHED2
 62
     7
 10
241.62421578619009
 20
-69.035360973993292
 30
0.0
 11
241.62421578619009
 21
-93.035360973993278
 31
0.0
  0
CIRCLE
  5
1A441
  8
KI
  6
CONTINUOUS
 62
     7
 10
260.62421578619012
 20
-115.53536097399321
 30
0.0
 40
3.1931342056999981
  0
CIRCLE
  5
1A442
  8
KI
  6
CONTINUOUS
 62
     7
 10
260.62421578619012
 20
-115.53536097399321
 30
0.0
 40
4.0
  0
CIRCLE
  5
1A443
  8
KI
  6
CONTINUOUS
 62
     7
 10
260.62421578619012
 20
-115.53536097399321
 30
0.0
 40
6.939104820999999
  0
CIRCLE
  5
1A444
  8
KI
  6
CONTINUOUS
 62
     7
 10
260.62421578619012
 20
-115.53536097399321
 30
0.0
 40
8.0
  0
LINE
  5
1A445
  8
KI
  6
CONTINUOUS
 62
     7
 10
263.62421578619012
 20
-61.035360973993292
 30
0.0
 11
263.62421578619012
 21
-108.11916248689749
 31
0.0
  0
LINE
  5
1A446
  8
KI
  6
CONTINUOUS
 62
     7
 10
261.32421578618982
 20
-61.035360973993292
 30
0.0
 11
261.32421578618982
 21
-107.56604481763461
 31
0.0
  0
LINE
  5
1A447
  8
KI
  6
CONTINUOUS
 62
     7
 10
259.74417349494109
 20
-107.5839129570834
 30
0.0
 11
258.63203005991829
 21
-97.535360973993335
 31
0.0
  0
LINE
  5
1A448
  8
KI
  6
CONTINUOUS
 62
     7
 10
257.49528701439192
 20
-108.172630180258
 30
0.0
 11
256.31798613221241
 21
-97.535360973993335
 31
0.0
  0
LINE
  5
1A449
  8
KI
  6
CONTINUOUS
 62
     7
 10
263.62421578619012
 20
-61.035360973993292
 30
0.0
 11
261.32421578618982
 21
-61.035360973993292
 31
0.0
  0
LINE
  5
1A44A
  8
SU
  6
CONTINUOUS
 62
     3
 10
37.62421578619017
 20
-106.0353609779422
 30
0.0
 11
37.62421578619017
 21
-181.5353609779275
 31
0.0
  0
LINE
  5
1A44B
  8
SU
  6
CONTINUOUS
 62
     3
 10
287.62421578618989
 20
-106.0353609779422
 30
0.0
 11
287.62421578618989
 21
-181.5353609779275
 31
0.0
  0
LINE
  5
1A44C
  8
SU
  6
CONTINUOUS
 62
     3
 10
37.62421578619017
 20
-178.5353609779275
 30
0.0
 11
287.62421578618989
 21
-178.5353609779275
 31
0.0
  0
LINE
  5
1A44D
  8
SU
  6
CONTINUOUS
 62
     3
 10
263.62421578619012
 20
-106.03536097794171
 30
0.0
 11
263.62421578619012
 21
-166.53536097792741
 31
0.0
  0
LINE
  5
1A44E
  8
SU
  6
CONTINUOUS
 62
     3
 10
259.62421577060343
 20
-163.53536097792741
 30
0.0
 11
263.62421578619012
 21
-163.53536097792741
 31
0.0
  0
LINE
  5
1A44F
  8
SU
  6
CONTINUOUS
 62
     3
 10
261.62421577839672
 20
-163.53536097792741
 30
0.0
 11
256.92421577060338
 21
-148.53536097792741
 31
0.0
  0
LINE
  5
1A450
  8
SU
  6
CONTINUOUS
 62
     3
 10
256.92421577060338
 20
-148.53536097792741
 30
0.0
 11
251.95278719917471
 21
-148.53536097792741
 31
0.0
  0
LINE
  5
1A451
  8
SU
  6
CONTINUOUS
 62
     3
 10
259.62421577060343
 20
-98.535360977927567
 30
0.0
 11
259.62421577060343
 21
-166.53536097792741
 31
0.0
  0
LINE
  5
1A452
  8
SU
  6
CONTINUOUS
 62
     3
 10
65.624215801777254
 20
-98.535360977927567
 30
0.0
 11
65.624215801777254
 21
-166.53536097792741
 31
0.0
  0
LINE
  5
1A453
  8
SU
  6
CONTINUOUS
 62
     3
 10
259.62421577060343
 20
-163.53536097792741
 30
0.0
 11
65.624215801777254
 21
-163.53536097792741
 31
0.0
  0
LINE
  5
1A454
  8
SU
  6
CONTINUOUS
 62
     3
 10
-336.6301274354733
 20
66.92750074568653
 30
0.0
 11
-334.23012743547298
 21
66.92750074568653
 31
0.0
  0
LINE
  5
1A455
  8
SU
  6
CONTINUOUS
 62
     3
 10
-342.03012743547112
 20
66.92750074568653
 30
0.0
 11
-351.6434607688044
 21
66.92750074568653
 31
0.0
  0
LINE
  5
1A456
  8
SU
  6
CONTINUOUS
 62
     3
 10
-339.0301274354731
 20
66.92750074568653
 30
0.0
 11
-342.03012743547112
 21
66.92750074568653
 31
0.0
  0
LINE
  5
1A457
  8
SU
  6
CONTINUOUS
 62
     3
 10
-364.03012743547112
 20
-83.068655924727196
 30
0.0
 11
-380.03012743546918
 21
-83.068655924727196
 31
0.0
  0
LINE
  5
1A458
  8
SU
  6
CONTINUOUS
 62
     3
 10
-247.5301291479332
 20
-48.068653096843491
 30
0.0
 11
-380.03012743546918
 21
-48.068653096843448
 31
0.0
  0
LINE
  5
1A459
  8
SU
  6
CONTINUOUS
 62
     3
 10
-377.0301274354693
 20
-83.068655924727196
 30
0.0
 11
-377.0301274354693
 21
-48.068653096843448
 31
0.0
  0
LINE
  5
1A45A
  8
KI
  6
DASHED2
 62
     7
 10
-229.4801361076475
 20
103.42743322996211
 30
0.0
 11
-227.98140264605391
 21
101.42743051990639
 31
0.0
  0
LINE
  5
1A45B
  8
KI
  6
DASHED2
 62
     7
 10
-231.58011970592241
 20
103.42743322996211
 30
0.0
 11
-233.0788531675158
 21
101.42743051990639
 31
0.0
  0
LINE
  5
1A45C
  8
KI
  6
DASHED2
 62
     7
 10
-231.69059911627991
 20
127.1713718969351
 30
0.0
 11
-229.24152229069239
 21
125.3547433045802
 31
0.0
  0
LINE
  5
1A45D
  8
KI
  6
DASHED2
 62
     7
 10
-231.69059911627991
 20
128.28152020529541
 30
0.0
 11
-229.24152229069239
 21
126.46489161293999
 31
0.0
  0
LINE
  5
1A45E
  8
KI
  6
DASHED2
 62
     7
 10
-231.69059911627991
 20
129.39170350871581
 30
0.0
 11
-229.24152229069239
 21
127.5750749163609
 31
0.0
  0
LINE
  5
1A45F
  8
KI
  6
DASHED2
 62
     7
 10
-231.69059911627991
 20
130.50185181707539
 30
0.0
 11
-229.24152229069239
 21
128.6852232247208
 31
0.0
  0
LINE
  5
1A460
  8
KI
  6
DASHED2
 62
     7
 10
-231.69059911627991
 20
131.61200012543591
 30
0.0
 11
-229.24152229069239
 21
129.79537153308101
 31
0.0
  0
LINE
  5
1A461
  8
KI
  6
DASHED2
 62
     7
 10
-231.69059911627991
 20
132.72218342885631
 30
0.0
 11
-229.24152229069239
 21
130.90555483650149
 31
0.0
  0
LINE
  5
1A462
  8
KI
  6
DASHED2
 62
     7
 10
-231.69059911627991
 20
133.83233173721621
 30
0.0
 11
-229.24152229069239
 21
132.0157031448617
 31
0.0
  0
LINE
  5
1A463
  8
KI
  6
DASHED2
 62
     7
 10
-231.69059911627991
 20
134.94248004557619
 30
0.0
 11
-229.24152229069239
 21
133.12585145322129
 31
0.0
  0
LINE
  5
1A464
  8
KI
  6
DASHED2
 62
     7
 10
-231.69059911627991
 20
136.0526633489969
 30
0.0
 11
-229.24152229069239
 21
134.236034756642
 31
0.0
  0
LINE
  5
1A465
  8
KI
  6
DASHED2
 62
     7
 10
-231.69059911627991
 20
137.16281165735671
 30
0.0
 11
-229.24152229069239
 21
135.34618306500229
 31
0.0
  0
LINE
  5
1A466
  8
KI
  6
DASHED2
 62
     7
 10
-231.69059911627991
 20
138.27299496077759
 30
0.0
 11
-229.24152229069239
 21
136.45636636842241
 31
0.0
  0
LINE
  5
1A467
  8
KI
  6
DASHED2
 62
     7
 10
-231.69059911627991
 20
123.8408919767944
 30
0.0
 11
-229.24152229069239
 21
122.02426338443971
 31
0.0
  0
LINE
  5
1A468
  8
KI
  6
DASHED2
 62
     7
 10
-231.69059911627991
 20
124.9510402851549
 30
0.0
 11
-229.24152229069239
 21
123.1344116927994
 31
0.0
  0
LINE
  5
1A469
  8
KI
  6
DASHED2
 62
     7
 10
-231.69059911627991
 20
126.0611885935147
 30
0.0
 11
-229.24152229069239
 21
124.2445600011599
 31
0.0
  0
LINE
  5
1A46A
  8
KI
  6
DASHED2
 62
     7
 10
-231.69059911627991
 20
120.5103770615933
 30
0.0
 11
-229.24152229069239
 21
118.6937834642989
 31
0.0
  0
LINE
  5
1A46B
  8
KI
  6
DASHED2
 62
     7
 10
-231.69059911627991
 20
121.6205603650142
 30
0.0
 11
-229.24152229069239
 21
119.803931772659
 31
0.0
  0
LINE
  5
1A46C
  8
KI
  6
DASHED2
 62
     7
 10
-231.69059911627991
 20
122.7307086733741
 30
0.0
 11
-229.24152229069239
 21
120.91408008101931
 31
0.0
  0
LINE
  5
1A46D
  8
KI
  6
DASHED2
 62
     7
 10
-231.6905991123308
 20
127.1713718969351
 30
0.0
 11
-229.2415222867437
 21
125.3547433045802
 31
0.0
  0
LINE
  5
1A46E
  8
KI
  6
DASHED2
 62
     7
 10
-231.6905991123308
 20
128.28152020529541
 30
0.0
 11
-229.2415222867437
 21
126.46489161293999
 31
0.0
  0
LINE
  5
1A46F
  8
KI
  6
DASHED2
 62
     7
 10
-231.6905991123308
 20
129.39170350871581
 30
0.0
 11
-229.2415222867437
 21
127.5750749163609
 31
0.0
  0
LINE
  5
1A470
  8
KI
  6
DASHED2
 62
     7
 10
-231.6905991123308
 20
130.50185181707539
 30
0.0
 11
-229.2415222867437
 21
128.6852232247208
 31
0.0
  0
LINE
  5
1A471
  8
KI
  6
DASHED2
 62
     7
 10
-231.6905991123308
 20
131.61200012543591
 30
0.0
 11
-229.2415222867437
 21
129.79537153308101
 31
0.0
  0
LINE
  5
1A472
  8
KI
  6
DASHED2
 62
     7
 10
-231.6905991123308
 20
132.72218342885631
 30
0.0
 11
-229.2415222867437
 21
130.90555483650149
 31
0.0
  0
LINE
  5
1A473
  8
KI
  6
DASHED2
 62
     7
 10
-231.6905991123308
 20
133.83233173721621
 30
0.0
 11
-229.2415222867437
 21
132.0157031448617
 31
0.0
  0
LINE
  5
1A474
  8
KI
  6
DASHED2
 62
     7
 10
-231.6905991123308
 20
134.94248004557619
 30
0.0
 11
-229.2415222867437
 21
133.12585145322129
 31
0.0
  0
LINE
  5
1A475
  8
KI
  6
DASHED2
 62
     7
 10
-231.6905991123308
 20
136.0526633489969
 30
0.0
 11
-229.2415222867437
 21
134.236034756642
 31
0.0
  0
LINE
  5
1A476
  8
KI
  6
DASHED2
 62
     7
 10
-231.6905991123308
 20
137.16281165735671
 30
0.0
 11
-229.2415222867437
 21
135.34618306500229
 31
0.0
  0
LINE
  5
1A477
  8
KI
  6
DASHED2
 62
     7
 10
-231.6905991123308
 20
138.27299496077759
 30
0.0
 11
-229.2415222867437
 21
136.45636636842241
 31
0.0
  0
LINE
  5
1A478
  8
KI
  6
DASHED2
 62
     7
 10
-231.6905991123308
 20
139.3831432691378
 30
0.0
 11
-229.2415222867437
 21
137.5665146767825
 31
0.0
  0
LINE
  5
1A479
  8
KI
  6
DASHED2
 62
     7
 10
-231.6905991123308
 20
140.4932915774977
 30
0.0
 11
-229.2415222867437
 21
138.67666298514291
 31
0.0
  0
LINE
  5
1A47A
  8
KI
  6
DASHED2
 62
     7
 10
-231.6905991123308
 20
141.6034748809181
 30
0.0
 11
-229.2415222867437
 21
139.78684628856331
 31
0.0
  0
LINE
  5
1A47B
  8
KI
  6
DASHED2
 62
     7
 10
-231.6905991123308
 20
142.71362318927839
 30
0.0
 11
-229.2415222867437
 21
140.89699459692301
 31
0.0
  0
LINE
  5
1A47C
  8
KI
  6
DASHED2
 62
     7
 10
-231.58011970592241
 20
103.42743322996211
 30
0.0
 11
-231.58011970592241
 21
141.5420585495128
 31
0.0
  0
LINE
  5
1A47D
  8
KI
  6
DASHED2
 62
     7
 10
-231.58011970592241
 20
141.5420585495128
 30
0.0
 11
-230.5345897770155
 21
150.1303713539815
 31
0.0
  0
LINE
  5
1A47E
  8
KI
  6
DASHED2
 62
     7
 10
-229.4801361076475
 20
141.5420585495128
 30
0.0
 11
-230.52566603655461
 21
150.1303713539815
 31
0.0
  0
LINE
  5
1A47F
  8
KI
  6
DASHED2
 62
     7
 10
-229.4801361076475
 20
103.42743322996211
 30
0.0
 11
-229.4801361076475
 21
141.5420585495128
 31
0.0
  0
LINE
  5
1A480
  8
KI
  6
DASHED2
 62
     7
 10
-231.6905991123308
 20
123.8408919767944
 30
0.0
 11
-229.2415222867437
 21
122.02426338443971
 31
0.0
  0
LINE
  5
1A481
  8
KI
  6
DASHED2
 62
     7
 10
-231.6905991123308
 20
124.9510402851549
 30
0.0
 11
-229.2415222867437
 21
123.1344116927999
 31
0.0
  0
LINE
  5
1A482
  8
KI
  6
DASHED2
 62
     7
 10
-231.6905991123308
 20
126.0611885935147
 30
0.0
 11
-229.2415222867437
 21
124.2445600011599
 31
0.0
  0
LINE
  5
1A483
  8
KI
  6
DASHED2
 62
     7
 10
-231.6905991123308
 20
120.5103770615933
 30
0.0
 11
-229.2415222867437
 21
118.6937834642989
 31
0.0
  0
LINE
  5
1A484
  8
KI
  6
DASHED2
 62
     7
 10
-231.6905991123308
 20
121.6205603650142
 30
0.0
 11
-229.2415222867437
 21
119.803931772659
 31
0.0
  0
LINE
  5
1A485
  8
KI
  6
DASHED2
 62
     7
 10
-231.6905991123308
 20
122.7307086733741
 30
0.0
 11
-229.2415222867437
 21
120.91408008101931
 31
0.0
  0
LINE
  5
1A486
  8
KI
  6
CENTER2
 62
     7
 10
-230.53012790678511
 20
97.072470199828075
 30
0.0
 11
-230.53012790678511
 21
155.54267243593009
 31
0.0
  0
LINE
  5
1A487
  8
SU
  6
CONTINUOUS
 62
     3
 10
-162.0301274354712
 20
123.42750074568499
 30
0.0
 11
-122.03012743546959
 21
123.42750074568499
 31
0.0
  0
LINE
  5
1A488
  8
SU
  6
CONTINUOUS
 62
     3
 10
-125.03012743546959
 20
123.42750074568499
 30
0.0
 11
-125.03012743546959
 21
147.42750074568511
 31
0.0
  0
LINE
  5
1A489
  8
SU
  6
CONTINUOUS
 62
     3
 10
-116.0301274354712
 20
137.42750074568511
 30
0.0
 11
-110.0301274354712
 21
147.42750074568511
 31
0.0
  0
LINE
  5
1A48A
  8
SU
  6
CONTINUOUS
 62
     3
 10
-104.0301274354712
 20
137.42750074568511
 30
0.0
 11
-110.0301274354712
 21
147.42750074568511
 31
0.0
  0
LINE
  5
1A48B
  8
SU
  6
CONTINUOUS
 62
     3
 10
-116.0301274354712
 20
137.42750074568511
 30
0.0
 11
-104.0301274354712
 21
137.42750074568511
 31
0.0
  0
LINE
  5
1A48C
  8
SU
  6
CONTINUOUS
 62
     3
 10
-159.0301274354712
 20
147.42750074568511
 30
0.0
 11
-107.0301274354712
 21
147.42750074568511
 31
0.0
  0
LINE
  5
1A48D
  8
SU
  6
CONTINUOUS
 62
     3
 10
-135.0301274354712
 20
-83.068655924727196
 30
0.0
 11
-107.0301274354712
 21
-83.068655924727196
 31
0.0
  0
LINE
  5
1A48E
  8
SU
  6
CONTINUOUS
 62
     3
 10
-110.0301274354712
 20
147.42750074568511
 30
0.0
 11
-110.0301274354712
 21
-83.068655924727196
 31
0.0
  0
LINE
  5
1A48F
  8
SU
  6
CONTINUOUS
 62
     3
 10
-167.53012743547089
 20
81.927500745686601
 30
0.0
 11
-163.0301274354712
 21
81.927500745686601
 31
0.0
  0
LINE
  5
1A490
  8
SU
  6
CONTINUOUS
 62
     3
 10
-163.0301274354712
 20
81.927500745686601
 30
0.0
 11
-151.07393695928079
 21
81.927500745686601
 31
0.0
  0
LINE
  5
1A491
  8
SU
  6
CONTINUOUS
 62
     3
 10
-166.53012743547089
 20
120.42750074568499
 30
0.0
 11
-122.03012743546959
 21
120.42750074568499
 31
0.0
  0
LINE
  5
1A492
  8
SU
  6
CONTINUOUS
 62
     3
 10
-125.03012743546959
 20
120.42750074568499
 30
0.0
 11
-125.03012743546959
 21
123.42750074568499
 31
0.0
  0
LINE
  5
1A493
  8
SU
  6
CONTINUOUS
 62
     3
 10
-125.03012743546959
 20
121.92750074568499
 30
0.0
 11
-140.03012743547109
 21
130.49667283093621
 31
0.0
  0
LINE
  5
1A494
  8
SU
  6
CONTINUOUS
 62
     3
 10
-140.03012743547109
 20
130.49667283093621
 30
0.0
 11
-140.03012743547109
 21
135.31000616426971
 31
0.0
  0
LINE
  5
1A495
  8
KI
  6
CONTINUOUS
 62
     7
 10
-236.5301266735357
 20
127.92746822502259
 30
0.0
 11
-224.5301291479332
 21
127.92746822502259
 31
0.0
  0
LINE
  5
1A496
  8
KI
  6
CONTINUOUS
 62
     7
 10
-224.5301291479332
 20
127.92746822502259
 30
0.0
 11
-224.5301291479332
 21
123.42746822502259
 31
0.0
  0
LINE
  5
1A497
  8
KI
  6
CONTINUOUS
 62
     7
 10
-224.53012914793371
 20
123.42746822502259
 30
0.0
 11
-218.53012914793371
 21
123.42746822502259
 31
0.0
  0
LINE
  5
1A498
  8
KI
  6
CONTINUOUS
 62
     7
 10
-236.5301266735357
 20
127.92746822502259
 30
0.0
 11
-236.5301266735357
 21
123.42746822502259
 31
0.0
  0
LINE
  5
1A499
  8
KI
  6
CONTINUOUS
 62
     7
 10
-242.53012667353551
 20
123.42746822502259
 30
0.0
 11
-236.5301266735357
 21
123.42746822502259
 31
0.0
  0
LINE
  5
1A49A
  8
KI
  6
CONTINUOUS
 62
     7
 10
-242.53012667353551
 20
123.42746822502259
 30
0.0
 11
-242.53012667353551
 21
103.42746822502259
 31
0.0
  0
LINE
  5
1A49B
  8
KI
  6
CONTINUOUS
 62
     7
 10
-242.53012667353551
 20
103.42746822502259
 30
0.0
 11
-218.53012914793371
 21
103.42746822502259
 31
0.0
  0
LINE
  5
1A49C
  8
KI
  6
CONTINUOUS
 62
     7
 10
-218.53012914793371
 20
123.42746822502259
 30
0.0
 11
-218.53012914793371
 21
103.42746822502259
 31
0.0
  0
LINE
  5
1A49D
  8
KI
  6
CONTINUOUS
 62
     7
 10
-218.0301231479329
 20
103.42743322996211
 30
0.0
 11
-215.80403041670439
 21
103.42743322996139
 31
0.0
  0
ARC
  5
1A49E
  8
KI
  6
CONTINUOUS
 62
     7
 10
-208.52210009827741
 20
114.98830912011169
 30
0.0
 40
9.2190722294335075
 50
125.6258681755175
 51
177.1953126595514
  0
LINE
  5
1A49F
  8
KI
  6
CONTINUOUS
 62
     7
 10
-218.5301291479343
 20
105.594437955364
 30
0.0
 11
-218.3631244225304
 21
105.4274332299601
 31
0.0
  0
LINE
  5
1A4A0
  8
KI
  6
CONTINUOUS
 62
     7
 10
-218.33012914793321
 20
106.2924635674695
 30
0.0
 11
-217.7301231479332
 21
105.6924575674704
 31
0.0
  0
LINE
  5
1A4A1
  8
KI
  6
CONTINUOUS
 62
     7
 10
-218.53012914793371
 20
106.49246356747049
 30
0.0
 11
-218.33012914793321
 21
106.2924635674698
 31
0.0
  0
LINE
  5
1A4A2
  8
KI
  6
CONTINUOUS
 62
     7
 10
-218.33012914793321
 20
107.1904891795772
 30
0.0
 11
-217.7301231479332
 21
106.59048317957711
 31
0.0
  0
LINE
  5
1A4A3
  8
KI
  6
CONTINUOUS
 62
     7
 10
-218.5301291479343
 20
107.3904891795774
 30
0.0
 11
-218.33012914793321
 21
107.1904891795772
 31
0.0
  0
LINE
  5
1A4A4
  8
KI
  6
CONTINUOUS
 62
     7
 10
-218.33012914793321
 20
108.08851479168391
 30
0.0
 11
-217.7301231479332
 21
107.4885087916837
 31
0.0
  0
LINE
  5
1A4A5
  8
KI
  6
CONTINUOUS
 62
     7
 10
-218.5301291479343
 20
108.28851479168419
 30
0.0
 11
-218.33012914793321
 21
108.08851479168391
 31
0.0
  0
LINE
  5
1A4A6
  8
KI
  6
CONTINUOUS
 62
     7
 10
-218.33012914793321
 20
108.986540403791
 30
0.0
 11
-217.73012314793391
 21
108.38653440379061
 31
0.0
  0
LINE
  5
1A4A7
  8
KI
  6
CONTINUOUS
 62
     7
 10
-218.5301291479343
 20
109.1865404037914
 30
0.0
 11
-218.33012914793321
 21
108.986540403791
 31
0.0
  0
LINE
  5
1A4A8
  8
KI
  6
CONTINUOUS
 62
     7
 10
-218.3301291479325
 20
109.8845660158979
 30
0.0
 11
-217.7301231479328
 21
109.28456001589819
 31
0.0
  0
LINE
  5
1A4A9
  8
KI
  6
CONTINUOUS
 62
     7
 10
-218.53012914793331
 20
110.0845660158983
 30
0.0
 11
-218.33012914793309
 21
109.8845660158979
 31
0.0
  0
LINE
  5
1A4AA
  8
KI
  6
CONTINUOUS
 62
     7
 10
-218.3301291479325
 20
110.7825916280045
 30
0.0
 11
-217.97497074988959
 21
110.4274332299612
 31
0.0
  0
LINE
  5
1A4AB
  8
KI
  6
CONTINUOUS
 62
     7
 10
-217.97497074988959
 20
110.4274332299612
 30
0.0
 11
-217.75075861421439
 21
110.20322109428631
 31
0.0
  0
LINE
  5
1A4AC
  8
KI
  6
CONTINUOUS
 62
     7
 10
-218.53012914793291
 20
110.9825916280049
 30
0.0
 11
-218.33012914793309
 21
110.7825916280045
 31
0.0
  0
LINE
  5
1A4AD
  8
KI
  6
CONTINUOUS
 62
     7
 10
-218.33012914793309
 20
111.6806172401117
 30
0.0
 11
-217.7301291479333
 21
111.0806172401128
 31
0.0
  0
LINE
  5
1A4AE
  8
KI
  6
CONTINUOUS
 62
     7
 10
-218.53012914793291
 20
111.8806172401116
 30
0.0
 11
-218.33012914793309
 21
111.6806172401117
 31
0.0
  0
LINE
  5
1A4AF
  8
KI
  6
CONTINUOUS
 62
     7
 10
-218.33012914793309
 20
112.57864285221891
 30
0.0
 11
-217.73012914793301
 21
111.9786428522185
 31
0.0
  0
LINE
  5
1A4B0
  8
KI
  6
CONTINUOUS
 62
     7
 10
-218.53012914793331
 20
112.7786428522187
 30
0.0
 11
-218.33012914793309
 21
112.57864285221891
 31
0.0
  0
LINE
  5
1A4B1
  8
KI
  6
CONTINUOUS
 62
     7
 10
-218.28089391356909
 20
113.4274332299612
 30
0.0
 11
-217.73012914793301
 21
112.87666846432531
 31
0.0
  0
LINE
  5
1A4B2
  8
KI
  6
CONTINUOUS
 62
     7
 10
-218.53012914793331
 20
113.4274332299612
 30
0.0
 11
-217.73012914793301
 21
113.4274332299612
 31
0.0
  0
LINE
  5
1A4B3
  8
KI
  6
CONTINUOUS
 62
     7
 10
-218.53012914793371
 20
105.42743322996211
 30
0.0
 11
-217.7301231479328
 21
105.4274332299612
 31
0.0
  0
LINE
  5
1A4B4
  8
KI
  6
CONTINUOUS
 62
     7
 10
-217.7301291479327
 20
114.43941198223111
 30
0.0
 11
-217.73012914793301
 21
110.6774432299618
 31
0.0
  0
LINE
  5
1A4B5
  8
KI
  6
CONTINUOUS
 62
     7
 10
-217.93012914793351
 20
110.4274432299614
 30
0.0
 11
-217.73012914793301
 21
110.17743322996139
 31
0.0
  0
LINE
  5
1A4B6
  8
KI
  6
CONTINUOUS
 62
     7
 10
-217.9301231479337
 20
110.4274432299614
 30
0.0
 11
-217.73012914793301
 21
110.6774432299618
 31
0.0
  0
LINE
  5
1A4B7
  8
KI
  6
CONTINUOUS
 62
     7
 10
-217.7301231479328
 20
110.1774432299614
 30
0.0
 11
-217.7301231479328
 21
104.42743322996211
 31
0.0
  0
ARC
  5
1A4B8
  8
KI
  6
CONTINUOUS
 62
     7
 10
-218.03012914793339
 20
115.13941198223139
 30
0.0
 40
0.3
 50
89.999999999913726
 51
179.99999999965141
  0
LINE
  5
1A4B9
  8
KI
  6
CONTINUOUS
 62
     7
 10
-217.73012914793301
 20
115.43941198223111
 30
0.0
 11
-218.03012914793339
 21
115.4394119822315
 31
0.0
  0
ARC
  5
1A4BA
  8
KI
  6
CONTINUOUS
 62
     7
 10
-218.03012914793609
 20
114.7394119822322
 30
0.0
 40
0.3
 50
179.99999999965141
 51
269.99999999991348
  0
LINE
  5
1A4BB
  8
KI
  6
CONTINUOUS
 62
     7
 10
-218.33012914793321
 20
115.13941198223139
 30
0.0
 11
-218.33012914793551
 21
114.7394119822322
 31
0.0
  0
ARC
  5
1A4BC
  8
KI
  6
CONTINUOUS
 62
     7
 10
-218.03012914793609
 20
104.1274332299618
 30
0.0
 40
0.3
 50
89.999999999913726
 51
179.99999999965141
  0
ARC
  5
1A4BD
  8
KI
  6
CONTINUOUS
 62
     7
 10
-218.0301291479378
 20
103.7274332299622
 30
0.0
 40
0.3
 50
179.99999999965141
 51
269.99999999991348
  0
LINE
  5
1A4BE
  8
KI
  6
CONTINUOUS
 62
     7
 10
-218.33012914793511
 20
104.1274332299618
 30
0.0
 11
-218.33012914793801
 21
103.7274332299622
 31
0.0
  0
LINE
  5
1A4BF
  8
KI
  6
CONTINUOUS
 62
     7
 10
-217.7301231479328
 20
104.42743322996211
 30
0.0
 11
-218.03012914793609
 21
104.42743322996211
 31
0.0
  0
LINE
  5
1A4C0
  8
KI
  6
CONTINUOUS
 62
     7
 10
-218.03012914793609
 20
114.4394119822315
 30
0.0
 11
-217.7301291479327
 21
114.43941198223111
 31
0.0
  0
LINE
  5
1A4C1
  8
KI
  6
CONTINUOUS
 62
     7
 10
-218.53012914793331
 20
113.4274332299612
 30
0.0
 11
-218.53012914793371
 21
105.42743322996211
 31
0.0
  0
ARC
  5
1A4C2
  8
KI
  6
CONTINUOUS
 62
     7
 10
-210.53673029853391
 20
104.86827517304771
 30
0.0
 40
0.5
 50
149.29692340093439
 51
243.9809326377075
  0
ARC
  5
1A4C3
  8
KI
  6
CONTINUOUS
 62
     7
 10
-213.94796602228439
 20
97.88010882841057
 30
0.0
 40
7.2763100519022599
 50
28.11323276635936
 51
63.98093263770771
  0
ARC
  5
1A4C4
  8
KI
  6
CONTINUOUS
 62
     7
 10
-232.0509126130616
 20
117.6440243999115
 30
0.0
 40
24.521586859558742
 50
329.29692340093601
 51
3.711186353431466
  0
ARC
  5
1A4C5
  8
KI
  6
CONTINUOUS
 62
     7
 10
-213.94796602228439
 20
97.88010882841057
 30
0.0
 40
5.776310051902259
 50
28.11323276635936
 51
73.813171799604405
  0
LINE
  5
1A4C6
  8
KI
  6
CONTINUOUS
 62
     7
 10
-215.80403041670439
 20
103.4274332299607
 30
0.0
 11
-212.33770213097611
 21
103.4274332299625
 31
0.0
  0
ARC
  5
1A4C7
  8
KI
  6
CONTINUOUS
 62
     7
 10
-232.0509126130616
 20
117.6440243999115
 30
0.0
 40
23.321944298558741
 50
328.41089939395619
 51
3.711186353431466
  0
LINE
  5
1A4C8
  8
KI
  6
CONTINUOUS
 62
     7
 10
-215.2301597166165
 20
105.4274332299612
 30
0.0
 11
-212.1846601720149
 21
105.4274332299612
 31
0.0
  0
LINE
  5
1A4C9
  8
KI
  6
CONTINUOUS
 62
     7
 10
-214.91447071507781
 20
118.98415163628231
 30
0.0
 11
-214.91447095617991
 21
118.9841514398551
 31
0.0
  0
LINE
  5
1A4CA
  8
KI
  6
CONTINUOUS
 62
     7
 10
-215.7301597166165
 20
115.9392562960207
 30
0.0
 11
-215.7301597166165
 21
105.9274332299612
 31
0.0
  0
ARC
  5
1A4CB
  8
KI
  6
CONTINUOUS
 62
     7
 10
-215.2301597166165
 20
105.9274332299612
 30
0.0
 40
0.5
 50
180.0
 51
270.00000000000159
  0
ARC
  5
1A4CC
  8
KI
  6
CONTINUOUS
 62
     7
 10
-212.6126672775498
 20
122.931110324546
 30
0.0
 40
0.3
 50
12.85090437312406
 51
196.2830629427705
  0
ARC
  5
1A4CD
  8
KI
  6
CONTINUOUS
 62
     7
 10
-213.72811862870839
 20
121.57027958605291
 30
0.0
 40
0.5
 50
294.55739357396021
 51
310.6725880273616
  0
ARC
  5
1A4CE
  8
KI
  6
CONTINUOUS
 62
     7
 10
-209.94612427173681
 20
113.2934163245294
 30
0.0
 40
10.0
 50
107.1845800963092
 51
109.8031757941615
  0
ARC
  5
1A4CF
  8
KI
  6
CONTINUOUS
 62
     7
 10
-213.6147272673654
 20
122.5961767783124
 30
0.0
 40
0.3
 50
20.662644719017521
 51
202.3867008755924
  0
ARC
  5
1A4D0
  8
KI
  6
CONTINUOUS
 62
     7
 10
-211.5773910971395
 20
119.0674070193899
 30
0.0
 40
4.0
 50
2.3473418358611311
 51
25.701808746254262
  0
ARC
  5
1A4D1
  8
KI
  6
CONTINUOUS
 62
     7
 10
-209.94611723395889
 20
113.2934163245199
 30
0.0
 40
8.7999999999999972
 50
105.7760377473514
 51
105.8019134698674
  0
ARC
  5
1A4D2
  8
KI
  6
CONTINUOUS
 62
     7
 10
-208.11328948200159
 20
121.06740701938919
 30
0.0
 40
0.3
 50
297.8509043731392
 51
122.14909562682681
  0
ARC
  5
1A4D3
  8
KI
  6
CONTINUOUS
 62
     7
 10
-211.5773910971395
 20
119.0674070193899
 30
0.0
 40
4.0
 50
34.298191253707792
 51
40.701808746296223
  0
ARC
  5
1A4D4
  8
KI
  6
CONTINUOUS
 62
     7
 10
-208.74896397239439
 20
121.8958341441373
 30
0.0
 40
0.3
 50
312.8509043731467
 51
137.14909562687691
  0
ARC
  5
1A4D5
  8
KI
  6
CONTINUOUS
 62
     7
 10
-211.57739109713759
 20
123.0674070193899
 30
0.0
 40
0.3
 50
357.85090437314102
 51
182.14909562678051
  0
ARC
  5
1A4D6
  8
KI
  6
CONTINUOUS
 62
     7
 10
-210.5421149167268
 20
122.9311103245456
 30
0.0
 40
0.3
 50
342.85090437306962
 51
167.14909562682411
  0
ARC
  5
1A4D7
  8
KI
  6
CONTINUOUS
 62
     7
 10
-211.5773910971395
 20
119.0674070193899
 30
0.0
 40
4.0
 50
64.298191253737357
 51
70.701808746227343
  0
ARC
  5
1A4D8
  8
KI
  6
CONTINUOUS
 62
     7
 10
-209.57739109714021
 20
122.531508634528
 30
0.0
 40
0.3
 50
327.85090437311919
 51
152.1490956268859
  0
ARC
  5
1A4D9
  8
KI
  6
CONTINUOUS
 62
     7
 10
-211.5773910971395
 20
119.0674070193899
 30
0.0
 40
4.0
 50
49.298191253755803
 51
55.701808746277983
  0
ARC
  5
1A4DA
  8
KI
  6
CONTINUOUS
 62
     7
 10
-211.5773910971395
 20
119.0674070193899
 30
0.0
 40
4.0
 50
94.298191253699741
 51
100.7018087462818
  0
ARC
  5
1A4DB
  8
KI
  6
CONTINUOUS
 62
     7
 10
-211.5773910971395
 20
119.0674070194128
 30
0.0
 40
4.0
 50
79.298191253679889
 51
85.701808746241426
  0
ARC
  5
1A4DC
  8
KI
  6
CONTINUOUS
 62
     7
 10
-211.5773910971395
 20
119.0674070193899
 30
0.0
 40
2.799999999999998
 50
2.3473418358611311
 51
130.67258802735591
  0
ARC
  5
1A4DD
  8
KI
  6
CONTINUOUS
 62
     7
 10
-208.4812366349515
 20
115.9043863338017
 30
0.0
 40
7.2490069497939373
 50
134.03842973471791
 51
179.72438854235031
  0
ARC
  5
1A4DE
  8
KI
  6
CONTINUOUS
 62
     7
 10
-208.24119191752169
 20
101.048153830755
 30
0.0
 40
0.7573354118943643
 50
216.09422551477209
 51
20.132240017948671
  0
ARC
  5
1A4DF
  8
KI
  6
CONTINUOUS
 62
     7
 10
-225.02962177451971
 20
102.37702149009711
 30
0.0
 40
2.5000001067820641
 50
281.5250854492183
 51
1.155319213868458
  0
LINE
  5
1A4E0
  8
KI
  6
CONTINUOUS
 62
     7
 10
-222.53013456409479
 20
102.42744937246491
 30
0.0
 11
-222.53013456409479
 21
103.42743322996211
 31
0.0
  0
LINE
  5
1A4E1
  8
KI
  6
DASHED2
 62
     7
 10
-225.03012920289871
 20
101.42743051990639
 30
0.0
 11
-223.78012313473181
 21
102.42744937246491
 31
0.0
  0
LINE
  5
1A4E2
  8
KI
  6
DASHED2
 62
     7
 10
-225.03012920684759
 20
103.42746822502259
 30
0.0
 11
-223.78012313868081
 21
102.42744937246491
 31
0.0
  0
LINE
  5
1A4E3
  8
KI
  6
DASHED2
 62
     7
 10
-236.03012661067231
 20
101.42743051990639
 30
0.0
 11
-225.03012920289871
 21
101.42743051990639
 31
0.0
  0
LINE
  5
1A4E4
  8
KI
  6
DASHED2
 62
     7
 10
-237.2801326788391
 20
102.42744937246491
 30
0.0
 11
-223.78012313473181
 21
102.42744937246491
 31
0.0
  0
LINE
  5
1A4E5
  8
KI
  6
DASHED2
 62
     7
 10
-237.2801326788391
 20
102.42744937246491
 30
0.0
 11
-236.03012661067231
 21
103.42743322996211
 31
0.0
  0
LINE
  5
1A4E6
  8
KI
  6
DASHED2
 62
     7
 10
-237.2801326788391
 20
102.42744937246491
 30
0.0
 11
-236.03012661067231
 21
101.42743051990639
 31
0.0
  0
LINE
  5
1A4E7
  8
KI
  6
CONTINUOUS
 62
     7
 10
-224.53011977661981
 20
99.927437236130785
 30
0.0
 11
-236.53013603695081
 21
99.927437236130785
 31
0.0
  0
ARC
  5
1A4E8
  8
KI
  6
CONTINUOUS
 62
     7
 10
-236.03063403905111
 20
102.37702149009711
 30
0.0
 40
2.5000001067820641
 50
178.84469604492341
 51
258.47492980957111
  0
LINE
  5
1A4E9
  8
KI
  6
CONTINUOUS
 62
     7
 10
-238.53012124947571
 20
102.42744937246491
 30
0.0
 11
-238.53012124947571
 21
103.42743322996211
 31
0.0
  0
LINE
  5
1A4EA
  8
SU
  6
CONTINUOUS
 62
     3
 10
-218.5301291481853
 20
102.42746822502239
 30
0.0
 11
-218.5301291481853
 21
78.927500745686899
 31
0.0
  0
LINE
  5
1A4EB
  8
SU
  6
CONTINUOUS
 62
     3
 10
-242.5301266737867
 20
102.42746822502249
 30
0.0
 11
-242.5301266737867
 21
78.927500745686899
 31
0.0
  0
LINE
  5
1A4EC
  8
SU
  6
CONTINUOUS
 62
     3
 10
-218.5301291481853
 20
81.927500745686899
 30
0.0
 11
-242.5301266737867
 21
81.927500745686899
 31
0.0
  0
LINE
  5
1A4ED
  8
SU
  6
CONTINUOUS
 62
     3
 10
-167.53012743942071
 20
119.42746822502259
 30
0.0
 11
-167.53012743942071
 21
78.927500745686629
 31
0.0
  0
LINE
  5
1A4EE
  8
SU
  6
CONTINUOUS
 62
     3
 10
-207.53012914793371
 20
119.42746822502291
 30
0.0
 11
-207.53012914793371
 21
78.927500745686629
 31
0.0
  0
LINE
  5
1A4EF
  8
SU
  6
CONTINUOUS
 62
     3
 10
-167.53012743942071
 20
81.927500745686601
 30
0.0
 11
-207.53012914793371
 21
81.927500745686601
 31
0.0
  0
LINE
  5
1A4F0
  8
SU
  6
CONTINUOUS
 62
     3
 10
-207.53012914793371
 20
119.42746822502291
 30
0.0
 11
-207.53012914793371
 21
78.927500745686771
 31
0.0
  0
LINE
  5
1A4F1
  8
SU
  6
CONTINUOUS
 62
     3
 10
-218.5301291481853
 20
102.42746822502239
 30
0.0
 11
-218.5301291481853
 21
78.927500745686771
 31
0.0
  0
LINE
  5
1A4F2
  8
SU
  6
CONTINUOUS
 62
     3
 10
-207.53012914793371
 20
81.927500745686757
 30
0.0
 11
-218.5301291481853
 21
81.927500745686757
 31
0.0
  0
LINE
  5
1A4F3
  8
SU
  6
CONTINUOUS
 62
     3
 10
-242.53012667353551
 20
102.42746822502239
 30
0.0
 11
-242.53012667353551
 21
78.927500745686842
 31
0.0
  0
LINE
  5
1A4F4
  8
SU
  6
CONTINUOUS
 62
     3
 10
-339.03012743547049
 20
122.4275007456849
 30
0.0
 11
-339.03012743547049
 21
78.927500745686842
 31
0.0
  0
LINE
  5
1A4F5
  8
SU
  6
CONTINUOUS
 62
     3
 10
-242.53012667353551
 20
81.927500745686814
 30
0.0
 11
-339.03012743547049
 21
81.927500745686814
 31
0.0
  0
LINE
  5
1A4F6
  8
SU
  6
CONTINUOUS
 62
     3
 10
-340.03012743547032
 20
123.4275007456849
 30
0.0
 11
-365.03012743546918
 21
123.4275007456849
 31
0.0
  0
LINE
  5
1A4F7
  8
SU
  6
CONTINUOUS
 62
     3
 10
-243.5301266737865
 20
103.42746822502259
 30
0.0
 11
-365.03012743546918
 21
103.42746822502259
 31
0.0
  0
LINE
  5
1A4F8
  8
SU
  6
CONTINUOUS
 62
     3
 10
-362.0301274354693
 20
123.4275007456849
 30
0.0
 11
-362.0301274354693
 21
103.42746822502259
 31
0.0
  0
LINE
  5
1A4F9
  8
SU
  6
CONTINUOUS
 62
     3
 10
-125.03012743546959
 20
-63.068653096843498
 30
0.0
 11
-125.03012743546959
 21
-68.068653096843505
 31
0.0
  0
LINE
  5
1A4FA
  8
SU
  6
CONTINUOUS
 62
     3
 10
-162.0301274354712
 20
-68.068653096843491
 30
0.0
 11
-122.03012743546959
 21
-68.068653096843505
 31
0.0
  0
LINE
  5
1A4FB
  8
SU
  6
CONTINUOUS
 62
     3
 10
-125.03012743546959
 20
-68.068653096843505
 30
0.0
 11
-125.03012743546959
 21
-83.068655924727196
 31
0.0
  0
LINE
  5
1A4FC
  8
SU
  6
CONTINUOUS
 62
     3
 10
-160.03012744459861
 20
-84.068655924741279
 30
0.0
 11
-160.03012744459861
 21
-106.0686559247348
 31
0.0
  0
LINE
  5
1A4FD
  8
SU
  6
CONTINUOUS
 62
     3
 10
-160.03012744459861
 20
-103.0686559247347
 30
0.0
 11
-149.1015560160269
 21
-103.0686559247347
 31
0.0
  0
LINE
  5
1A4FE
  8
SU
  6
CONTINUOUS
 62
     3
 10
-163.0301275581015
 20
-103.0686559247347
 30
0.0
 11
-160.03012744459861
 21
-103.0686559247347
 31
0.0
  0
LINE
  5
1A4FF
  8
SU
  6
CONTINUOUS
 62
     3
 10
-116.0301274354712
 20
-73.068655924727196
 30
0.0
 11
-110.0301274354712
 21
-83.068655924727196
 31
0.0
  0
LINE
  5
1A500
  8
SU
  6
CONTINUOUS
 62
     3
 10
-104.0301274354712
 20
-73.068655924727196
 30
0.0
 11
-110.0301274354712
 21
-83.068655924727196
 31
0.0
  0
LINE
  5
1A501
  8
SU
  6
CONTINUOUS
 62
     3
 10
-116.0301274354712
 20
-73.068655924727196
 30
0.0
 11
-104.0301274354712
 21
-73.068655924727196
 31
0.0
  0
LINE
  5
1A502
  8
SU
  6
CONTINUOUS
 62
     3
 10
-166.53012743942071
 20
-214.8960776698739
 30
0.0
 11
-122.0301273219669
 21
-214.8960776698739
 31
0.0
  0
LINE
  5
1A503
  8
SU
  6
CONTINUOUS
 62
     3
 10
-125.0301273219669
 20
-214.8960776698739
 30
0.0
 11
-125.0301273219669
 21
-222.8960776698739
 31
0.0
  0
LINE
  5
1A504
  8
SU
  6
CONTINUOUS
 62
     3
 10
-198.78012829367711
 20
-218.3960776698739
 30
0.0
 11
-200.69971360674529
 21
-219.8690272863191
 31
0.0
  0
LINE
  5
1A505
  8
SU
  6
CONTINUOUS
 62
     3
 10
-198.78012829367711
 20
-218.3960776698739
 30
0.0
 11
-200.25348214027139
 21
-220.3161897859284
 31
0.0
  0
ARC
  5
1A506
  8
KI
  6
CONTINUOUS
 62
     7
 10
-177.2268742325189
 20
-221.94791373351751
 30
0.0
 40
0.9481639363564127
 50
176.8660808498669
 51
3.133919150132968
  0
LINE
  5
1A507
  8
KI
  6
CONTINUOUS
 62
     7
 10
-196.78012829367711
 20
-216.8960776698739
 30
0.0
 11
-196.78012829367711
 21
-221.89607766987399
 31
0.0
  0
LINE
  5
1A508
  8
KI
  6
CONTINUOUS
 62
     7
 10
-178.17362017136031
 20
-216.8960776698739
 30
0.0
 11
-178.17362017136031
 21
-221.89607766987399
 31
0.0
  0
LINE
  5
1A509
  8
KI
  6
CONTINUOUS
 62
     7
 10
-176.28012829367739
 20
-214.8960776698739
 30
0.0
 11
-176.28012829367739
 21
-221.89607766987399
 31
0.0
  0
LINE
  5
1A50A
  8
KI
  6
CONTINUOUS
 62
     7
 10
-198.78012829367711
 20
-214.8960776698739
 30
0.0
 11
-198.78012829367711
 21
-221.89607766987399
 31
0.0
  0
ARC
  5
1A50B
  8
KI
  6
CONTINUOUS
 62
     7
 10
-197.78012829367711
 20
-221.89607766987399
 30
0.0
 40
1.0
 50
180.0
 51
0.0
  0
LINE
  5
1A50C
  8
KI
  6
CONTINUOUS
 62
     7
 10
-198.78012829367711
 20
-214.8960776698739
 30
0.0
 11
-176.28012829367739
 21
-214.8960776698739
 31
0.0
  0
LINE
  5
1A50D
  8
KI
  6
CONTINUOUS
 62
     7
 10
-178.17362017136031
 20
-216.8960776698739
 30
0.0
 11
-196.78012829367711
 21
-216.8960776698739
 31
0.0
  0
LINE
  5
1A50E
  8
SU
  6
CONTINUOUS
 62
     3
 10
-116.03012732196839
 20
-212.8960776698737
 30
0.0
 11
-110.03012732196839
 21
-222.8960776698737
 31
0.0
  0
LINE
  5
1A50F
  8
SU
  6
CONTINUOUS
 62
     3
 10
-104.03012732196839
 20
-212.8960776698737
 30
0.0
 11
-110.03012732196839
 21
-222.8960776698737
 31
0.0
  0
LINE
  5
1A510
  8
SU
  6
CONTINUOUS
 62
     3
 10
-116.03012732196839
 20
-212.8960776698737
 30
0.0
 11
-104.03012732196839
 21
-212.8960776698737
 31
0.0
  0
LINE
  5
1A511
  8
SU
  6
CONTINUOUS
 62
     3
 10
-135.0301274354712
 20
-234.8960776698739
 30
0.0
 11
-107.03012732196839
 21
-234.8960776698739
 31
0.0
  0
LINE
  5
1A512
  8
SU
  6
CONTINUOUS
 62
     3
 10
-110.03012732196839
 20
-222.8960776698739
 30
0.0
 11
-110.03012732196839
 21
-234.8960776698739
 31
0.0
  0
LINE
  5
1A513
  8
SU
  6
CONTINUOUS
 62
     3
 10
-135.03012686326639
 20
-222.8960776698739
 30
0.0
 11
-107.03012732196839
 21
-222.8960776698739
 31
0.0
  0
LINE
  5
1A514
  8
SU
  6
CONTINUOUS
 62
     3
 10
-110.03012732196839
 20
-124.2480153134684
 30
0.0
 11
-110.03012732196839
 21
-222.8960776698739
 31
0.0
  0
LINE
  5
1A515
  8
SU
  6
CONTINUOUS
 62
     3
 10
-166.53012743547089
 20
-214.8960776698739
 30
0.0
 11
-122.0301273219669
 21
-214.8960776698739
 31
0.0
  0
LINE
  5
1A516
  8
SU
  6
CONTINUOUS
 62
     3
 10
-125.0301273219669
 20
-124.2480153134684
 30
0.0
 11
-125.0301273219669
 21
-214.8960776698739
 31
0.0
  0
LINE
  5
1A517
  8
SU
  6
CONTINUOUS
 62
     3
 10
-259.4289971811603
 20
-59.04641331232078
 30
0.0
 11
-260.72903889589111
 21
-57.00575658305651
 31
0.0
  0
LINE
  5
1A518
  8
SU
  6
CONTINUOUS
 62
     3
 10
-259.4289971811603
 20
-59.04641331232078
 30
0.0
 11
-261.21339144208542
 21
-57.411317224297314
 31
0.0
  0
TEXT
  5
1A519
  8
SU
  6
CONTINUOUS
 62
     3
 10
-310.93077604314539
 20
-41.446762353244559
 30
0.0
 40
4.0
  1
下枠沓摺（四方枠用）
 41
0.8299999999999999
  0
LINE
  5
1A51A
  8
SU
  6
CONTINUOUS
 62
     3
 10
-362.03012743547112
 20
-83.068655924727196
 30
0.0
 11
-359.03012743546918
 21
-83.068655924727196
 31
0.0
  0
LINE
  5
1A51B
  8
SU
  6
CONTINUOUS
 62
     3
 10
-271.03012743547129
 20
-68.068653096843491
 30
0.0
 11
-365.03012743546918
 21
-68.068653096843462
 31
0.0
  0
LINE
  5
1A51C
  8
SU
  6
CONTINUOUS
 62
     3
 10
-362.0301274354693
 20
-68.068653096843462
 30
0.0
 11
-362.0301274354693
 21
-83.068655924727196
 31
0.0
  0
LINE
  5
1A51D
  8
SU
  6
CONTINUOUS
 62
     3
 10
-362.0301274354693
 20
-83.068655924727196
 30
0.0
 11
-362.0301274354693
 21
-92.969608305679571
 31
0.0
  0
LINE
  5
1A51E
  8
SU
  6
CONTINUOUS
 62
     3
 10
-271.03012743547129
 20
-68.068653096843491
 30
0.0
 11
-365.03012743546918
 21
-68.068653096843462
 31
0.0
  0
LINE
  5
1A51F
  8
SU
  6
CONTINUOUS
 62
     3
 10
-247.5301291479332
 20
-48.068653096843491
 30
0.0
 11
-365.03012743546918
 21
-48.068653096843462
 31
0.0
  0
LINE
  5
1A520
  8
SU
  6
CONTINUOUS
 62
     3
 10
-362.0301274354693
 20
-68.068653096843462
 30
0.0
 11
-362.0301274354693
 21
-48.068653096843462
 31
0.0
  0
LINE
  5
1A521
  8
SU
  6
CONTINUOUS
 62
     3
 10
-270.03012754897429
 20
-84.068655924735808
 30
0.0
 11
-270.03012754897429
 21
-106.068655924735
 31
0.0
  0
LINE
  5
1A522
  8
SU
  6
CONTINUOUS
 62
     3
 10
-342.03012743547112
 20
-84.068655924719906
 30
0.0
 11
-342.03012743547112
 21
-106.068655924735
 31
0.0
  0
LINE
  5
1A523
  8
SU
  6
CONTINUOUS
 62
     3
 10
-272.43012754897421
 20
-103.0686559247349
 30
0.0
 11
-342.03012743547112
 21
-103.0686559247349
 31
0.0
  0
LINE
  5
1A524
  8
KI
  6
CONTINUOUS
 62
     7
 10
-246.53012914793339
 20
-48.068653096843491
 30
0.0
 11
-218.53012914793371
 21
-48.068653096843491
 31
0.0
  0
LINE
  5
1A525
  8
KI
  6
CONTINUOUS
 62
     7
 10
-270.03012743547112
 20
-68.068653096843491
 30
0.0
 11
-246.53012914793339
 21
-48.068653096843491
 31
0.0
  0
LINE
  5
1A526
  8
KI
  6
CONTINUOUS
 62
     7
 10
-270.03012743547112
 20
-68.068653096843491
 30
0.0
 11
-270.03012743547112
 21
-83.068655924727196
 31
0.0
  0
LINE
  5
1A527
  8
KI
  6
CONTINUOUS
 62
     7
 10
-218.53012914793371
 20
-68.068653096843491
 30
0.0
 11
-163.0301274354712
 21
-68.068653096843491
 31
0.0
  0
LINE
  5
1A528
  8
KI
  6
CONTINUOUS
 62
     7
 10
-218.53012914793371
 20
-68.068653096843491
 30
0.0
 11
-218.53012914793371
 21
-48.068653096843491
 31
0.0
  0
LINE
  5
1A529
  8
KI
  6
CONTINUOUS
 62
     7
 10
-163.0301274354712
 20
-68.068653096843491
 30
0.0
 11
-163.0301274354712
 21
-83.068655924727196
 31
0.0
  0
LINE
  5
1A52A
  8
KI
  6
CONTINUOUS
 62
     7
 10
-270.03012743547112
 20
-83.068655924727196
 30
0.0
 11
-163.0301274354712
 21
-83.068655924727196
 31
0.0
  0
LINE
  5
1A52B
  8
KI
  6
CONTINUOUS
 62
     7
 10
-218.03012314768171
 20
-48.068618101782931
 30
0.0
 11
-215.80403041645309
 21
-48.068618101782462
 31
0.0
  0
ARC
  5
1A52C
  8
KI
  6
CONTINUOUS
 62
     7
 10
-208.52210009802599
 20
-59.629493991932812
 30
0.0
 40
9.2190722294335075
 50
182.80468734044729
 51
234.3741318244837
  0
LINE
  5
1A52D
  8
KI
  6
CONTINUOUS
 62
     7
 10
-218.3301291476819
 20
-52.729699663504789
 30
0.0
 11
-217.73012314768181
 21
-52.129693663504661
 31
0.0
  0
LINE
  5
1A52E
  8
KI
  6
CONTINUOUS
 62
     7
 10
-217.73012314768141
 20
-54.818628101782203
 30
0.0
 11
-217.73012314768141
 21
-49.068618101782931
 31
0.0
  0
LINE
  5
1A52F
  8
KI
  6
CONTINUOUS
 62
     7
 10
-218.53012914768189
 20
-58.068618101782029
 30
0.0
 11
-218.5301291476822
 21
-50.068618101782931
 31
0.0
  0
LINE
  5
1A530
  8
KI
  6
CONTINUOUS
 62
     7
 10
-218.53012914768269
 20
-52.929699663505062
 30
0.0
 11
-218.3301291476819
 21
-52.729699663504789
 31
0.0
  0
LINE
  5
1A531
  8
KI
  6
CONTINUOUS
 62
     7
 10
-218.3301291476819
 20
-53.627725275611489
 30
0.0
 11
-217.73012314768241
 21
-53.027719275611382
 31
0.0
  0
LINE
  5
1A532
  8
KI
  6
CONTINUOUS
 62
     7
 10
-218.53012914768269
 20
-53.827725275612238
 30
0.0
 11
-218.3301291476819
 21
-53.627725275611489
 31
0.0
  0
LINE
  5
1A533
  8
KI
  6
CONTINUOUS
 62
     7
 10
-218.33012914768119
 20
-54.525750887718686
 30
0.0
 11
-217.73012314768141
 21
-53.925744887718558
 31
0.0
  0
LINE
  5
1A534
  8
KI
  6
CONTINUOUS
 62
     7
 10
-218.53012914768189
 20
-54.725750887718966
 30
0.0
 11
-218.3301291476815
 21
-54.525750887718686
 31
0.0
  0
LINE
  5
1A535
  8
KI
  6
CONTINUOUS
 62
     7
 10
-218.33012914768119
 20
-55.423776499824953
 30
0.0
 11
-217.97497074963789
 21
-55.068618101782029
 31
0.0
  0
LINE
  5
1A536
  8
KI
  6
CONTINUOUS
 62
     7
 10
-217.97497074963789
 20
-55.068618101782029
 30
0.0
 11
-217.7507586139628
 21
-54.844405966106713
 31
0.0
  0
LINE
  5
1A537
  8
KI
  6
CONTINUOUS
 62
     7
 10
-218.53012914768109
 20
-55.623776499825681
 30
0.0
 11
-218.3301291476815
 21
-55.423776499825401
 31
0.0
  0
LINE
  5
1A538
  8
KI
  6
CONTINUOUS
 62
     7
 10
-218.3301291476815
 20
-56.321802111932577
 30
0.0
 11
-217.73012914768191
 21
-55.721802111933123
 31
0.0
  0
LINE
  5
1A539
  8
KI
  6
CONTINUOUS
 62
     7
 10
-218.53012914768109
 20
-56.521802111932402
 30
0.0
 11
-218.3301291476815
 21
-56.321802111932577
 31
0.0
  0
LINE
  5
1A53A
  8
KI
  6
CONTINUOUS
 62
     7
 10
-218.3301291476815
 20
-57.219827724039277
 30
0.0
 11
-217.73012914768151
 21
-56.619827724039382
 31
0.0
  0
LINE
  5
1A53B
  8
KI
  6
CONTINUOUS
 62
     7
 10
-218.53012914768189
 20
-57.419827724039571
 30
0.0
 11
-218.3301291476815
 21
-57.219827724039277
 31
0.0
  0
LINE
  5
1A53C
  8
KI
  6
CONTINUOUS
 62
     7
 10
-218.28089391331761
 20
-58.068618101781567
 30
0.0
 11
-217.73012914768151
 21
-57.517853336146118
 31
0.0
  0
LINE
  5
1A53D
  8
KI
  6
CONTINUOUS
 62
     7
 10
-218.53012914768189
 20
-58.068618101782029
 30
0.0
 11
-217.73012914768151
 21
-58.068618101782029
 31
0.0
  0
LINE
  5
1A53E
  8
KI
  6
CONTINUOUS
 62
     7
 10
-217.73012914768111
 20
-59.080596854051898
 30
0.0
 11
-217.73012914768151
 21
-55.318628101782672
 31
0.0
  0
LINE
  5
1A53F
  8
KI
  6
CONTINUOUS
 62
     7
 10
-217.93012914768201
 20
-55.068628101782231
 30
0.0
 11
-217.73012914768151
 21
-54.818618101782477
 31
0.0
  0
LINE
  5
1A540
  8
KI
  6
CONTINUOUS
 62
     7
 10
-217.930123147682
 20
-55.068628101782231
 30
0.0
 11
-217.73012914768151
 21
-55.318628101782672
 31
0.0
  0
ARC
  5
1A541
  8
KI
  6
CONTINUOUS
 62
     7
 10
-218.03012914768189
 20
-59.780596854052192
 30
0.0
 40
0.3
 50
180.00000000034751
 51
270.0000000000847
  0
LINE
  5
1A542
  8
KI
  6
CONTINUOUS
 62
     7
 10
-217.73012914768151
 20
-60.080596854051933
 30
0.0
 11
-218.03012914768189
 21
-60.080596854052352
 31
0.0
  0
ARC
  5
1A543
  8
KI
  6
CONTINUOUS
 62
     7
 10
-218.03012914768439
 20
-59.380596854052563
 30
0.0
 40
0.3
 50
90.000000000084668
 51
180.00000000034751
  0
LINE
  5
1A544
  8
KI
  6
CONTINUOUS
 62
     7
 10
-218.3301291476819
 20
-59.780596854052192
 30
0.0
 11
-218.33012914768409
 21
-59.380596854052563
 31
0.0
  0
LINE
  5
1A545
  8
KI
  6
CONTINUOUS
 62
     7
 10
-218.03012914768439
 20
-59.080596854052381
 30
0.0
 11
-217.73012914768111
 21
-59.080596854051898
 31
0.0
  0
LINE
  5
1A546
  8
KI
  6
CONTINUOUS
 62
     7
 10
-218.53012914768269
 20
-50.235622827184898
 30
0.0
 11
-218.36312442227899
 21
-50.068618101781112
 31
0.0
  0
LINE
  5
1A547
  8
KI
  6
CONTINUOUS
 62
     7
 10
-218.3301291476819
 20
-50.933648439290437
 30
0.0
 11
-217.73012314768181
 21
-50.33364243929077
 31
0.0
  0
LINE
  5
1A548
  8
KI
  6
CONTINUOUS
 62
     7
 10
-218.5301291476822
 20
-51.13364843929115
 30
0.0
 11
-218.3301291476819
 21
-50.933648439290877
 31
0.0
  0
LINE
  5
1A549
  8
KI
  6
CONTINUOUS
 62
     7
 10
-218.3301291476819
 20
-51.831674051398068
 30
0.0
 11
-217.73012314768181
 21
-51.231668051397961
 31
0.0
  0
LINE
  5
1A54A
  8
KI
  6
CONTINUOUS
 62
     7
 10
-218.53012914768269
 20
-52.031674051398348
 30
0.0
 11
-218.3301291476819
 21
-51.831674051398068
 31
0.0
  0
LINE
  5
1A54B
  8
KI
  6
CONTINUOUS
 62
     7
 10
-218.5301291476822
 20
-50.068618101782931
 30
0.0
 11
-217.73012314768141
 21
-50.068618101781567
 31
0.0
  0
ARC
  5
1A54C
  8
KI
  6
CONTINUOUS
 62
     7
 10
-218.03012914768439
 20
-48.768618101782742
 30
0.0
 40
0.3
 50
180.00000000034751
 51
270.0000000000847
  0
ARC
  5
1A54D
  8
KI
  6
CONTINUOUS
 62
     7
 10
-218.03012914768641
 20
-48.368618101783113
 30
0.0
 40
0.3
 50
90.000000000084668
 51
180.00000000034751
  0
LINE
  5
1A54E
  8
KI
  6
CONTINUOUS
 62
     7
 10
-218.33012914768381
 20
-48.768618101782742
 30
0.0
 11
-218.33012914768639
 21
-48.368618101783113
 31
0.0
  0
LINE
  5
1A54F
  8
KI
  6
CONTINUOUS
 62
     7
 10
-217.73012314768141
 20
-49.068618101782931
 30
0.0
 11
-218.03012914768439
 21
-49.068618101782931
 31
0.0
  0
ARC
  5
1A550
  8
KI
  6
CONTINUOUS
 62
     7
 10
-232.0509126128099
 20
-62.285209271732342
 30
0.0
 40
24.521586859558742
 50
356.28881364656843
 51
30.70307659906404
  0
ARC
  5
1A551
  8
KI
  6
CONTINUOUS
 62
     7
 10
-232.0509126128099
 20
-62.285209271732342
 30
0.0
 40
23.321944298558741
 50
356.28881364656843
 51
31.58910060604277
  0
LINE
  5
1A552
  8
KI
  6
CONTINUOUS
 62
     7
 10
-215.73015971636511
 20
-60.580441167841599
 30
0.0
 11
-215.73015971636511
 21
-50.568618101782029
 31
0.0
  0
LINE
  5
1A553
  8
KI
  6
CONTINUOUS
 62
     7
 10
-214.91447071482639
 20
-63.625336508103139
 30
0.0
 11
-214.9144709559281
 21
-63.625336311675461
 31
0.0
  0
ARC
  5
1A554
  8
KI
  6
CONTINUOUS
 62
     7
 10
-212.6126672772985
 20
-67.572295196366895
 30
0.0
 40
0.3
 50
163.7169370572291
 51
347.14909562687671
  0
ARC
  5
1A555
  8
KI
  6
CONTINUOUS
 62
     7
 10
-213.72811862845671
 20
-66.21146445787393
 30
0.0
 40
0.5
 50
49.327411972636412
 51
65.442606426039717
  0
ARC
  5
1A556
  8
KI
  6
CONTINUOUS
 62
     7
 10
-209.9461242714853
 20
-57.934601196350492
 30
0.0
 40
10.0
 50
250.1968242058378
 51
252.81541990369061
  0
ARC
  5
1A557
  8
KI
  6
CONTINUOUS
 62
     7
 10
-213.61472726711369
 20
-67.23736165013338
 30
0.0
 40
0.3
 50
157.61329912440891
 51
339.33735528098401
  0
ARC
  5
1A558
  8
KI
  6
CONTINUOUS
 62
     7
 10
-211.57739109688799
 20
-63.708591891210951
 30
0.0
 40
4.0
 50
334.29819125374348
 51
357.65265816413881
  0
ARC
  5
1A559
  8
KI
  6
CONTINUOUS
 62
     7
 10
-209.9461172337075
 20
-57.934601196340957
 30
0.0
 40
8.7999999999999972
 50
254.19808653013209
 51
254.2239622526468
  0
ARC
  5
1A55A
  8
KI
  6
CONTINUOUS
 62
     7
 10
-208.11328948175009
 20
-65.708591891210062
 30
0.0
 40
0.3
 50
237.85090437317311
 51
62.149095626860827
  0
ARC
  5
1A55B
  8
KI
  6
CONTINUOUS
 62
     7
 10
-211.57739109688799
 20
-63.708591891210951
 30
0.0
 40
4.0
 50
319.29819125370523
 51
325.70180874629273
  0
ARC
  5
1A55C
  8
KI
  6
CONTINUOUS
 62
     7
 10
-208.74896397214309
 20
-66.537019015958094
 30
0.0
 40
0.3
 50
222.8509043731234
 51
47.149095626853317
  0
ARC
  5
1A55D
  8
KI
  6
CONTINUOUS
 62
     7
 10
-211.57739109688609
 20
-67.708591891210972
 30
0.0
 40
0.3
 50
177.85090437321941
 51
2.1490956268587862
  0
ARC
  5
1A55E
  8
KI
  6
CONTINUOUS
 62
     7
 10
-210.54211491647561
 20
-67.57229519636644
 30
0.0
 40
0.3
 50
192.85090437317689
 51
17.149095626929501
  0
ARC
  5
1A55F
  8
KI
  6
CONTINUOUS
 62
     7
 10
-211.57739109688799
 20
-63.708591891210951
 30
0.0
 40
4.0
 50
289.29819125377401
 51
295.70180874626232
  0
ARC
  5
1A560
  8
KI
  6
CONTINUOUS
 62
     7
 10
-209.5773910968889
 20
-67.172693506349106
 30
0.0
 40
0.3
 50
207.8509043731118
 51
32.149095626882911
  0
ARC
  5
1A561
  8
KI
  6
CONTINUOUS
 62
     7
 10
-211.57739109688799
 20
-63.708591891210951
 30
0.0
 40
4.0
 50
304.29819125372239
 51
310.70180874624521
  0
ARC
  5
1A562
  8
KI
  6
CONTINUOUS
 62
     7
 10
-211.57739109688799
 20
-63.708591891210951
 30
0.0
 40
4.0
 50
259.29819125371631
 51
265.7018087463
  0
ARC
  5
1A563
  8
KI
  6
CONTINUOUS
 62
     7
 10
-211.57739109688799
 20
-63.708591891233262
 30
0.0
 40
4.0
 50
274.29819125375832
 51
280.7018087463199
  0
ARC
  5
1A564
  8
KI
  6
CONTINUOUS
 62
     7
 10
-211.57739109688799
 20
-63.708591891210951
 30
0.0
 40
2.799999999999998
 50
229.327411972644
 51
357.65265816413881
  0
ARC
  5
1A565
  8
KI
  6
CONTINUOUS
 62
     7
 10
-208.48123663470011
 20
-60.545571205622537
 30
0.0
 40
7.2490069497939373
 50
180.2756114576494
 51
225.96157026527999
  0
ARC
  5
1A566
  8
KI
  6
CONTINUOUS
 62
     7
 10
-210.53673029828229
 20
-49.509460044868547
 30
0.0
 40
0.5
 50
116.01906736229191
 51
210.70307659906439
  0
ARC
  5
1A567
  8
KI
  6
CONTINUOUS
 62
     7
 10
-213.9479660220326
 20
-42.521293700231347
 30
0.0
 40
7.2763100519022599
 50
296.01906736229182
 51
331.88676723363909
  0
ARC
  5
1A568
  8
KI
  6
CONTINUOUS
 62
     7
 10
-213.9479660220326
 20
-42.521293700231347
 30
0.0
 40
5.776310051902259
 50
286.18682820039709
 51
331.88676723363909
  0
LINE
  5
1A569
  8
KI
  6
CONTINUOUS
 62
     7
 10
-215.80403041645309
 20
-48.068618101781567
 30
0.0
 11
-212.33770213072481
 21
-48.0686181017834
 31
0.0
  0
LINE
  5
1A56A
  8
KI
  6
CONTINUOUS
 62
     7
 10
-215.23015971636511
 20
-50.068618101782029
 30
0.0
 11
-212.1846601717636
 21
-50.068618101782029
 31
0.0
  0
ARC
  5
1A56B
  8
KI
  6
CONTINUOUS
 62
     7
 10
-215.23015971636511
 20
-50.568618101782029
 30
0.0
 40
0.5
 50
89.999999999996732
 51
180.0
  0
ARC
  5
1A56C
  8
KI
  6
CONTINUOUS
 62
     7
 10
-208.2411919172701
 20
-45.689338702575462
 30
0.0
 40
0.7573354118943643
 50
339.86775998205133
 51
143.9057744852264
  0
LINE
  5
1A56D
  8
SU
  6
CONTINUOUS
 62
     3
 10
-270.03012754897429
 20
-84.068655924735808
 30
0.0
 11
-270.03012754897429
 21
-106.068655924735
 31
0.0
  0
LINE
  5
1A56E
  8
SU
  6
CONTINUOUS
 62
     3
 10
-163.0301275581015
 20
-84.068655924735339
 30
0.0
 11
-163.0301275581015
 21
-106.068655924735
 31
0.0
  0
LINE
  5
1A56F
  8
SU
  6
CONTINUOUS
 62
     3
 10
-270.03012754897429
 20
-103.0686559247349
 30
0.0
 11
-163.0301275581015
 21
-103.0686559247349
 31
0.0
  0
TEXT
  5
1A570
  8
SU
  6
CONTINUOUS
 62
     3
 10
-282.20032538120108
 20
-245.8238721590958
 30
0.0
 40
4.0
  1
ボトムタイトナー（三方枠用）
 41
0.8299999999999999
  0
TEXT
  5
1A571
  8
SU
  6
CONTINUOUS
 62
     3
 10
-267.29194442881982
 20
-252.49053882576251
 30
0.0
 40
4.0
  1
〔オプション〕
 41
0.8299999999999999
  0
LINE
  5
1A572
  8
SU
  6
CONTINUOUS
 62
     3
 10
-166.53012743942071
 20
-63.068653096843491
 30
0.0
 11
-122.03012743546959
 21
-63.068653096843498
 31
0.0
  0
LINE
  5
1A573
  8
SU
  6
CONTINUOUS
 62
     3
 10
-125.03012743546959
 20
120.42750074568499
 30
0.0
 11
-125.03012743546959
 21
-63.068653096843498
 31
0.0
  0
LINE
  5
1A574
  8
KI
  6
CONTINUOUS
 62
     7
 10
263.62421578619012
 20
-102.5353609779422
 30
0.0
 11
263.62421578619012
 21
-42.535359265480672
 31
0.0
  0
LINE
  5
1A575
  8
KI
  6
CONTINUOUS
 62
     7
 10
266.12421578619012
 20
76.964639022057654
 30
0.0
 11
287.62421578618989
 21
76.964639022057654
 31
0.0
  0
LINE
  5
1A576
  8
KI
  6
CONTINUOUS
 62
     7
 10
266.12421578619012
 20
76.964639022057654
 30
0.0
 11
263.62421578619012
 21
74.464639022057654
 31
0.0
1001
GENIUS_GENFIL_13
1070
     0
1040
2.5
1040
2.5
1040
20.0
1040
0.0
1002
{
1002
}
1001
GENIUS_GENOBJ-N-CHA_13
1002
{
1000
OWNER
1000
GEN
1002
}
1001
GENIUS_GENODEF_13
1002
{
1000
HIER
1070
     0
1002
}
1002
{
1000
MANEDIT
1070
     0
1002
}
1002
{
1000
NOSEL
1070
     0
1002
}
1002
{
1000
BEHIND
1070
     0
1002
}
1002
{
1000
OTHER
1070
     0
1002
}
1002
{
1000
REACTOR
1002
}
  0
LINE
  5
1A577
  8
KI
  6
CONTINUOUS
 62
     7
 10
287.62421578618989
 20
76.964639022059018
 30
0.0
 11
287.62421578618989
 21
-105.0353609779422
 31
0.0
  0
LINE
  5
1A578
  8
KI
  6
CONTINUOUS
 62
     7
 10
287.62421578618989
 20
-105.0353609779422
 30
0.0
 11
266.12421578619012
 21
-105.0353609779422
 31
0.0
  0
LINE
  5
1A579
  8
KI
  6
CONTINUOUS
 62
     7
 10
266.12421578619012
 20
-105.0353609779422
 30
0.0
 11
263.62421578619012
 21
-102.5353609779422
 31
0.0
1001
GENIUS_GENFIL_13
1070
     0
1040
2.5
1040
2.5
1040
20.0
1040
0.0
1002
{
1002
}
1001
GENIUS_GENOBJ-N-CHA_13
1002
{
1000
OWNER
1000
GEN
1002
}
1001
GENIUS_GENODEF_13
1002
{
1000
HIER
1070
     0
1002
}
1002
{
1000
MANEDIT
1070
     0
1002
}
1002
{
1000
NOSEL
1070
     0
1002
}
1002
{
1000
BEHIND
1070
     0
1002
}
1002
{
1000
OTHER
1070
     0
1002
}
1002
{
1000
REACTOR
1002
}
  0
LINE
  5
1A57A
  8
OS
  6
CONTINUOUS
 62
     2
 10
287.62421578618989
 20
72.116925422567775
 30
0.0
 11
282.77650218669999
 21
76.964639022057654
 31
0.0
  0
LINE
  5
1A57B
  8
OS
  6
CONTINUOUS
 62
     2
 10
287.62421578618989
 20
62.217430485956022
 30
0.0
 11
272.87700725008818
 21
76.96463902205754
 31
0.0
  0
LINE
  5
1A57C
  8
OS
  6
CONTINUOUS
 62
     2
 10
287.62421578618989
 20
52.317935549344263
 30
0.0
 11
264.55086404983331
 21
75.391287285700813
 31
0.0
  0
LINE
  5
1A57D
  8
OS
  6
CONTINUOUS
 62
     2
 10
287.62421578618989
 20
42.418440612732752
 30
0.0
 11
263.62421578619001
 21
66.418440612732638
 31
0.0
  0
LINE
  5
1A57E
  8
OS
  6
CONTINUOUS
 62
     2
 10
287.62421578618989
 20
32.518945676121
 30
0.0
 11
263.62421578619001
 21
56.518945676120893
 31
0.0
  0
LINE
  5
1A57F
  8
OS
  6
CONTINUOUS
 62
     2
 10
287.62421578618989
 20
22.619450739509261
 30
0.0
 11
263.62421578619001
 21
46.619450739509141
 31
0.0
  0
LINE
  5
1A580
  8
OS
  6
CONTINUOUS
 62
     2
 10
287.62421578618989
 20
12.71995580289772
 30
0.0
 11
263.62421578619001
 21
36.71995580289763
 31
0.0
  0
LINE
  5
1A581
  8
OS
  6
CONTINUOUS
 62
     2
 10
287.62421578618989
 20
2.820460866285996
 30
0.0
 11
263.62421578619001
 21
26.820460866285881
 31
0.0
  0
LINE
  5
1A582
  8
OS
  6
CONTINUOUS
 62
     2
 10
287.62421578618989
 20
-7.0790340703257471
 30
0.0
 11
263.62421578619001
 21
16.920965929674139
 31
0.0
  0
LINE
  5
1A583
  8
OS
  6
CONTINUOUS
 62
     2
 10
287.62421578618989
 20
-16.978529006937261
 30
0.0
 11
263.62421578619001
 21
7.0214709930626178
 31
0.0
  0
LINE
  5
1A584
  8
OS
  6
CONTINUOUS
 62
     2
 10
287.62421578618989
 20
-26.87802394354901
 30
0.0
 11
263.62421578619001
 21
-2.8780239435491231
 31
0.0
  0
LINE
  5
1A585
  8
OS
  6
CONTINUOUS
 62
     2
 10
287.6242157861895
 20
-36.77751888016072
 30
0.0
 11
263.62421578619001
 21
-12.777518880160841
 31
0.0
  0
LINE
  5
1A586
  8
OS
  6
CONTINUOUS
 62
     2
 10
287.62421578618989
 20
-46.677013816772273
 30
0.0
 11
268.62421578619001
 21
-27.677013816772462
 31
0.0
  0
LINE
  5
1A587
  8
OS
  6
CONTINUOUS
 62
     2
 10
287.62421578618989
 20
-56.576508753384019
 30
0.0
 11
268.62421578619001
 21
-37.576508753384203
 31
0.0
  0
LINE
  5
1A588
  8
OS
  6
CONTINUOUS
 62
     2
 10
287.6242157861895
 20
-66.47600368999565
 30
0.0
 11
263.68357136167469
 21
-42.535359265480672
 31
0.0
  0
LINE
  5
1A589
  8
OS
  6
CONTINUOUS
 62
     2
 10
287.62421578618989
 20
-76.375498626607282
 30
0.0
 11
263.62421578619012
 21
-52.375498626607488
 31
0.0
  0
LINE
  5
1A58A
  8
OS
  6
CONTINUOUS
 62
     2
 10
287.62421578618989
 20
-86.274993563219013
 30
0.0
 11
263.62421578619012
 21
-62.274993563219141
 31
0.0
  0
LINE
  5
1A58B
  8
OS
  6
CONTINUOUS
 62
     2
 10
287.6242157861895
 20
-96.174488499830659
 30
0.0
 11
263.6242157861895
 21
-72.174488499830844
 31
0.0
  0
LINE
  5
1A58C
  8
OS
  6
CONTINUOUS
 62
     2
 10
286.58559332768999
 20
-105.0353609779424
 30
0.0
 11
263.62421578619001
 21
-82.073983436442404
 31
0.0
  0
LINE
  5
1A58D
  8
OS
  6
CONTINUOUS
 62
     2
 10
276.68609839107842
 20
-105.0353609779422
 30
0.0
 11
263.62421578619012
 21
-91.973478373054064
 31
0.0
  0
LINE
  5
1A58E
  8
OS
  6
CONTINUOUS
 62
     2
 10
266.78660345446639
 20
-105.0353609779424
 30
0.0
 11
263.6242157861895
 21
-101.8729733096655
 31
0.0
  0
LINE
  5
1A58F
  8
KI
  6
CONTINUOUS
 62
     7
 10
263.62421578619012
 20
-26.535361739878319
 30
0.0
 11
268.62421578619012
 21
-26.535361739878319
 31
0.0
  0
LINE
  5
1A590
  8
KI
  6
CONTINUOUS
 62
     7
 10
268.62421578619012
 20
-42.535359265480672
 30
0.0
 11
268.62421578619012
 21
-26.535361739878319
 31
0.0
  0
LINE
  5
1A591
  8
KI
  6
CONTINUOUS
 62
     7
 10
268.62421578619012
 20
-42.535359265480672
 30
0.0
 11
263.62421578619012
 21
-42.535359265480672
 31
0.0
  0
LINE
  5
1A592
  8
OS
  6
CONTINUOUS
 62
     2
 10
267.4825637092959
 20
-26.535361739878319
 30
0.0
 11
263.62421578619001
 21
-22.67701381677238
 31
0.0
  0
LINE
  5
1A593
  8
KI
  6
CONTINUOUS
 62
     7
 10
263.62421578619012
 20
-26.535361739878319
 30
0.0
 11
263.62421578619012
 21
74.464639022057682
 31
0.0
  0
LINE
  5
1A594
  8
OS
  6
CONTINUOUS
 62
     2
 10
-317.53012743547112
 20
188.42750074568511
 30
0.0
 11
-317.53012743547112
 21
147.42750074568511
 31
0.0
  0
LINE
  5
1A595
  8
OS
  6
CONTINUOUS
 62
     2
 10
-315.53012743547112
 20
188.42750074568511
 30
0.0
 11
-315.53012743547112
 21
147.42750074568511
 31
0.0
  0
LINE
  5
1A596
  8
OS
  6
CONTINUOUS
 62
     2
 10
-303.53012743547112
 20
188.42750074568511
 30
0.0
 11
-303.53012743547112
 21
147.42750074568511
 31
0.0
  0
LINE
  5
1A597
  8
OS
  6
CONTINUOUS
 62
     2
 10
-326.03012743547112
 20
188.42750074568511
 30
0.0
 11
-326.03012743547112
 21
147.42750074568511
 31
0.0
  0
LINE
  5
1A598
  8
OS
  6
CONTINUOUS
 62
     2
 10
-328.03012743547112
 20
188.42750074568511
 30
0.0
 11
-328.03012743547112
 21
147.42750074568511
 31
0.0
  0
LINE
  5
1A599
  8
OS
  6
CONTINUOUS
 62
     2
 10
-174.030127435471
 20
147.42750074568511
 30
0.0
 11
-328.03012743547112
 21
147.42750074568511
 31
0.0
  0
LINE
  5
1A59A
  8
OS
  6
CONTINUOUS
 62
     2
 10
-198.53011980607701
 20
147.42754513410881
 30
0.0
 11
-303.53012743547112
 21
152.42754556837789
 31
0.0
  0
LINE
  5
1A59B
  8
OS
  6
CONTINUOUS
 62
     2
 10
-198.5301274354712
 20
152.42750074568511
 30
0.0
 11
-303.53012743547112
 21
152.42750074568511
 31
0.0
  0
LINE
  5
1A59C
  8
OS
  6
CONTINUOUS
 62
     2
 10
-227.93003145223039
 20
188.42750074568511
 30
0.0
 11
-303.53007402970923
 21
152.4273629397463
 31
0.0
  0
LINE
  5
1A59D
  8
OS
  6
CONTINUOUS
 62
     2
 10
-176.03012743547089
 20
188.42750074568511
 30
0.0
 11
-176.03012743547089
 21
147.42750074568511
 31
0.0
  0
LINE
  5
1A59E
  8
OS
  6
CONTINUOUS
 62
     2
 10
-184.5301274354712
 20
188.42750074568511
 30
0.0
 11
-184.5301274354712
 21
147.42750074568511
 31
0.0
  0
LINE
  5
1A59F
  8
OS
  6
CONTINUOUS
 62
     2
 10
-174.030127435471
 20
188.42750074568511
 30
0.0
 11
-174.030127435471
 21
147.42750074568511
 31
0.0
  0
LINE
  5
1A5A0
  8
OS
  6
CONTINUOUS
 62
     2
 10
-186.530127435471
 20
188.42750074568511
 30
0.0
 11
-186.530127435471
 21
147.42750074568511
 31
0.0
  0
LINE
  5
1A5A1
  8
OS
  6
CONTINUOUS
 62
     2
 10
-198.5301274354712
 20
188.42750074568511
 30
0.0
 11
-198.5301274354712
 21
147.42750074568511
 31
0.0
  0
LINE
  5
1A5A2
  8
SU
  6
CONTINUOUS
 62
     3
 10
-14.375786681000021
 20
50.464639022057682
 30
0.0
 11
-36.375786681007952
 21
50.464639022057682
 31
0.0
  0
LINE
  5
1A5A3
  8
SU
  6
CONTINUOUS
 62
     3
 10
-33.37578668100798
 20
38.464639022057689
 30
0.0
 11
-33.37578668100798
 21
50.464639022057682
 31
0.0
  0
LINE
  5
1A5A4
  8
SU
  6
CONTINUOUS
 62
     3
 10
-33.37578668100798
 20
50.464639022057682
 30
0.0
 11
-33.375786681007959
 21
62.964639022057682
 31
0.0
  0
LINE
  5
1A5A5
  8
SU
  6
CONTINUOUS
 62
     3
 10
-33.375786681007959
 20
62.964639022057682
 30
0.0
 11
-33.375786681007959
 21
88.696123711716098
 31
0.0
  0
LINE
  5
1A5A6
  8
SU
  6
CONTINUOUS
 62
     3
 10
-14.375786681000021
 20
62.964639022057682
 30
0.0
 11
-51.375786681007973
 21
62.964639022057682
 31
0.0
  0
LINE
  5
1A5A7
  8
SU
  6
CONTINUOUS
 62
     3
 10
36.62421578619044
 20
76.964639022057682
 30
0.0
 11
-51.375786681007973
 21
76.96463902205771
 31
0.0
  0
LINE
  5
1A5A8
  8
SU
  6
CONTINUOUS
 62
     3
 10
-48.375786681007959
 20
62.964639022057682
 30
0.0
 11
-48.375786681007959
 21
76.96463902205771
 31
0.0
  0
LINE
  5
1A5A9
  8
SU
  6
CONTINUOUS
 62
     3
 10
-14.375786681000021
 20
-78.53536097794229
 30
0.0
 11
-36.375786681007952
 21
-78.53536097794229
 31
0.0
  0
LINE
  5
1A5AA
  8
SU
  6
CONTINUOUS
 62
     3
 10
-33.37578668100798
 20
-66.535360977942318
 30
0.0
 11
-33.37578668100798
 21
-78.53536097794229
 31
0.0
  0
LINE
  5
1A5AB
  8
SU
  6
CONTINUOUS
 62
     3
 10
-14.375786681000021
 20
-91.035360977942275
 30
0.0
 11
-51.375786681007973
 21
-91.035360977942275
 31
0.0
  0
LINE
  5
1A5AC
  8
SU
  6
CONTINUOUS
 62
     3
 10
36.62421578619044
 20
-105.0353609779422
 30
0.0
 11
-51.375786681007973
 21
-105.0353609779422
 31
0.0
  0
LINE
  5
1A5AD
  8
SU
  6
CONTINUOUS
 62
     3
 10
-48.375786681007959
 20
-91.035360977942275
 30
0.0
 11
-48.375786681007959
 21
-105.0353609779422
 31
0.0
  0
LINE
  5
1A5AE
  8
SU
  6
CONTINUOUS
 62
     3
 10
-33.37578668100798
 20
-78.53536097794229
 30
0.0
 11
-33.37578668100798
 21
-91.035360977942275
 31
0.0
  0
LINE
  5
1A5AF
  8
SU
  6
CONTINUOUS
 62
     3
 10
-33.37578668100798
 20
-91.035360977942275
 30
0.0
 11
-33.37578668100798
 21
-116.76684566760071
 31
0.0
  0
LINE
  5
1A5B0
  8
SU
  6
CONTINUOUS
 62
     3
 10
-14.375786681000021
 20
-66.535360977942318
 30
0.0
 11
-36.375786681008002
 21
-66.535360977942318
 31
0.0
  0
LINE
  5
1A5B1
  8
SU
  6
CONTINUOUS
 62
     3
 10
-14.375786681000021
 20
38.464639022057682
 30
0.0
 11
-36.375786681007952
 21
38.464639022057689
 31
0.0
  0
LINE
  5
1A5B2
  8
SU
  6
CONTINUOUS
 62
     3
 10
-33.375786681008002
 20
-66.535360977942318
 30
0.0
 11
-33.37578668100798
 21
38.464639022057689
 31
0.0
  0
LINE
  5
1A5B3
  8
SU
  6
CONTINUOUS
 62
     3
 10
-48.375786681007959
 20
62.964639022057682
 30
0.0
 11
-48.375786681007959
 21
-91.035360977942275
 31
0.0
  0
LINE
  5
1A5B4
  8
OS
  6
CONTINUOUS
 62
     2
 10
338.62421823472562
 20
-89.035360977942261
 30
0.0
 11
287.6242157675353
 21
-89.035360977942261
 31
0.0
  0
LINE
  5
1A5B5
  8
OS
  6
CONTINUOUS
 62
     2
 10
338.62421823472562
 20
-91.035360977942275
 30
0.0
 11
287.6242157675353
 21
-91.035360977942275
 31
0.0
  0
LINE
  5
1A5B6
  8
OS
  6
CONTINUOUS
 62
     2
 10
338.62421823472562
 20
-78.53536097794229
 30
0.0
 11
287.6242157675353
 21
-78.53536097794229
 31
0.0
  0
LINE
  5
1A5B7
  8
OS
  6
CONTINUOUS
 62
     2
 10
338.62421823472562
 20
-80.535360977942275
 30
0.0
 11
287.6242157675353
 21
-80.535360977942275
 31
0.0
  0
LINE
  5
1A5B8
  8
OS
  6
CONTINUOUS
 62
     2
 10
338.62421823472562
 20
-66.535360977942318
 30
0.0
 11
287.6242157675353
 21
-66.535360977942318
 31
0.0
  0
LINE
  5
1A5B9
  8
OS
  6
CONTINUOUS
 62
     2
 10
338.62421823472562
 20
-20.53518749928055
 30
0.0
 11
292.6240936972153
 21
-66.53531138687741
 31
0.0
  0
LINE
  5
1A5BA
  8
OS
  6
CONTINUOUS
 62
     2
 10
292.6240784384251
 20
38.464700057213697
 30
0.0
 11
338.62421823472562
 21
-7.535430640300687
 31
0.0
  0
LINE
  5
1A5BB
  8
OS
  6
CONTINUOUS
 62
     2
 10
338.62421823472562
 20
38.464639022057682
 30
0.0
 11
287.6242157675353
 21
38.464639022057682
 31
0.0
  0
LINE
  5
1A5BC
  8
OS
  6
CONTINUOUS
 62
     2
 10
338.62421823472562
 20
50.464639022057682
 30
0.0
 11
287.6242157675353
 21
50.464639022057682
 31
0.0
  0
LINE
  5
1A5BD
  8
OS
  6
CONTINUOUS
 62
     2
 10
338.62421823472562
 20
52.464639022057682
 30
0.0
 11
287.6242157675353
 21
52.464639022057682
 31
0.0
  0
LINE
  5
1A5BE
  8
OS
  6
CONTINUOUS
 62
     2
 10
338.62421823472562
 20
62.964639022057682
 30
0.0
 11
287.6242157675353
 21
62.964639022057682
 31
0.0
  0
LINE
  5
1A5BF
  8
OS
  6
CONTINUOUS
 62
     2
 10
338.62421823472562
 20
60.964639022057668
 30
0.0
 11
287.6242157675353
 21
60.964639022057668
 31
0.0
  0
LINE
  5
1A5C0
  8
OS
  6
CONTINUOUS
 62
     2
 10
287.62424628510519
 20
38.46464283675472
 30
0.0
 11
292.62424628510502
 21
-66.535364792639356
 31
0.0
  0
LINE
  5
1A5C1
  8
OS
  6
CONTINUOUS
 62
     2
 10
292.6242157675353
 20
38.464639022057682
 30
0.0
 11
292.6242157675353
 21
-66.535360977942318
 31
0.0
  0
LINE
  5
1A5C2
  8
OS
  6
CONTINUOUS
 62
     2
 10
-13.375786681000021
 20
-89.035360977942261
 30
0.0
 11
37.624215786190469
 21
-89.035360977942261
 31
0.0
  0
LINE
  5
1A5C3
  8
OS
  6
CONTINUOUS
 62
     2
 10
-13.375786681000021
 20
-91.035360977942275
 30
0.0
 11
37.624215786190469
 21
-91.035360977942275
 31
0.0
  0
LINE
  5
1A5C4
  8
OS
  6
CONTINUOUS
 62
     2
 10
-13.375786681000021
 20
-78.53536097794229
 30
0.0
 11
37.624215786190469
 21
-78.53536097794229
 31
0.0
  0
LINE
  5
1A5C5
  8
OS
  6
CONTINUOUS
 62
     2
 10
-13.375786681000021
 20
-80.535360977942275
 30
0.0
 11
37.624215786190469
 21
-80.535360977942275
 31
0.0
  0
LINE
  5
1A5C6
  8
OS
  6
CONTINUOUS
 62
     2
 10
-13.375786681000021
 20
-66.535360977942318
 30
0.0
 11
37.624215786190469
 21
-66.535360977942318
 31
0.0
  0
LINE
  5
1A5C7
  8
OS
  6
CONTINUOUS
 62
     2
 10
-13.375786681000021
 20
-20.53518749928055
 30
0.0
 11
32.624337856510451
 21
-66.53531138687741
 31
0.0
  0
LINE
  5
1A5C8
  8
OS
  6
CONTINUOUS
 62
     2
 10
32.62435311530043
 20
38.464700057213697
 30
0.0
 11
-13.375786681000021
 21
-7.535430640300687
 31
0.0
  0
LINE
  5
1A5C9
  8
OS
  6
CONTINUOUS
 62
     2
 10
-13.375786681000021
 20
38.464639022057682
 30
0.0
 11
37.624215786190469
 21
38.464639022057682
 31
0.0
  0
LINE
  5
1A5CA
  8
OS
  6
CONTINUOUS
 62
     2
 10
-13.375786681000021
 20
50.464639022057682
 30
0.0
 11
37.624215786190469
 21
50.464639022057682
 31
0.0
  0
LINE
  5
1A5CB
  8
OS
  6
CONTINUOUS
 62
     2
 10
-13.375786681000021
 20
52.464639022057682
 30
0.0
 11
37.624215786190469
 21
52.464639022057682
 31
0.0
  0
LINE
  5
1A5CC
  8
OS
  6
CONTINUOUS
 62
     2
 10
-13.375786681000021
 20
62.964639022057682
 30
0.0
 11
37.624215786190469
 21
62.964639022057682
 31
0.0
  0
LINE
  5
1A5CD
  8
OS
  6
CONTINUOUS
 62
     2
 10
-13.375786681000021
 20
60.964639022057668
 30
0.0
 11
37.624215786190469
 21
60.964639022057668
 31
0.0
  0
LINE
  5
1A5CE
  8
OS
  6
CONTINUOUS
 62
     2
 10
37.624185268620522
 20
38.46464283675472
 30
0.0
 11
32.624185268620522
 21
-66.535364792639356
 31
0.0
  0
LINE
  5
1A5CF
  8
OS
  6
CONTINUOUS
 62
     2
 10
32.624215786190469
 20
38.464639022057682
 30
0.0
 11
32.624215786190469
 21
-66.535360977942318
 31
0.0
  0
LINE
  5
1A5D0
  8
SU
  6
CONTINUOUS
 62
     3
 10
-186.530127435471
 20
208.42750074569301
 30
0.0
 11
-174.030127435471
 21
208.42750074569301
 31
0.0
  0
LINE
  5
1A5D1
  8
SU
  6
CONTINUOUS
 62
     3
 10
-174.030127435471
 20
208.42750074569301
 30
0.0
 11
-148.2986427458128
 21
208.42750074569301
 31
0.0
  0
LINE
  5
1A5D2
  8
SU
  6
CONTINUOUS
 62
     3
 10
-174.030127435471
 20
189.42750074568511
 30
0.0
 11
-174.030127435471
 21
226.4275007456931
 31
0.0
  0
LINE
  5
1A5D3
  8
SU
  6
CONTINUOUS
 62
     3
 10
-160.0301274354712
 20
148.42750074568511
 30
0.0
 11
-160.0301274354712
 21
226.4275007456931
 31
0.0
  0
LINE
  5
1A5D4
  8
SU
  6
CONTINUOUS
 62
     3
 10
-174.030127435471
 20
223.4275007456929
 30
0.0
 11
-160.0301274354712
 21
223.4275007456929
 31
0.0
  0
LINE
  5
1A5D5
  8
SU
  6
CONTINUOUS
 62
     3
 10
-186.530127435471
 20
189.42750074568511
 30
0.0
 11
-186.530127435471
 21
211.4275007456931
 31
0.0
  0
LINE
  5
1A5D6
  8
SU
  6
CONTINUOUS
 62
     3
 10
-198.5301274354712
 20
208.42750074569301
 30
0.0
 11
-186.530127435471
 21
208.42750074569301
 31
0.0
  0
LINE
  5
1A5D7
  8
SU
  6
CONTINUOUS
 62
     3
 10
-315.53012743547112
 20
189.42750074568511
 30
0.0
 11
-315.53012743547112
 21
211.4275007456931
 31
0.0
  0
LINE
  5
1A5D8
  8
SU
  6
CONTINUOUS
 62
     3
 10
-303.53012743547112
 20
208.42750074569301
 30
0.0
 11
-315.53012743547112
 21
208.42750074569301
 31
0.0
  0
LINE
  5
1A5D9
  8
KI
  6
CONTINUOUS
 62
     7
 10
61.624215786190462
 20
-102.5353609779422
 30
0.0
 11
61.624215786190462
 21
-42.535359265480672
 31
0.0
  0
LINE
  5
1A5DA
  8
KI
  6
CONTINUOUS
 62
     7
 10
59.124215786190462
 20
76.964639022057654
 30
0.0
 11
37.624215786190469
 21
76.964639022057654
 31
0.0
  0
LINE
  5
1A5DB
  8
KI
  6
CONTINUOUS
 62
     7
 10
59.124215786190462
 20
76.964639022057654
 30
0.0
 11
61.624215786190462
 21
74.464639022057654
 31
0.0
1001
GENIUS_GENFIL_13
1070
     0
1040
2.5
1040
2.5
1040
20.0
1040
0.0
1002
{
1002
}
1001
GENIUS_GENOBJ-N-CHA_13
1002
{
1000
OWNER
1000
GEN
1002
}
1001
GENIUS_GENODEF_13
1002
{
1000
HIER
1070
     0
1002
}
1002
{
1000
MANEDIT
1070
     0
1002
}
1002
{
1000
NOSEL
1070
     0
1002
}
1002
{
1000
BEHIND
1070
     0
1002
}
1002
{
1000
OTHER
1070
     0
1002
}
1002
{
1000
REACTOR
1002
}
  0
LINE
  5
1A5DC
  8
KI
  6
CONTINUOUS
 62
     7
 10
37.624215786190469
 20
76.964639022059018
 30
0.0
 11
37.624215786190469
 21
-105.0353609779422
 31
0.0
  0
LINE
  5
1A5DD
  8
KI
  6
CONTINUOUS
 62
     7
 10
37.624215786190469
 20
-105.0353609779422
 30
0.0
 11
59.124215786190462
 21
-105.0353609779422
 31
0.0
  0
LINE
  5
1A5DE
  8
KI
  6
CONTINUOUS
 62
     7
 10
59.124215786190462
 20
-105.0353609779422
 30
0.0
 11
61.624215786190462
 21
-102.5353609779422
 31
0.0
1001
GENIUS_GENFIL_13
1070
     0
1040
2.5
1040
2.5
1040
20.0
1040
0.0
1002
{
1002
}
1001
GENIUS_GENOBJ-N-CHA_13
1002
{
1000
OWNER
1000
GEN
1002
}
1001
GENIUS_GENODEF_13
1002
{
1000
HIER
1070
     0
1002
}
1002
{
1000
MANEDIT
1070
     0
1002
}
1002
{
1000
NOSEL
1070
     0
1002
}
1002
{
1000
BEHIND
1070
     0
1002
}
1002
{
1000
OTHER
1070
     0
1002
}
1002
{
1000
REACTOR
1002
}
  0
LINE
  5
1A5DF
  8
OS
  6
CONTINUOUS
 62
     2
 10
37.624215786190682
 20
72.116925422567775
 30
0.0
 11
42.471929385680582
 21
76.964639022057654
 31
0.0
  0
LINE
  5
1A5E0
  8
OS
  6
CONTINUOUS
 62
     2
 10
37.624215786190682
 20
62.217430485956022
 30
0.0
 11
52.371424322292221
 21
76.96463902205754
 31
0.0
  0
LINE
  5
1A5E1
  8
OS
  6
CONTINUOUS
 62
     2
 10
37.624215786190682
 20
52.317935549344263
 30
0.0
 11
60.697567522547267
 21
75.391287285700813
 31
0.0
  0
LINE
  5
1A5E2
  8
OS
  6
CONTINUOUS
 62
     2
 10
37.624215786190682
 20
42.418440612732752
 30
0.0
 11
61.624215786190561
 21
66.418440612732638
 31
0.0
  0
LINE
  5
1A5E3
  8
OS
  6
CONTINUOUS
 62
     2
 10
37.624215786190682
 20
32.518945676121
 30
0.0
 11
61.624215786190561
 21
56.518945676120893
 31
0.0
  0
LINE
  5
1A5E4
  8
OS
  6
CONTINUOUS
 62
     2
 10
37.624215786190682
 20
22.619450739509261
 30
0.0
 11
61.624215786190561
 21
46.619450739509141
 31
0.0
  0
LINE
  5
1A5E5
  8
OS
  6
CONTINUOUS
 62
     2
 10
37.624215786190682
 20
12.71995580289772
 30
0.0
 11
61.624215786190561
 21
36.71995580289763
 31
0.0
  0
LINE
  5
1A5E6
  8
OS
  6
CONTINUOUS
 62
     2
 10
37.624215786190682
 20
2.820460866285996
 30
0.0
 11
61.624215786190561
 21
26.820460866285881
 31
0.0
  0
LINE
  5
1A5E7
  8
OS
  6
CONTINUOUS
 62
     2
 10
37.624215786190682
 20
-7.0790340703257471
 30
0.0
 11
61.624215786190561
 21
16.920965929674139
 31
0.0
  0
LINE
  5
1A5E8
  8
OS
  6
CONTINUOUS
 62
     2
 10
37.624215786190682
 20
-16.978529006937261
 30
0.0
 11
61.624215786190561
 21
7.0214709930626178
 31
0.0
  0
LINE
  5
1A5E9
  8
OS
  6
CONTINUOUS
 62
     2
 10
37.624215786190682
 20
-26.87802394354901
 30
0.0
 11
61.624215786190561
 21
-2.8780239435491231
 31
0.0
  0
LINE
  5
1A5EA
  8
OS
  6
CONTINUOUS
 62
     2
 10
37.624215786190788
 20
-36.77751888016072
 30
0.0
 11
61.624215786190561
 21
-12.777518880160841
 31
0.0
  0
LINE
  5
1A5EB
  8
OS
  6
CONTINUOUS
 62
     2
 10
37.624215786190682
 20
-46.677013816772273
 30
0.0
 11
56.624215786190518
 21
-27.677013816772462
 31
0.0
  0
LINE
  5
1A5EC
  8
OS
  6
CONTINUOUS
 62
     2
 10
37.624215786190682
 20
-56.576508753384019
 30
0.0
 11
56.624215786190518
 21
-37.576508753384203
 31
0.0
  0
LINE
  5
1A5ED
  8
OS
  6
CONTINUOUS
 62
     2
 10
37.624215786190788
 20
-66.47600368999565
 30
0.0
 11
61.564860210705717
 21
-42.535359265480672
 31
0.0
  0
LINE
  5
1A5EE
  8
OS
  6
CONTINUOUS
 62
     2
 10
37.624215786190682
 20
-76.375498626607282
 30
0.0
 11
61.624215786190462
 21
-52.375498626607488
 31
0.0
  0
LINE
  5
1A5EF
  8
OS
  6
CONTINUOUS
 62
     2
 10
37.624215786190568
 20
-86.274993563219013
 30
0.0
 11
61.624215786190462
 21
-62.274993563219141
 31
0.0
  0
LINE
  5
1A5F0
  8
OS
  6
CONTINUOUS
 62
     2
 10
37.624215786190788
 20
-96.174488499830659
 30
0.0
 11
61.624215786190689
 21
-72.174488499830844
 31
0.0
  0
LINE
  5
1A5F1
  8
OS
  6
CONTINUOUS
 62
     2
 10
38.662838244690533
 20
-105.0353609779424
 30
0.0
 11
61.624215786190561
 21
-82.073983436442404
 31
0.0
  0
LINE
  5
1A5F2
  8
OS
  6
CONTINUOUS
 62
     2
 10
48.562333181302151
 20
-105.0353609779422
 30
0.0
 11
61.624215786190462
 21
-91.973478373054064
 31
0.0
  0
LINE
  5
1A5F3
  8
OS
  6
CONTINUOUS
 62
     2
 10
58.461828117914031
 20
-105.0353609779424
 30
0.0
 11
61.624215786190689
 21
-101.8729733096655
 31
0.0
  0
LINE
  5
1A5F4
  8
KI
  6
CONTINUOUS
 62
     7
 10
61.624215786190462
 20
-26.535361739878319
 30
0.0
 11
56.624215786190462
 21
-26.535361739878319
 31
0.0
  0
LINE
  5
1A5F5
  8
KI
  6
CONTINUOUS
 62
     7
 10
56.624215786190462
 20
-42.535359265480672
 30
0.0
 11
56.624215786190462
 21
-26.535361739878319
 31
0.0
  0
LINE
  5
1A5F6
  8
KI
  6
CONTINUOUS
 62
     7
 10
56.624215786190462
 20
-42.535359265480672
 30
0.0
 11
61.624215786190462
 21
-42.535359265480672
 31
0.0
  0
LINE
  5
1A5F7
  8
OS
  6
CONTINUOUS
 62
     2
 10
57.765867863084679
 20
-26.535361739878319
 30
0.0
 11
61.624215786190561
 21
-22.67701381677238
 31
0.0
  0
LINE
  5
1A5F8
  8
KI
  6
CONTINUOUS
 62
     7
 10
61.624215786190462
 20
-26.535361739878319
 30
0.0
 11
61.624215786190462
 21
74.464639022057682
 31
0.0
  0
LINE
  5
1A5F9
  8
KI
  6
CONTINUOUS
 62
     7
 10
-339.03012743547231
 20
147.42750074568531
 30
0.0
 11
-163.0301274354712
 21
147.42750074568531
 31
0.0
  0
LINE
  5
1A5FA
  8
KI
  6
CONTINUOUS
 62
     7
 10
-339.03012743547112
 20
125.92750074568499
 30
0.0
 11
-336.53012743547112
 21
123.42750074568541
 31
0.0
1001
GENIUS_GENFIL_13
1070
     0
1040
2.5
1040
2.5
1040
20.0
1040
0.0
1002
{
1002
}
1001
GENIUS_GENOBJ-N-CHA_13
1002
{
1000
OWNER
1000
GEN
1002
}
1001
GENIUS_GENODEF_13
1002
{
1000
HIER
1070
     0
1002
}
1002
{
1000
MANEDIT
1070
     0
1002
}
1002
{
1000
NOSEL
1070
     0
1002
}
1002
{
1000
BEHIND
1070
     0
1002
}
1002
{
1000
OTHER
1070
     0
1002
}
1002
{
1000
REACTOR
1002
}
  0
LINE
  5
1A5FB
  8
KI
  6
CONTINUOUS
 62
     7
 10
-339.03012743547112
 20
125.92750074568499
 30
0.0
 11
-339.03012743547112
 21
147.42750074568531
 31
0.0
  0
LINE
  5
1A5FC
  8
KI
  6
CONTINUOUS
 62
     7
 10
-165.530127435471
 20
123.42750074568541
 30
0.0
 11
-222.5301291479332
 21
123.42750074568541
 31
0.0
  0
LINE
  5
1A5FD
  8
KI
  6
CONTINUOUS
 62
     7
 10
-163.0301274354712
 20
125.92750074568499
 30
0.0
 11
-165.530127435471
 21
123.42750074568541
 31
0.0
1001
GENIUS_GENFIL_13
1070
     0
1040
2.5
1040
2.5
1040
20.0
1040
0.0
1002
{
1002
}
1001
GENIUS_GENOBJ-N-CHA_13
1002
{
1000
OWNER
1000
GEN
1002
}
1001
GENIUS_GENODEF_13
1002
{
1000
HIER
1070
     0
1002
}
1002
{
1000
MANEDIT
1070
     0
1002
}
1002
{
1000
NOSEL
1070
     0
1002
}
1002
{
1000
BEHIND
1070
     0
1002
}
1002
{
1000
OTHER
1070
     0
1002
}
1002
{
1000
REACTOR
1002
}
  0
LINE
  5
1A5FE
  8
KI
  6
CONTINUOUS
 62
     7
 10
-163.0301274354712
 20
147.42750074568531
 30
0.0
 11
-163.0301274354712
 21
125.92750074568499
 31
0.0
  0
LINE
  5
1A5FF
  8
OS
  6
CONTINUOUS
 62
     2
 10
-339.03012743547112
 20
146.9087915454229
 30
0.0
 11
-338.51141823520891
 21
147.42750074568519
 31
0.0
  0
LINE
  5
1A600
  8
OS
  6
CONTINUOUS
 62
     2
 10
-339.03012743547112
 20
137.00929660881121
 30
0.0
 11
-328.61192329859711
 21
147.42750074568519
 31
0.0
  0
LINE
  5
1A601
  8
OS
  6
CONTINUOUS
 62
     2
 10
-339.03012743547112
 20
127.10980167219959
 30
0.0
 11
-318.71242836198559
 21
147.42750074568511
 31
0.0
  0
LINE
  5
1A602
  8
OS
  6
CONTINUOUS
 62
     2
 10
-332.81293342537379
 20
123.42750074568541
 30
0.0
 11
-308.8129334253739
 21
147.42750074568519
 31
0.0
  0
LINE
  5
1A603
  8
OS
  6
CONTINUOUS
 62
     2
 10
-322.91343848876232
 20
123.42750074568499
 30
0.0
 11
-298.9134384887621
 21
147.42750074568519
 31
0.0
  0
LINE
  5
1A604
  8
OS
  6
CONTINUOUS
 62
     2
 10
-313.01394355215052
 20
123.42750074568541
 30
0.0
 11
-289.01394355215058
 21
147.42750074568511
 31
0.0
  0
LINE
  5
1A605
  8
OS
  6
CONTINUOUS
 62
     2
 10
-303.11444861553889
 20
123.42750074568541
 30
0.0
 11
-279.114448615539
 21
147.42750074568519
 31
0.0
  0
LINE
  5
1A606
  8
OS
  6
CONTINUOUS
 62
     2
 10
-293.21495367892709
 20
123.42750074568499
 30
0.0
 11
-269.2149536789272
 21
147.42750074568519
 31
0.0
  0
LINE
  5
1A607
  8
OS
  6
CONTINUOUS
 62
     2
 10
-283.31545874231517
 20
123.42750074568541
 30
0.0
 11
-259.31545874231563
 21
147.42750074568519
 31
0.0
  0
LINE
  5
1A608
  8
OS
  6
CONTINUOUS
 62
     2
 10
-273.41596380570383
 20
123.42750074568541
 30
0.0
 11
-249.4159638057038
 21
147.42750074568519
 31
0.0
  0
LINE
  5
1A609
  8
OS
  6
CONTINUOUS
 62
     2
 10
-263.51646886909231
 20
123.42750074568499
 30
0.0
 11
-239.51646886909211
 21
147.42750074568519
 31
0.0
  0
LINE
  5
1A60A
  8
OS
  6
CONTINUOUS
 62
     2
 10
-253.61697393248039
 20
123.42750074568541
 30
0.0
 11
-229.61697393248031
 21
147.42750074568519
 31
0.0
  0
LINE
  5
1A60B
  8
OS
  6
CONTINUOUS
 62
     2
 10
-243.7174789958685
 20
123.42750074568541
 30
0.0
 11
-219.7174789958689
 21
147.42750074568519
 31
0.0
  0
LINE
  5
1A60C
  8
OS
  6
CONTINUOUS
 62
     2
 10
-222.5301291479332
 20
124.8158607203974
 30
0.0
 11
-199.91848912264541
 21
147.42750074568519
 31
0.0
  0
LINE
  5
1A60D
  8
OS
  6
CONTINUOUS
 62
     2
 10
-204.11949924942209
 20
123.42750074568541
 30
0.0
 11
-180.11949924942209
 21
147.42750074568511
 31
0.0
  0
LINE
  5
1A60E
  8
OS
  6
CONTINUOUS
 62
     2
 10
-194.2200043128106
 20
123.42750074568541
 30
0.0
 11
-170.2200043128106
 21
147.42750074568519
 31
0.0
  0
LINE
  5
1A60F
  8
OS
  6
CONTINUOUS
 62
     2
 10
-184.32050937619849
 20
123.42750074568541
 30
0.0
 11
-163.030127435471
 21
144.71788268641291
 31
0.0
  0
LINE
  5
1A610
  8
OS
  6
CONTINUOUS
 62
     2
 10
-174.42101443958711
 20
123.42750074568541
 30
0.0
 11
-163.030127435471
 21
134.8183877498013
 31
0.0
  0
LINE
  5
1A611
  8
OS
  6
CONTINUOUS
 62
     2
 10
-214.01899418603381
 20
123.42750074568519
 30
0.0
 11
-190.01899418603381
 21
147.42750074568519
 31
0.0
  0
LINE
  5
1A612
  8
OS
  6
CONTINUOUS
 62
     2
 10
-228.81798405925679
 20
128.42750074568531
 30
0.0
 11
-209.81798405925721
 21
147.42750074568519
 31
0.0
  0
LINE
  5
1A613
  8
KI
  6
CONTINUOUS
 62
     7
 10
-222.5301291479332
 20
128.42750074568531
 30
0.0
 11
-238.5301266735357
 21
128.42750074568531
 31
0.0
  0
LINE
  5
1A614
  8
KI
  6
CONTINUOUS
 62
     7
 10
-238.5301266735357
 20
128.42750074568531
 30
0.0
 11
-238.5301266735357
 21
123.42750074568541
 31
0.0
  0
LINE
  5
1A615
  8
KI
  6
CONTINUOUS
 62
     7
 10
-222.5301291479332
 20
128.42750074568531
 30
0.0
 11
-222.5301291479332
 21
123.42750074568541
 31
0.0
  0
LINE
  5
1A616
  8
KI
  6
CONTINUOUS
 62
     7
 10
-238.5301266735357
 20
123.42750074568541
 30
0.0
 11
-336.53012743547112
 21
123.42750074568541
 31
0.0
  0
LINE
  5
1A617
  8
SU
  6
CONTINUOUS
 62
     3
 10
263.62421578619012
 20
77.964639022057568
 30
0.0
 11
263.62421578619012
 21
99.964639022057455
 31
0.0
  0
LINE
  5
1A618
  8
SU
  6
CONTINUOUS
 62
     3
 10
287.62421578618989
 20
77.964639022057682
 30
0.0
 11
287.62421578618989
 21
99.964639022057455
 31
0.0
  0
LINE
  5
1A619
  8
SU
  6
CONTINUOUS
 62
     3
 10
263.62421578619012
 20
96.96463902205744
 30
0.0
 11
287.62421578618989
 21
96.96463902205744
 31
0.0
  0
LINE
  5
1A61A
  8
SU
  6
CONTINUOUS
 62
     3
 10
61.624215786190391
 20
77.964639022057568
 30
0.0
 11
61.624215786190391
 21
99.964639022057455
 31
0.0
  0
LINE
  5
1A61B
  8
SU
  6
CONTINUOUS
 62
     3
 10
37.624215786190291
 20
77.964639022057682
 30
0.0
 11
37.624215786190291
 21
99.964639022057455
 31
0.0
  0
LINE
  5
1A61C
  8
SU
  6
CONTINUOUS
 62
     3
 10
61.624215786190391
 20
96.96463902205744
 30
0.0
 11
37.624215786190291
 21
96.96463902205744
 31
0.0
  0
LINE
  5
1A61D
  8
SU
  6
CONTINUOUS
 62
     3
 10
-315.53012743547112
 20
208.42750074569301
 30
0.0
 11
-328.03012743547112
 21
208.42750074569301
 31
0.0
  0
LINE
  5
1A61E
  8
SU
  6
CONTINUOUS
 62
     3
 10
-328.03012743547112
 20
208.42750074569301
 30
0.0
 11
-353.76161212512972
 21
208.42750074569301
 31
0.0
  0
LINE
  5
1A61F
  8
SU
  6
CONTINUOUS
 62
     3
 10
-303.53012743547112
 20
189.42750074568511
 30
0.0
 11
-303.53012743547112
 21
211.4275007456931
 31
0.0
  0
LINE
  5
1A620
  8
SU
  6
CONTINUOUS
 62
     3
 10
-198.5301274354712
 20
189.42750074568511
 30
0.0
 11
-198.5301274354712
 21
211.4275007456931
 31
0.0
  0
LINE
  5
1A621
  8
SU
  6
CONTINUOUS
 62
     3
 10
-303.53012743547112
 20
208.42750074569301
 30
0.0
 11
-198.5301274354712
 21
208.42750074569301
 31
0.0
  0
LINE
  5
1A622
  8
SU
  6
CONTINUOUS
 62
     3
 10
-174.030127435471
 20
223.4275007456929
 30
0.0
 11
-328.03012743547112
 21
223.4275007456929
 31
0.0
  0
LINE
  5
1A623
  8
SU
  6
CONTINUOUS
 62
     3
 10
-328.03012743547112
 20
189.42750074568511
 30
0.0
 11
-328.03012743547112
 21
226.4275007456931
 31
0.0
  0
LINE
  5
1A624
  8
SU
  6
CONTINUOUS
 62
     3
 10
-342.03012743547112
 20
148.42750074568511
 30
0.0
 11
-342.03012743547112
 21
226.4275007456931
 31
0.0
  0
LINE
  5
1A625
  8
SU
  6
CONTINUOUS
 62
     3
 10
-328.03012743547112
 20
223.4275007456929
 30
0.0
 11
-342.03012743547112
 21
223.4275007456929
 31
0.0
  0
LINE
  5
1A626
  8
SU
  6
CONTINUOUS
 62
     3
 10
-343.03012743547112
 20
147.42750074568511
 30
0.0
 11
-365.03012743547112
 21
147.42750074568511
 31
0.0
  0
LINE
  5
1A627
  8
SU
  6
CONTINUOUS
 62
     3
 10
-362.03012743547112
 20
147.42750074568511
 30
0.0
 11
-362.03012743547112
 21
123.4275007456849
 31
0.0
  0
TEXT
  5
1A628
  8
SU
  6
CONTINUOUS
 62
     3
 10
-363.3301274354713
 20
132.1865483647326
 30
0.0
 40
4.0
  1
24
 50
90.0
 41
0.8299999999999999
  0
TEXT
  5
1A629
  8
SU
  6
CONTINUOUS
 62
     3
 10
-338.50822267356648
 20
224.72750074569311
 30
0.0
 40
4.0
  1
14
 41
0.8299999999999999
  0
TEXT
  5
1A62A
  8
SU
  6
CONTINUOUS
 62
     3
 10
-256.08917505451882
 20
224.72750074569311
 30
0.0
 40
4.0
  1
154
 41
0.8299999999999999
  0
TEXT
  5
1A62B
  8
SU
  6
CONTINUOUS
 62
     3
 10
-256.0101274354713
 20
209.72750074569311
 30
0.0
 40
4.0
  1
105
 41
0.8299999999999999
  0
TEXT
  5
1A62C
  8
SU
  6
CONTINUOUS
 62
     3
 10
-353.41018355370102
 20
209.72750074569311
 30
0.0
 40
4.0
  1
12.5
 41
0.8299999999999999
  0
TEXT
  5
1A62D
  8
SU
  6
CONTINUOUS
 62
     3
 10
46.38326340523794
 20
98.264639022057452
 30
0.0
 40
4.0
  1
24
 41
0.8299999999999999
  0
TEXT
  5
1A62E
  8
SU
  6
CONTINUOUS
 62
     3
 10
272.3832634052377
 20
98.264639022057452
 30
0.0
 40
4.0
  1
24
 41
0.8299999999999999
  0
TEXT
  5
1A62F
  8
SU
  6
CONTINUOUS
 62
     3
 10
-312.92917505451879
 20
209.72750074569311
 30
0.0
 40
4.0
  1
12
 41
0.8299999999999999
  0
TEXT
  5
1A630
  8
SU
  6
CONTINUOUS
 62
     3
 10
-195.92917505451879
 20
209.72750074569311
 30
0.0
 40
4.0
  1
12
 41
0.8299999999999999
  0
TEXT
  5
1A631
  8
SU
  6
CONTINUOUS
 62
     3
 10
-170.50822267356651
 20
224.72750074569311
 30
0.0
 40
4.0
  1
14
 41
0.8299999999999999
  0
TEXT
  5
1A632
  8
SU
  6
CONTINUOUS
 62
     3
 10
-160.19102369819379
 20
209.72750074569311
 30
0.0
 40
4.0
  1
12.5
 41
0.8299999999999999
  0
TEXT
  5
1A633
  8
SU
  6
CONTINUOUS
 62
     3
 10
-49.675786681007921
 20
-19.094408596989918
 30
0.0
 40
4.0
  1
154
 50
90.0
 41
0.8299999999999999
  0
TEXT
  5
1A634
  8
SU
  6
CONTINUOUS
 62
     3
 10
-34.67578668100797
 20
-19.015360977942311
 30
0.0
 40
4.0
  1
105
 50
90.0
 41
0.8299999999999999
  0
TEXT
  5
1A635
  8
SU
  6
CONTINUOUS
 62
     3
 10
-34.67578668100797
 20
-116.41541709617211
 30
0.0
 40
4.0
  1
12.5
 50
90.0
 41
0.8299999999999999
  0
TEXT
  5
1A636
  8
SU
  6
CONTINUOUS
 62
     3
 10
-49.675786681007921
 20
-101.5134562160374
 30
0.0
 40
4.0
  1
14
 50
90.0
 41
0.8299999999999999
  0
TEXT
  5
1A637
  8
SU
  6
CONTINUOUS
 62
     3
 10
-34.67578668100797
 20
-75.934408596989911
 30
0.0
 40
4.0
  1
12
 50
90.0
 41
0.8299999999999999
  0
TEXT
  5
1A638
  8
SU
  6
CONTINUOUS
 62
     3
 10
-49.675786681007999
 20
66.486543783962446
 30
0.0
 40
4.0
  1
14
 50
90.0
 41
0.8299999999999999
  0
TEXT
  5
1A639
  8
SU
  6
CONTINUOUS
 62
     3
 10
-34.67578668100797
 20
76.803742759335151
 30
0.0
 40
4.0
  1
12.5
 50
90.0
 41
0.8299999999999999
  0
TEXT
  5
1A63A
  8
SU
  6
CONTINUOUS
 62
     3
 10
-34.67578668100797
 20
41.065591403010067
 30
0.0
 40
4.0
  1
12
 50
90.0
 41
0.8299999999999999
  0
TEXT
  5
1A63B
  8
SU
  6
CONTINUOUS
 62
     3
 10
-126.3301274354699
 20
7.7001857291827109
 30
0.0
 40
4.0
  1
ドアH（DH）＝H－47
 50
90.0
 41
0.8299999999999999
  0
TEXT
  5
1A63C
  8
SU
  6
CONTINUOUS
 62
     3
 10
-221.51012755353801
 20
-101.7686559247348
 30
0.0
 40
4.0
  1
107
 41
0.8299999999999999
  0
TEXT
  5
1A63D
  8
SU
  6
CONTINUOUS
 62
     3
 10
-310.39203225412751
 20
-101.7686559247348
 30
0.0
 40
4.0
  1
72
 41
0.8299999999999999
  0
LINE
  5
1A63E
  8
SU
  6
CONTINUOUS
 62
     3
 10
-270.03012754897429
 20
-103.0686559247349
 30
0.0
 11
-272.43012754897421
 21
-103.0686559247349
 31
0.0
  0
TEXT
  5
1A63F
  8
SU
  6
CONTINUOUS
 62
     3
 10
-363.33012743546931
 20
-61.230557858748291
 30
0.0
 40
4.0
  1
20
 50
90.0
 41
0.8299999999999999
  0
TEXT
  5
1A640
  8
SU
  6
CONTINUOUS
 62
     3
 10
-363.33012743546931
 20
-92.618179734251044
 30
0.0
 40
4.0
  1
15
 50
90.0
 41
0.8299999999999999
  0
TEXT
  5
1A641
  8
SU
  6
CONTINUOUS
 62
     3
 10
-126.330127321967
 20
-181.66633220595679
 30
0.0
 40
4.0
  1
ドアH（DH）
 50
90.0
 41
0.8299999999999999
  0
TEXT
  5
1A642
  8
SU
  6
CONTINUOUS
 62
     3
 10
-111.3301273219684
 20
-175.3110941107189
 30
0.0
 40
4.0
  1
H
 50
90.0
 41
0.8299999999999999
  0
TEXT
  5
1A643
  8
SU
  6
CONTINUOUS
 62
     3
 10
-111.3301273219684
 20
-232.29512528892161
 30
0.0
 40
4.0
  1
12
 50
90.0
 41
0.8299999999999999
  0
LINE
  5
1A644
  8
SU
  6
CONTINUOUS
 62
     3
 10
-115.9507640887086
 20
-213.0283497253063
 30
0.0
 11
-104.10949055522801
 21
-213.0283497253063
 31
0.0
  0
LINE
  5
1A645
  8
SU
  6
CONTINUOUS
 62
     3
 10
-115.8307640887088
 20
-213.2283497253064
 30
0.0
 11
-104.229490555228
 21
-213.2283497253064
 31
0.0
  0
LINE
  5
1A646
  8
SU
  6
CONTINUOUS
 62
     3
 10
-115.7107640887089
 20
-213.4283497253063
 30
0.0
 11
-104.3494905552279
 21
-213.4283497253063
 31
0.0
  0
LINE
  5
1A647
  8
SU
  6
CONTINUOUS
 62
     3
 10
-115.5907640887088
 20
-213.62834972530641
 30
0.0
 11
-104.46949055522801
 21
-213.62834972530641
 31
0.0
  0
LINE
  5
1A648
  8
SU
  6
CONTINUOUS
 62
     3
 10
-115.4707640887089
 20
-213.82834972530631
 30
0.0
 11
-104.589490555228
 21
-213.82834972530631
 31
0.0
  0
LINE
  5
1A649
  8
SU
  6
CONTINUOUS
 62
     3
 10
-115.3507640887089
 20
-214.0283497253063
 30
0.0
 11
-104.709490555228
 21
-214.0283497253063
 31
0.0
  0
LINE
  5
1A64A
  8
SU
  6
CONTINUOUS
 62
     3
 10
-115.2307640887089
 20
-214.22834972530629
 30
0.0
 11
-104.82949055522801
 21
-214.22834972530629
 31
0.0
  0
LINE
  5
1A64B
  8
SU
  6
CONTINUOUS
 62
     3
 10
-115.1107640887089
 20
-214.4283497253063
 30
0.0
 11
-104.949490555228
 21
-214.4283497253063
 31
0.0
  0
LINE
  5
1A64C
  8
SU
  6
CONTINUOUS
 62
     3
 10
-114.9907640887089
 20
-214.62834972530629
 30
0.0
 11
-105.069490555228
 21
-214.62834972530629
 31
0.0
  0
LINE
  5
1A64D
  8
SU
  6
CONTINUOUS
 62
     3
 10
-114.8707640887089
 20
-214.8283497253064
 30
0.0
 11
-105.18949055522801
 21
-214.8283497253064
 31
0.0
  0
LINE
  5
1A64E
  8
SU
  6
CONTINUOUS
 62
     3
 10
-114.75076408870891
 20
-215.02834972530641
 30
0.0
 11
-105.309490555228
 21
-215.02834972530641
 31
0.0
  0
LINE
  5
1A64F
  8
SU
  6
CONTINUOUS
 62
     3
 10
-114.6307640887089
 20
-215.2283497253064
 30
0.0
 11
-105.429490555228
 21
-215.2283497253064
 31
0.0
  0
LINE
  5
1A650
  8
SU
  6
CONTINUOUS
 62
     3
 10
-114.5107640887089
 20
-215.42834972530639
 30
0.0
 11
-105.54949055522791
 21
-215.42834972530639
 31
0.0
  0
LINE
  5
1A651
  8
SU
  6
CONTINUOUS
 62
     3
 10
-114.39076408870881
 20
-215.62834972530641
 30
0.0
 11
-105.66949055522799
 21
-215.62834972530641
 31
0.0
  0
LINE
  5
1A652
  8
SU
  6
CONTINUOUS
 62
     3
 10
-114.2707640887087
 20
-215.8283497253064
 30
0.0
 11
-105.7894905552279
 21
-215.8283497253064
 31
0.0
  0
LINE
  5
1A653
  8
SU
  6
CONTINUOUS
 62
     3
 10
-114.1507640887087
 20
-216.0283497253063
 30
0.0
 11
-105.909490555228
 21
-216.0283497253063
 31
0.0
  0
LINE
  5
1A654
  8
SU
  6
CONTINUOUS
 62
     3
 10
-114.03076408870881
 20
-216.2283497253064
 30
0.0
 11
-106.02949055522799
 21
-216.2283497253064
 31
0.0
  0
LINE
  5
1A655
  8
SU
  6
CONTINUOUS
 62
     3
 10
-113.9107640887088
 20
-216.4283497253063
 30
0.0
 11
-106.1494905552279
 21
-216.4283497253063
 31
0.0
  0
LINE
  5
1A656
  8
SU
  6
CONTINUOUS
 62
     3
 10
-113.7907640887089
 20
-216.62834972530641
 30
0.0
 11
-106.269490555228
 21
-216.62834972530641
 31
0.0
  0
LINE
  5
1A657
  8
SU
  6
CONTINUOUS
 62
     3
 10
-113.67076408870891
 20
-216.82834972530631
 30
0.0
 11
-106.38949055522799
 21
-216.82834972530631
 31
0.0
  0
LINE
  5
1A658
  8
SU
  6
CONTINUOUS
 62
     3
 10
-113.5507640887089
 20
-217.02834972530641
 30
0.0
 11
-106.509490555228
 21
-217.02834972530641
 31
0.0
  0
LINE
  5
1A659
  8
SU
  6
CONTINUOUS
 62
     3
 10
-113.4307640887089
 20
-217.2283497253064
 30
0.0
 11
-106.629490555228
 21
-217.2283497253064
 31
0.0
  0
LINE
  5
1A65A
  8
SU
  6
CONTINUOUS
 62
     3
 10
-113.31076408870879
 20
-217.42834972530639
 30
0.0
 11
-106.74949055522769
 21
-217.42834972530639
 31
0.0
  0
LINE
  5
1A65B
  8
SU
  6
CONTINUOUS
 62
     3
 10
-113.1907640887088
 20
-217.62834972530641
 30
0.0
 11
-106.869490555228
 21
-217.62834972530641
 31
0.0
  0
LINE
  5
1A65C
  8
SU
  6
CONTINUOUS
 62
     3
 10
-113.0707640887089
 20
-217.8283497253064
 30
0.0
 11
-106.9894905552279
 21
-217.8283497253064
 31
0.0
  0
LINE
  5
1A65D
  8
SU
  6
CONTINUOUS
 62
     3
 10
-112.9507640887085
 20
-218.0283497253063
 30
0.0
 11
-107.10949055522801
 21
-218.0283497253063
 31
0.0
  0
LINE
  5
1A65E
  8
SU
  6
CONTINUOUS
 62
     3
 10
-112.8307640887088
 20
-218.2283497253064
 30
0.0
 11
-107.229490555228
 21
-218.2283497253064
 31
0.0
  0
LINE
  5
1A65F
  8
SU
  6
CONTINUOUS
 62
     3
 10
-112.7107640887087
 20
-218.4283497253063
 30
0.0
 11
-107.3494905552279
 21
-218.4283497253063
 31
0.0
  0
LINE
  5
1A660
  8
SU
  6
CONTINUOUS
 62
     3
 10
-112.5907640887088
 20
-218.62834972530641
 30
0.0
 11
-107.46949055522801
 21
-218.62834972530641
 31
0.0
  0
LINE
  5
1A661
  8
SU
  6
CONTINUOUS
 62
     3
 10
-112.4707640887089
 20
-218.82834972530631
 30
0.0
 11
-107.589490555228
 21
-218.82834972530631
 31
0.0
  0
LINE
  5
1A662
  8
SU
  6
CONTINUOUS
 62
     3
 10
-112.3507640887089
 20
-219.02834972530641
 30
0.0
 11
-107.709490555228
 21
-219.02834972530641
 31
0.0
  0
LINE
  5
1A663
  8
SU
  6
CONTINUOUS
 62
     3
 10
-112.2307640887089
 20
-219.2283497253064
 30
0.0
 11
-107.82949055522801
 21
-219.2283497253064
 31
0.0
  0
LINE
  5
1A664
  8
SU
  6
CONTINUOUS
 62
     3
 10
-112.1107640887089
 20
-219.42834972530639
 30
0.0
 11
-107.949490555228
 21
-219.42834972530639
 31
0.0
  0
LINE
  5
1A665
  8
SU
  6
CONTINUOUS
 62
     3
 10
-111.9907640887089
 20
-219.62834972530641
 30
0.0
 11
-108.069490555228
 21
-219.62834972530641
 31
0.0
  0
LINE
  5
1A666
  8
SU
  6
CONTINUOUS
 62
     3
 10
-111.8707640887089
 20
-219.8283497253064
 30
0.0
 11
-108.18949055522801
 21
-219.8283497253064
 31
0.0
  0
LINE
  5
1A667
  8
SU
  6
CONTINUOUS
 62
     3
 10
-111.75076408870881
 20
-220.0283497253063
 30
0.0
 11
-108.309490555228
 21
-220.0283497253063
 31
0.0
  0
LINE
  5
1A668
  8
SU
  6
CONTINUOUS
 62
     3
 10
-111.6307640887089
 20
-220.2283497253064
 30
0.0
 11
-108.4294905552279
 21
-220.2283497253064
 31
0.0
  0
LINE
  5
1A669
  8
SU
  6
CONTINUOUS
 62
     3
 10
-111.5107640887089
 20
-220.4283497253063
 30
0.0
 11
-108.549490555228
 21
-220.4283497253063
 31
0.0
  0
LINE
  5
1A66A
  8
SU
  6
CONTINUOUS
 62
     3
 10
-111.39076408870881
 20
-220.62834972530641
 30
0.0
 11
-108.66949055522799
 21
-220.62834972530641
 31
0.0
  0
LINE
  5
1A66B
  8
SU
  6
CONTINUOUS
 62
     3
 10
-111.2707640887087
 20
-220.8283497253062
 30
0.0
 11
-108.7894905552279
 21
-220.8283497253062
 31
0.0
  0
LINE
  5
1A66C
  8
SU
  6
CONTINUOUS
 62
     3
 10
-111.1507640887088
 20
-221.02834972530641
 30
0.0
 11
-108.909490555228
 21
-221.02834972530641
 31
0.0
  0
LINE
  5
1A66D
  8
SU
  6
CONTINUOUS
 62
     3
 10
-111.03076408870859
 20
-221.2283497253064
 30
0.0
 11
-109.02949055522799
 21
-221.2283497253064
 31
0.0
  0
LINE
  5
1A66E
  8
SU
  6
CONTINUOUS
 62
     3
 10
-110.9107640887088
 20
-221.42834972530639
 30
0.0
 11
-109.149490555228
 21
-221.42834972530639
 31
0.0
  0
LINE
  5
1A66F
  8
SU
  6
CONTINUOUS
 62
     3
 10
-110.7907640887089
 20
-221.62834972530641
 30
0.0
 11
-109.269490555228
 21
-221.62834972530641
 31
0.0
  0
LINE
  5
1A670
  8
SU
  6
CONTINUOUS
 62
     3
 10
-110.67076408870891
 20
-221.8283497253064
 30
0.0
 11
-109.38949055522799
 21
-221.8283497253064
 31
0.0
  0
LINE
  5
1A671
  8
SU
  6
CONTINUOUS
 62
     3
 10
-110.5507640887089
 20
-222.0283497253063
 30
0.0
 11
-109.509490555228
 21
-222.0283497253063
 31
0.0
  0
LINE
  5
1A672
  8
SU
  6
CONTINUOUS
 62
     3
 10
-110.4307640887089
 20
-222.2283497253064
 30
0.0
 11
-109.629490555228
 21
-222.2283497253064
 31
0.0
  0
LINE
  5
1A673
  8
SU
  6
CONTINUOUS
 62
     3
 10
-110.31076408870879
 20
-222.4283497253063
 30
0.0
 11
-109.74949055522799
 21
-222.4283497253063
 31
0.0
  0
LINE
  5
1A674
  8
SU
  6
CONTINUOUS
 62
     3
 10
-110.1907640887089
 20
-222.62834972530641
 30
0.0
 11
-109.869490555228
 21
-222.62834972530641
 31
0.0
  0
LINE
  5
1A675
  8
SU
  6
CONTINUOUS
 62
     3
 10
-110.0707640887089
 20
-222.8283497253062
 30
0.0
 11
-109.9894905552279
 21
-222.8283497253062
 31
0.0
  0
TEXT
  5
1A676
  8
SU
  6
CONTINUOUS
 62
     3
 10
-126.330127321967
 20
-220.4770300508263
 30
0.0
 40
4.0
  1
8
 50
90.0
 41
0.8299999999999999
  0
LINE
  5
1A677
  8
SU
  6
CONTINUOUS
 62
     3
 10
-115.9507642022117
 20
-73.200927980159818
 30
0.0
 11
-104.1094906687308
 21
-73.200927980159818
 31
0.0
  0
LINE
  5
1A678
  8
SU
  6
CONTINUOUS
 62
     3
 10
-115.8307642022117
 20
-73.400927980159821
 30
0.0
 11
-104.22949066873061
 21
-73.400927980159821
 31
0.0
  0
LINE
  5
1A679
  8
SU
  6
CONTINUOUS
 62
     3
 10
-115.71076420221161
 20
-73.60092798015981
 30
0.0
 11
-104.34949066873079
 21
-73.60092798015981
 31
0.0
  0
LINE
  5
1A67A
  8
SU
  6
CONTINUOUS
 62
     3
 10
-115.5907642022114
 20
-73.800927980159813
 30
0.0
 11
-104.4694906687307
 21
-73.800927980159813
 31
0.0
  0
LINE
  5
1A67B
  8
SU
  6
CONTINUOUS
 62
     3
 10
-115.4707642022114
 20
-74.000927980159815
 30
0.0
 11
-104.5894906687308
 21
-74.000927980159815
 31
0.0
  0
LINE
  5
1A67C
  8
SU
  6
CONTINUOUS
 62
     3
 10
-115.35076420221129
 20
-74.200927980159818
 30
0.0
 11
-104.7094906687306
 21
-74.200927980159818
 31
0.0
  0
LINE
  5
1A67D
  8
SU
  6
CONTINUOUS
 62
     3
 10
-115.2307642022114
 20
-74.400927980159821
 30
0.0
 11
-104.8294906687307
 21
-74.400927980159821
 31
0.0
  0
LINE
  5
1A67E
  8
SU
  6
CONTINUOUS
 62
     3
 10
-115.1107642022114
 20
-74.60092798015981
 30
0.0
 11
-104.9494906687307
 21
-74.60092798015981
 31
0.0
  0
LINE
  5
1A67F
  8
SU
  6
CONTINUOUS
 62
     3
 10
-114.99076420221139
 20
-74.800927980159813
 30
0.0
 11
-105.06949066873059
 21
-74.800927980159813
 31
0.0
  0
LINE
  5
1A680
  8
SU
  6
CONTINUOUS
 62
     3
 10
-114.8707642022114
 20
-75.000927980159815
 30
0.0
 11
-105.1894906687308
 21
-75.000927980159815
 31
0.0
  0
LINE
  5
1A681
  8
SU
  6
CONTINUOUS
 62
     3
 10
-114.7507642022117
 20
-75.200927980159818
 30
0.0
 11
-105.3094906687306
 21
-75.200927980159818
 31
0.0
  0
LINE
  5
1A682
  8
SU
  6
CONTINUOUS
 62
     3
 10
-114.6307642022114
 20
-75.400927980159821
 30
0.0
 11
-105.42949066873059
 21
-75.400927980159821
 31
0.0
  0
LINE
  5
1A683
  8
SU
  6
CONTINUOUS
 62
     3
 10
-114.5107642022117
 20
-75.60092798015981
 30
0.0
 11
-105.5494906687308
 21
-75.60092798015981
 31
0.0
  0
LINE
  5
1A684
  8
SU
  6
CONTINUOUS
 62
     3
 10
-114.3907642022117
 20
-75.800927980159813
 30
0.0
 11
-105.6694906687307
 21
-75.800927980159813
 31
0.0
  0
LINE
  5
1A685
  8
SU
  6
CONTINUOUS
 62
     3
 10
-114.27076420221159
 20
-76.000927980159815
 30
0.0
 11
-105.78949066873081
 21
-76.000927980159815
 31
0.0
  0
LINE
  5
1A686
  8
SU
  6
CONTINUOUS
 62
     3
 10
-114.15076420221141
 20
-76.200927980159804
 30
0.0
 11
-105.9094906687306
 21
-76.200927980159804
 31
0.0
  0
LINE
  5
1A687
  8
SU
  6
CONTINUOUS
 62
     3
 10
-114.0307642022114
 20
-76.400927980159821
 30
0.0
 11
-106.0294906687307
 21
-76.400927980159821
 31
0.0
  0
LINE
  5
1A688
  8
SU
  6
CONTINUOUS
 62
     3
 10
-113.9107642022116
 20
-76.600927980159796
 30
0.0
 11
-106.14949066873071
 21
-76.600927980159796
 31
0.0
  0
LINE
  5
1A689
  8
SU
  6
CONTINUOUS
 62
     3
 10
-113.79076420221151
 20
-76.800927980159813
 30
0.0
 11
-106.2694906687309
 21
-76.800927980159813
 31
0.0
  0
LINE
  5
1A68A
  8
SU
  6
CONTINUOUS
 62
     3
 10
-113.6707642022114
 20
-77.000927980159815
 30
0.0
 11
-106.3894906687309
 21
-77.000927980159815
 31
0.0
  0
LINE
  5
1A68B
  8
SU
  6
CONTINUOUS
 62
     3
 10
-113.5507642022117
 20
-77.200927980159818
 30
0.0
 11
-106.50949066873071
 21
-77.200927980159818
 31
0.0
  0
LINE
  5
1A68C
  8
SU
  6
CONTINUOUS
 62
     3
 10
-113.43076420221171
 20
-77.400927980159821
 30
0.0
 11
-106.6294906687307
 21
-77.400927980159821
 31
0.0
  0
LINE
  5
1A68D
  8
SU
  6
CONTINUOUS
 62
     3
 10
-113.3107642022117
 20
-77.60092798015981
 30
0.0
 11
-106.7494906687306
 21
-77.60092798015981
 31
0.0
  0
LINE
  5
1A68E
  8
SU
  6
CONTINUOUS
 62
     3
 10
-113.1907642022117
 20
-77.800927980159813
 30
0.0
 11
-106.86949066873071
 21
-77.800927980159813
 31
0.0
  0
LINE
  5
1A68F
  8
SU
  6
CONTINUOUS
 62
     3
 10
-113.07076420221171
 20
-78.000927980159815
 30
0.0
 11
-106.9894906687308
 21
-78.000927980159815
 31
0.0
  0
LINE
  5
1A690
  8
SU
  6
CONTINUOUS
 62
     3
 10
-112.9507642022117
 20
-78.200927980159818
 30
0.0
 11
-107.1094906687308
 21
-78.200927980159818
 31
0.0
  0
LINE
  5
1A691
  8
SU
  6
CONTINUOUS
 62
     3
 10
-112.8307642022114
 20
-78.400927980159821
 30
0.0
 11
-107.22949066873051
 21
-78.400927980159821
 31
0.0
  0
LINE
  5
1A692
  8
SU
  6
CONTINUOUS
 62
     3
 10
-112.71076420221129
 20
-78.60092798015981
 30
0.0
 11
-107.34949066873079
 21
-78.60092798015981
 31
0.0
  0
LINE
  5
1A693
  8
SU
  6
CONTINUOUS
 62
     3
 10
-112.5907642022115
 20
-78.800927980159813
 30
0.0
 11
-107.4694906687307
 21
-78.800927980159813
 31
0.0
  0
LINE
  5
1A694
  8
SU
  6
CONTINUOUS
 62
     3
 10
-112.4707642022117
 20
-79.000927980159815
 30
0.0
 11
-107.5894906687308
 21
-79.000927980159815
 31
0.0
  0
LINE
  5
1A695
  8
SU
  6
CONTINUOUS
 62
     3
 10
-112.35076420221171
 20
-79.200927980159818
 30
0.0
 11
-107.7094906687306
 21
-79.200927980159818
 31
0.0
  0
LINE
  5
1A696
  8
SU
  6
CONTINUOUS
 62
     3
 10
-112.2307642022114
 20
-79.400927980159821
 30
0.0
 11
-107.8294906687307
 21
-79.400927980159821
 31
0.0
  0
LINE
  5
1A697
  8
SU
  6
CONTINUOUS
 62
     3
 10
-112.1107642022117
 20
-79.60092798015981
 30
0.0
 11
-107.9494906687306
 21
-79.60092798015981
 31
0.0
  0
LINE
  5
1A698
  8
SU
  6
CONTINUOUS
 62
     3
 10
-111.99076420221139
 20
-79.800927980159813
 30
0.0
 11
-108.06949066873059
 21
-79.800927980159813
 31
0.0
  0
LINE
  5
1A699
  8
SU
  6
CONTINUOUS
 62
     3
 10
-111.8707642022117
 20
-80.000927980159815
 30
0.0
 11
-108.1894906687308
 21
-80.000927980159815
 31
0.0
  0
LINE
  5
1A69A
  8
SU
  6
CONTINUOUS
 62
     3
 10
-111.7507642022117
 20
-80.200927980159818
 30
0.0
 11
-108.3094906687307
 21
-80.200927980159818
 31
0.0
  0
LINE
  5
1A69B
  8
SU
  6
CONTINUOUS
 62
     3
 10
-111.63076420221159
 20
-80.400927980159807
 30
0.0
 11
-108.42949066873059
 21
-80.400927980159807
 31
0.0
  0
LINE
  5
1A69C
  8
SU
  6
CONTINUOUS
 62
     3
 10
-111.5107642022117
 20
-80.60092798015981
 30
0.0
 11
-108.5494906687308
 21
-80.60092798015981
 31
0.0
  0
LINE
  5
1A69D
  8
SU
  6
CONTINUOUS
 62
     3
 10
-111.3907642022117
 20
-80.800927980159798
 30
0.0
 11
-108.6694906687307
 21
-80.800927980159798
 31
0.0
  0
LINE
  5
1A69E
  8
SU
  6
CONTINUOUS
 62
     3
 10
-111.27076420221159
 20
-81.000927980159815
 30
0.0
 11
-108.78949066873081
 21
-81.000927980159815
 31
0.0
  0
LINE
  5
1A69F
  8
SU
  6
CONTINUOUS
 62
     3
 10
-111.15076420221141
 20
-81.200927980159804
 30
0.0
 11
-108.9094906687307
 21
-81.200927980159804
 31
0.0
  0
LINE
  5
1A6A0
  8
SU
  6
CONTINUOUS
 62
     3
 10
-111.0307642022114
 20
-81.400927980159835
 30
0.0
 11
-109.0294906687307
 21
-81.400927980159835
 31
0.0
  0
LINE
  5
1A6A1
  8
SU
  6
CONTINUOUS
 62
     3
 10
-110.9107642022115
 20
-81.600927980159796
 30
0.0
 11
-109.14949066873071
 21
-81.600927980159796
 31
0.0
  0
LINE
  5
1A6A2
  8
SU
  6
CONTINUOUS
 62
     3
 10
-110.79076420221151
 20
-81.800927980159827
 30
0.0
 11
-109.2694906687307
 21
-81.800927980159827
 31
0.0
  0
LINE
  5
1A6A3
  8
SU
  6
CONTINUOUS
 62
     3
 10
-110.6707642022117
 20
-82.000927980159815
 30
0.0
 11
-109.3894906687306
 21
-82.000927980159815
 31
0.0
  0
LINE
  5
1A6A4
  8
SU
  6
CONTINUOUS
 62
     3
 10
-110.5507642022117
 20
-82.200927980159804
 30
0.0
 11
-109.50949066873071
 21
-82.200927980159804
 31
0.0
  0
LINE
  5
1A6A5
  8
SU
  6
CONTINUOUS
 62
     3
 10
-110.43076420221171
 20
-82.400927980159821
 30
0.0
 11
-109.6294906687306
 21
-82.400927980159821
 31
0.0
  0
LINE
  5
1A6A6
  8
SU
  6
CONTINUOUS
 62
     3
 10
-110.3107642022117
 20
-82.600927980159796
 30
0.0
 11
-109.7494906687306
 21
-82.600927980159796
 31
0.0
  0
LINE
  5
1A6A7
  8
SU
  6
CONTINUOUS
 62
     3
 10
-110.1907642022117
 20
-82.800927980159813
 30
0.0
 11
-109.86949066873071
 21
-82.800927980159813
 31
0.0
  0
LINE
  5
1A6A8
  8
SU
  6
CONTINUOUS
 62
     3
 10
-110.07076420221171
 20
-83.000927980159815
 30
0.0
 11
-109.9894906687308
 21
-83.000927980159815
 31
0.0
  0
TEXT
  5
1A6A9
  8
SU
  6
CONTINUOUS
 62
     3
 10
-153.08917506364631
 20
-101.7686559247348
 30
0.0
 40
4.0
  1
3
 41
0.8299999999999999
  0
LINE
  5
1A6AA
  8
SU
  6
CONTINUOUS
 62
     3
 10
-163.0301275581015
 20
-103.0686559247347
 30
0.0
 11
-165.4301275581017
 21
-103.0686559247347
 31
0.0
  0
TEXT
  5
1A6AB
  8
SU
  6
CONTINUOUS
 62
     3
 10
-126.3301274354699
 20
-78.967702129832929
 30
0.0
 40
4.0
  1
15
 50
90.0
 41
0.8299999999999999
  0
TEXT
  5
1A6AC
  8
SU
  6
CONTINUOUS
 62
     3
 10
-126.3301274354699
 20
-67.149605477795902
 30
0.0
 40
4.0
  1
5
 50
90.0
 41
0.8299999999999999
  0
TEXT
  5
1A6AD
  8
SU
  6
CONTINUOUS
 62
     3
 10
-363.33012743546931
 20
107.51472258059179
 30
0.0
 40
4.0
  1
（20）
 50
90.0
 41
0.8299999999999999
  0
TEXT
  5
1A6AE
  8
SU
  6
CONTINUOUS
 62
     3
 10
-296.31346038783619
 20
83.227500745686839
 30
0.0
 40
4.0
  1
96.5
 41
0.8299999999999999
  0
TEXT
  5
1A6AF
  8
SU
  6
CONTINUOUS
 62
     3
 10
-215.9548910528213
 20
83.227500745686754
 30
0.0
 40
4.0
  1
11
 41
0.8299999999999999
  0
TEXT
  5
1A6B0
  8
SU
  6
CONTINUOUS
 62
     3
 10
-190.69203305558199
 20
83.227500745686626
 30
0.0
 40
4.0
  1
40
 41
0.8299999999999999
  0
TEXT
  5
1A6B1
  8
SU
  6
CONTINUOUS
 62
     3
 10
-233.7710802919384
 20
83.227500745686896
 30
0.0
 40
4.0
  1
24
 41
0.8299999999999999
  0
TEXT
  5
1A6B2
  8
SU
  6
CONTINUOUS
 62
     3
 10
-141.3301274354711
 20
131.32238711665039
 30
0.0
 40
4.0
  1
3
 50
90.0
 41
0.8299999999999999
  0
TEXT
  5
1A6B3
  8
SU
  6
CONTINUOUS
 62
     3
 10
-159.80441314975701
 20
83.227500745686626
 30
0.0
 40
4.0
  1
4.5
 41
0.8299999999999999
  0
TEXT
  5
1A6B4
  8
SU
  6
CONTINUOUS
 62
     3
 10
-111.3301274354712
 20
30.440374791431349
 30
0.0
 40
4.0
  1
H
 50
90.0
 41
0.8299999999999999
  0
LINE
  5
1A6B5
  8
SU
  6
CONTINUOUS
 62
     3
 10
-110.07076420221161
 20
147.3597728011178
 30
0.0
 11
-109.9894906687308
 21
147.3597728011178
 31
0.0
  0
LINE
  5
1A6B6
  8
SU
  6
CONTINUOUS
 62
     3
 10
-110.1907642022114
 20
147.15977280111781
 30
0.0
 11
-109.8694906687309
 21
147.15977280111781
 31
0.0
  0
LINE
  5
1A6B7
  8
SU
  6
CONTINUOUS
 62
     3
 10
-110.3107642022113
 20
146.95977280111779
 30
0.0
 11
-109.7494906687309
 21
146.95977280111779
 31
0.0
  0
LINE
  5
1A6B8
  8
SU
  6
CONTINUOUS
 62
     3
 10
-110.43076420221151
 20
146.7597728011178
 30
0.0
 11
-109.6294906687309
 21
146.7597728011178
 31
0.0
  0
LINE
  5
1A6B9
  8
SU
  6
CONTINUOUS
 62
     3
 10
-110.5507642022115
 20
146.55977280111779
 30
0.0
 11
-109.5094906687309
 21
146.55977280111779
 31
0.0
  0
LINE
  5
1A6BA
  8
SU
  6
CONTINUOUS
 62
     3
 10
-110.6707642022115
 20
146.3597728011178
 30
0.0
 11
-109.3894906687306
 21
146.3597728011178
 31
0.0
  0
LINE
  5
1A6BB
  8
SU
  6
CONTINUOUS
 62
     3
 10
-110.79076420221151
 20
146.1597728011175
 30
0.0
 11
-109.2694906687309
 21
146.1597728011175
 31
0.0
  0
LINE
  5
1A6BC
  8
SU
  6
CONTINUOUS
 62
     3
 10
-110.9107642022115
 20
145.95977280111779
 30
0.0
 11
-109.14949066873071
 21
145.95977280111779
 31
0.0
  0
LINE
  5
1A6BD
  8
SU
  6
CONTINUOUS
 62
     3
 10
-111.0307642022114
 20
145.7597728011178
 30
0.0
 11
-109.0294906687307
 21
145.7597728011178
 31
0.0
  0
LINE
  5
1A6BE
  8
SU
  6
CONTINUOUS
 62
     3
 10
-111.15076420221141
 20
145.55977280111779
 30
0.0
 11
-108.9094906687307
 21
145.55977280111779
 31
0.0
  0
LINE
  5
1A6BF
  8
SU
  6
CONTINUOUS
 62
     3
 10
-111.27076420221159
 20
145.3597728011178
 30
0.0
 11
-108.78949066873081
 21
145.3597728011178
 31
0.0
  0
LINE
  5
1A6C0
  8
SU
  6
CONTINUOUS
 62
     3
 10
-111.3907642022115
 20
145.15977280111781
 30
0.0
 11
-108.6694906687307
 21
145.15977280111781
 31
0.0
  0
LINE
  5
1A6C1
  8
SU
  6
CONTINUOUS
 62
     3
 10
-111.51076420221131
 20
144.95977280111779
 30
0.0
 11
-108.5494906687309
 21
144.95977280111779
 31
0.0
  0
LINE
  5
1A6C2
  8
SU
  6
CONTINUOUS
 62
     3
 10
-111.63076420221159
 20
144.7597728011178
 30
0.0
 11
-108.42949066873091
 21
144.7597728011178
 31
0.0
  0
LINE
  5
1A6C3
  8
SU
  6
CONTINUOUS
 62
     3
 10
-111.7507642022115
 20
144.55977280111779
 30
0.0
 11
-108.3094906687309
 21
144.55977280111779
 31
0.0
  0
LINE
  5
1A6C4
  8
SU
  6
CONTINUOUS
 62
     3
 10
-111.8707642022114
 20
144.3597728011178
 30
0.0
 11
-108.1894906687309
 21
144.3597728011178
 31
0.0
  0
LINE
  5
1A6C5
  8
SU
  6
CONTINUOUS
 62
     3
 10
-111.9907642022113
 20
144.15977280111781
 30
0.0
 11
-108.06949066873059
 21
144.15977280111781
 31
0.0
  0
LINE
  5
1A6C6
  8
SU
  6
CONTINUOUS
 62
     3
 10
-112.1107642022115
 20
143.95977280111779
 30
0.0
 11
-107.9494906687306
 21
143.95977280111779
 31
0.0
  0
LINE
  5
1A6C7
  8
SU
  6
CONTINUOUS
 62
     3
 10
-112.2307642022114
 20
143.7597728011178
 30
0.0
 11
-107.8294906687309
 21
143.7597728011178
 31
0.0
  0
LINE
  5
1A6C8
  8
SU
  6
CONTINUOUS
 62
     3
 10
-112.35076420221129
 20
143.55977280111779
 30
0.0
 11
-107.7094906687306
 21
143.55977280111779
 31
0.0
  0
LINE
  5
1A6C9
  8
SU
  6
CONTINUOUS
 62
     3
 10
-112.4707642022114
 20
143.3597728011178
 30
0.0
 11
-107.5894906687308
 21
143.3597728011178
 31
0.0
  0
LINE
  5
1A6CA
  8
SU
  6
CONTINUOUS
 62
     3
 10
-112.5907642022115
 20
143.15977280111781
 30
0.0
 11
-107.4694906687307
 21
143.15977280111781
 31
0.0
  0
LINE
  5
1A6CB
  8
SU
  6
CONTINUOUS
 62
     3
 10
-112.71076420221129
 20
142.95977280111779
 30
0.0
 11
-107.34949066873079
 21
142.95977280111779
 31
0.0
  0
LINE
  5
1A6CC
  8
SU
  6
CONTINUOUS
 62
     3
 10
-112.8307642022114
 20
142.7597728011178
 30
0.0
 11
-107.2294906687309
 21
142.7597728011178
 31
0.0
  0
LINE
  5
1A6CD
  8
SU
  6
CONTINUOUS
 62
     3
 10
-112.9507642022113
 20
142.55977280111779
 30
0.0
 11
-107.1094906687309
 21
142.55977280111779
 31
0.0
  0
LINE
  5
1A6CE
  8
SU
  6
CONTINUOUS
 62
     3
 10
-113.07076420221161
 20
142.3597728011178
 30
0.0
 11
-106.9894906687308
 21
142.3597728011178
 31
0.0
  0
LINE
  5
1A6CF
  8
SU
  6
CONTINUOUS
 62
     3
 10
-113.1907642022115
 20
142.15977280111781
 30
0.0
 11
-106.8694906687309
 21
142.15977280111781
 31
0.0
  0
LINE
  5
1A6D0
  8
SU
  6
CONTINUOUS
 62
     3
 10
-113.3107642022116
 20
141.95977280111779
 30
0.0
 11
-106.7494906687309
 21
141.95977280111779
 31
0.0
  0
LINE
  5
1A6D1
  8
SU
  6
CONTINUOUS
 62
     3
 10
-113.43076420221151
 20
141.7597728011178
 30
0.0
 11
-106.6294906687309
 21
141.7597728011178
 31
0.0
  0
LINE
  5
1A6D2
  8
SU
  6
CONTINUOUS
 62
     3
 10
-113.5507642022115
 20
141.55977280111779
 30
0.0
 11
-106.50949066873071
 21
141.55977280111779
 31
0.0
  0
LINE
  5
1A6D3
  8
SU
  6
CONTINUOUS
 62
     3
 10
-113.6707642022114
 20
141.3597728011178
 30
0.0
 11
-106.3894906687309
 21
141.3597728011178
 31
0.0
  0
LINE
  5
1A6D4
  8
SU
  6
CONTINUOUS
 62
     3
 10
-113.79076420221151
 20
141.15977280111781
 30
0.0
 11
-106.2694906687309
 21
141.15977280111781
 31
0.0
  0
LINE
  5
1A6D5
  8
SU
  6
CONTINUOUS
 62
     3
 10
-113.9107642022116
 20
140.95977280111779
 30
0.0
 11
-106.14949066873071
 21
140.95977280111779
 31
0.0
  0
LINE
  5
1A6D6
  8
SU
  6
CONTINUOUS
 62
     3
 10
-114.0307642022114
 20
140.7597728011178
 30
0.0
 11
-106.0294906687307
 21
140.7597728011178
 31
0.0
  0
LINE
  5
1A6D7
  8
SU
  6
CONTINUOUS
 62
     3
 10
-114.15076420221141
 20
140.5597728011177
 30
0.0
 11
-105.9094906687306
 21
140.5597728011177
 31
0.0
  0
LINE
  5
1A6D8
  8
SU
  6
CONTINUOUS
 62
     3
 10
-114.27076420221159
 20
140.35977280111771
 30
0.0
 11
-105.78949066873081
 21
140.35977280111771
 31
0.0
  0
LINE
  5
1A6D9
  8
SU
  6
CONTINUOUS
 62
     3
 10
-114.3907642022117
 20
140.15977280111781
 30
0.0
 11
-105.6694906687307
 21
140.15977280111781
 31
0.0
  0
LINE
  5
1A6DA
  8
SU
  6
CONTINUOUS
 62
     3
 10
-114.5107642022116
 20
139.95977280111771
 30
0.0
 11
-105.5494906687308
 21
139.95977280111771
 31
0.0
  0
LINE
  5
1A6DB
  8
SU
  6
CONTINUOUS
 62
     3
 10
-114.6307642022113
 20
139.75977280111749
 30
0.0
 11
-105.42949066873091
 21
139.75977280111749
 31
0.0
  0
LINE
  5
1A6DC
  8
SU
  6
CONTINUOUS
 62
     3
 10
-114.7507642022115
 20
139.5597728011177
 30
0.0
 11
-105.3094906687306
 21
139.5597728011177
 31
0.0
  0
LINE
  5
1A6DD
  8
SU
  6
CONTINUOUS
 62
     3
 10
-114.8707642022114
 20
139.35977280111771
 30
0.0
 11
-105.1894906687309
 21
139.35977280111771
 31
0.0
  0
LINE
  5
1A6DE
  8
SU
  6
CONTINUOUS
 62
     3
 10
-114.9907642022113
 20
139.15977280111781
 30
0.0
 11
-105.06949066873059
 21
139.15977280111781
 31
0.0
  0
LINE
  5
1A6DF
  8
SU
  6
CONTINUOUS
 62
     3
 10
-115.1107642022114
 20
138.95977280111771
 30
0.0
 11
-104.9494906687307
 21
138.95977280111771
 31
0.0
  0
LINE
  5
1A6E0
  8
SU
  6
CONTINUOUS
 62
     3
 10
-115.2307642022114
 20
138.75977280111749
 30
0.0
 11
-104.8294906687309
 21
138.75977280111749
 31
0.0
  0
LINE
  5
1A6E1
  8
SU
  6
CONTINUOUS
 62
     3
 10
-115.35076420221129
 20
138.5597728011177
 30
0.0
 11
-104.7094906687306
 21
138.5597728011177
 31
0.0
  0
LINE
  5
1A6E2
  8
SU
  6
CONTINUOUS
 62
     3
 10
-115.4707642022114
 20
138.35977280111771
 30
0.0
 11
-104.5894906687308
 21
138.35977280111771
 31
0.0
  0
LINE
  5
1A6E3
  8
SU
  6
CONTINUOUS
 62
     3
 10
-115.5907642022114
 20
138.15977280111781
 30
0.0
 11
-104.4694906687307
 21
138.15977280111781
 31
0.0
  0
LINE
  5
1A6E4
  8
SU
  6
CONTINUOUS
 62
     3
 10
-115.71076420221161
 20
137.95977280111771
 30
0.0
 11
-104.34949066873079
 21
137.95977280111771
 31
0.0
  0
LINE
  5
1A6E5
  8
SU
  6
CONTINUOUS
 62
     3
 10
-115.8307642022115
 20
137.75977280111761
 30
0.0
 11
-104.2294906687309
 21
137.75977280111761
 31
0.0
  0
LINE
  5
1A6E6
  8
SU
  6
CONTINUOUS
 62
     3
 10
-115.9507642022113
 20
137.5597728011177
 30
0.0
 11
-104.1094906687309
 21
137.5597728011177
 31
0.0
  0
TEXT
  5
1A6E7
  8
SU
  6
CONTINUOUS
 62
     3
 10
-126.3301274354699
 20
132.1865483647326
 30
0.0
 40
4.0
  1
24
 50
90.0
 41
0.8299999999999999
  0
TEXT
  5
1A6E8
  8
SU
  6
CONTINUOUS
 62
     3
 10
-378.33012743546919
 20
-68.730559272690144
 30
0.0
 40
4.0
  1
35
 50
90.0
 41
0.8299999999999999
  0
TEXT
  5
1A6E9
  8
SU
  6
CONTINUOUS
 62
     3
 10
-350.81774648309022
 20
68.227500745686527
 30
0.0
 40
4.0
  1
3
 41
0.8299999999999999
  0
LINE
  5
1A6EA
  8
SU
  6
CONTINUOUS
 62
     3
 10
-339.0301274354731
 20
66.92750074568653
 30
0.0
 11
-336.6301274354733
 21
66.92750074568653
 31
0.0
  0
TEXT
  5
1A6EB
  8
SU
  6
CONTINUOUS
 62
     3
 10
141.1074538814284
 20
-162.23536097792751
 30
0.0
 40
4.0
  1
ドアW（DW）＝W-56
 41
0.8299999999999999
  0
TEXT
  5
1A6EC
  8
SU
  6
CONTINUOUS
 62
     3
 10
252.77850148488909
 20
-147.23536097792751
 30
0.0
 40
4.0
  1
4
 41
0.8299999999999999
  0
TEXT
  5
1A6ED
  8
SU
  6
CONTINUOUS
 62
     3
 10
160.7270729290473
 20
-177.23536097792751
 30
0.0
 40
4.0
  1
W
 41
0.8299999999999999
  0
TEXT
  5
1A6EE
  8
SU
  6
CONTINUOUS
 62
     3
 10
100.32421578619019
 20
-116.16583716841841
 30
0.0
 40
4.0
  1
7.5
 50
90.0
 41
0.8299999999999999
  0
TEXT
  5
1A6EF
  8
SU
  6
CONTINUOUS
 62
     3
 10
69.149930087491313
 20
-147.23536097792751
 30
0.0
 40
4.0
  1
4
 41
0.8299999999999999
  0
TEXT
  5
1A6F0
  8
SU
  6
CONTINUOUS
 62
     3
 10
46.383263413031187
 20
-162.23536097792751
 30
0.0
 40
4.0
  1
24
 41
0.8299999999999999
  0
LINE
  5
1A6F1
  8
SU
  6
CONTINUOUS
 62
     3
 10
37.691943730757487
 20
-178.5759977446678
 30
0.0
 11
37.691943730757487
 21
-178.4947242111871
 31
0.0
  0
LINE
  5
1A6F2
  8
SU
  6
CONTINUOUS
 62
     3
 10
37.891943730757447
 20
-178.69599774466761
 30
0.0
 11
37.891943730757447
 21
-178.3747242111869
 31
0.0
  0
LINE
  5
1A6F3
  8
SU
  6
CONTINUOUS
 62
     3
 10
38.091943730757492
 20
-178.81599774466781
 30
0.0
 11
38.091943730757492
 21
-178.2547242111871
 31
0.0
  0
LINE
  5
1A6F4
  8
SU
  6
CONTINUOUS
 62
     3
 10
38.291943730757488
 20
-178.9359977446679
 30
0.0
 11
38.291943730757488
 21
-178.13472421118709
 31
0.0
  0
LINE
  5
1A6F5
  8
SU
  6
CONTINUOUS
 62
     3
 10
38.491943730757448
 20
-179.05599774466791
 30
0.0
 11
38.491943730757448
 21
-178.0147242111868
 31
0.0
  0
LINE
  5
1A6F6
  8
SU
  6
CONTINUOUS
 62
     3
 10
38.691943730757487
 20
-179.1759977446678
 30
0.0
 11
38.691943730757487
 21
-177.89472421118711
 31
0.0
  0
LINE
  5
1A6F7
  8
SU
  6
CONTINUOUS
 62
     3
 10
38.891943730757468
 20
-179.2959977446678
 30
0.0
 11
38.891943730757468
 21
-177.77472421118711
 31
0.0
  0
LINE
  5
1A6F8
  8
SU
  6
CONTINUOUS
 62
     3
 10
39.0919437307575
 20
-179.41599774466781
 30
0.0
 11
39.0919437307575
 21
-177.6547242111871
 31
0.0
  0
LINE
  5
1A6F9
  8
SU
  6
CONTINUOUS
 62
     3
 10
39.291943730757467
 20
-179.5359977446679
 30
0.0
 11
39.291943730757467
 21
-177.5347242111871
 31
0.0
  0
LINE
  5
1A6FA
  8
SU
  6
CONTINUOUS
 62
     3
 10
39.491943730757477
 20
-179.65599774466779
 30
0.0
 11
39.491943730757477
 21
-177.41472421118681
 31
0.0
  0
LINE
  5
1A6FB
  8
SU
  6
CONTINUOUS
 62
     3
 10
39.691943730757487
 20
-179.7759977446679
 30
0.0
 11
39.691943730757487
 21
-177.2947242111868
 31
0.0
  0
LINE
  5
1A6FC
  8
SU
  6
CONTINUOUS
 62
     3
 10
39.891943730757468
 20
-179.8959977446678
 30
0.0
 11
39.891943730757468
 21
-177.17472421118711
 31
0.0
  0
LINE
  5
1A6FD
  8
SU
  6
CONTINUOUS
 62
     3
 10
40.091943730757492
 20
-180.0159977446678
 30
0.0
 11
40.091943730757492
 21
-177.05472421118711
 31
0.0
  0
LINE
  5
1A6FE
  8
SU
  6
CONTINUOUS
 62
     3
 10
40.291943730757488
 20
-180.13599774466761
 30
0.0
 11
40.291943730757488
 21
-176.9347242111869
 31
0.0
  0
LINE
  5
1A6FF
  8
SU
  6
CONTINUOUS
 62
     3
 10
40.491943730757477
 20
-180.25599774466781
 30
0.0
 11
40.491943730757477
 21
-176.8147242111869
 31
0.0
  0
LINE
  5
1A700
  8
SU
  6
CONTINUOUS
 62
     3
 10
40.691943730757487
 20
-180.3759977446679
 30
0.0
 11
40.691943730757487
 21
-176.69472421118709
 31
0.0
  0
LINE
  5
1A701
  8
SU
  6
CONTINUOUS
 62
     3
 10
40.891943730757482
 20
-180.49599774466799
 30
0.0
 11
40.891943730757482
 21
-176.5747242111868
 31
0.0
  0
LINE
  5
1A702
  8
SU
  6
CONTINUOUS
 62
     3
 10
41.0919437307575
 20
-180.61599774466771
 30
0.0
 11
41.0919437307575
 21
-176.45472421118711
 31
0.0
  0
LINE
  5
1A703
  8
SU
  6
CONTINUOUS
 62
     3
 10
41.291943730757467
 20
-180.7359977446678
 30
0.0
 11
41.291943730757467
 21
-176.33472421118711
 31
0.0
  0
LINE
  5
1A704
  8
SU
  6
CONTINUOUS
 62
     3
 10
41.491943730757448
 20
-180.8559977446678
 30
0.0
 11
41.491943730757448
 21
-176.2147242111871
 31
0.0
  0
LINE
  5
1A705
  8
SU
  6
CONTINUOUS
 62
     3
 10
41.691943730757487
 20
-180.97599774466789
 30
0.0
 11
41.691943730757487
 21
-176.0947242111869
 31
0.0
  0
LINE
  5
1A706
  8
SU
  6
CONTINUOUS
 62
     3
 10
41.891943730757447
 20
-181.09599774466781
 30
0.0
 11
41.891943730757447
 21
-175.97472421118681
 31
0.0
  0
LINE
  5
1A707
  8
SU
  6
CONTINUOUS
 62
     3
 10
42.091943730757492
 20
-181.2159977446679
 30
0.0
 11
42.091943730757492
 21
-175.85472421118681
 31
0.0
  0
LINE
  5
1A708
  8
SU
  6
CONTINUOUS
 62
     3
 10
42.291943730757453
 20
-181.33599774466771
 30
0.0
 11
42.291943730757453
 21
-175.73472421118711
 31
0.0
  0
LINE
  5
1A709
  8
SU
  6
CONTINUOUS
 62
     3
 10
42.491943730757477
 20
-181.45599774466791
 30
0.0
 11
42.491943730757477
 21
-175.61472421118711
 31
0.0
  0
LINE
  5
1A70A
  8
SU
  6
CONTINUOUS
 62
     3
 10
42.691943730757487
 20
-181.5759977446678
 30
0.0
 11
42.691943730757487
 21
-175.4947242111871
 31
0.0
  0
LINE
  5
1A70B
  8
SU
  6
CONTINUOUS
 62
     3
 10
42.891943730757468
 20
-181.69599774466781
 30
0.0
 11
42.891943730757468
 21
-175.37472421118679
 31
0.0
  0
LINE
  5
1A70C
  8
SU
  6
CONTINUOUS
 62
     3
 10
43.0919437307575
 20
-181.81599774466781
 30
0.0
 11
43.0919437307575
 21
-175.2547242111871
 31
0.0
  0
LINE
  5
1A70D
  8
SU
  6
CONTINUOUS
 62
     3
 10
43.291943730757502
 20
-181.9359977446679
 30
0.0
 11
43.291943730757502
 21
-175.13472421118681
 31
0.0
  0
LINE
  5
1A70E
  8
SU
  6
CONTINUOUS
 62
     3
 10
43.491943730757463
 20
-182.05599774466791
 30
0.0
 11
43.491943730757463
 21
-175.0147242111868
 31
0.0
  0
LINE
  5
1A70F
  8
SU
  6
CONTINUOUS
 62
     3
 10
43.691943730757487
 20
-182.1759977446678
 30
0.0
 11
43.691943730757487
 21
-174.89472421118711
 31
0.0
  0
LINE
  5
1A710
  8
SU
  6
CONTINUOUS
 62
     3
 10
43.891943730757468
 20
-182.2959977446678
 30
0.0
 11
43.891943730757468
 21
-174.77472421118711
 31
0.0
  0
LINE
  5
1A711
  8
SU
  6
CONTINUOUS
 62
     3
 10
44.091943730757507
 20
-182.41599774466789
 30
0.0
 11
44.091943730757507
 21
-174.6547242111871
 31
0.0
  0
LINE
  5
1A712
  8
SU
  6
CONTINUOUS
 62
     3
 10
44.291943730757467
 20
-182.53599774466781
 30
0.0
 11
44.291943730757467
 21
-174.53472421118681
 31
0.0
  0
LINE
  5
1A713
  8
SU
  6
CONTINUOUS
 62
     3
 10
44.491943730757448
 20
-182.65599774466759
 30
0.0
 11
44.491943730757448
 21
-174.41472421118681
 31
0.0
  0
LINE
  5
1A714
  8
SU
  6
CONTINUOUS
 62
     3
 10
44.691943730757487
 20
-182.77599774466771
 30
0.0
 11
44.691943730757487
 21
-174.29472421118709
 31
0.0
  0
LINE
  5
1A715
  8
SU
  6
CONTINUOUS
 62
     3
 10
44.891943730757447
 20
-182.89599774466791
 30
0.0
 11
44.891943730757447
 21
-174.17472421118711
 31
0.0
  0
LINE
  5
1A716
  8
SU
  6
CONTINUOUS
 62
     3
 10
45.091943730757492
 20
-183.0159977446678
 30
0.0
 11
45.091943730757492
 21
-174.05472421118711
 31
0.0
  0
LINE
  5
1A717
  8
SU
  6
CONTINUOUS
 62
     3
 10
45.291943730757488
 20
-183.1359977446678
 30
0.0
 11
45.291943730757488
 21
-173.93472421118679
 31
0.0
  0
LINE
  5
1A718
  8
SU
  6
CONTINUOUS
 62
     3
 10
45.491943730757477
 20
-183.25599774466781
 30
0.0
 11
45.491943730757477
 21
-173.8147242111871
 31
0.0
  0
LINE
  5
1A719
  8
SU
  6
CONTINUOUS
 62
     3
 10
45.691943730757487
 20
-183.3759977446679
 30
0.0
 11
45.691943730757487
 21
-173.69472421118681
 31
0.0
  0
LINE
  5
1A71A
  8
SU
  6
CONTINUOUS
 62
     3
 10
45.891943730757482
 20
-183.4959977446679
 30
0.0
 11
45.891943730757482
 21
-173.5747242111868
 31
0.0
  0
LINE
  5
1A71B
  8
SU
  6
CONTINUOUS
 62
     3
 10
46.091943730757507
 20
-183.61599774466799
 30
0.0
 11
46.091943730757507
 21
-173.45472421118711
 31
0.0
  0
LINE
  5
1A71C
  8
SU
  6
CONTINUOUS
 62
     3
 10
46.291943730757467
 20
-183.735997744668
 30
0.0
 11
46.291943730757467
 21
-173.33472421118711
 31
0.0
  0
LINE
  5
1A71D
  8
SU
  6
CONTINUOUS
 62
     3
 10
46.491943730757463
 20
-183.85599774466789
 30
0.0
 11
46.491943730757463
 21
-173.2147242111871
 31
0.0
  0
LINE
  5
1A71E
  8
SU
  6
CONTINUOUS
 62
     3
 10
46.691943730757487
 20
-183.97599774466789
 30
0.0
 11
46.691943730757487
 21
-173.0947242111871
 31
0.0
  0
LINE
  5
1A71F
  8
SU
  6
CONTINUOUS
 62
     3
 10
46.891943730757461
 20
-184.09599774466781
 30
0.0
 11
46.891943730757461
 21
-172.97472421118681
 31
0.0
  0
LINE
  5
1A720
  8
SU
  6
CONTINUOUS
 62
     3
 10
47.091943730757492
 20
-184.2159977446677
 30
0.0
 11
47.091943730757492
 21
-172.85472421118681
 31
0.0
  0
LINE
  5
1A721
  8
SU
  6
CONTINUOUS
 62
     3
 10
47.29194373075746
 20
-184.33599774466771
 30
0.0
 11
47.29194373075746
 21
-172.73472421118711
 31
0.0
  0
LINE
  5
1A722
  8
SU
  6
CONTINUOUS
 62
     3
 10
47.491943730757477
 20
-184.4559977446678
 30
0.0
 11
47.491943730757477
 21
-172.61472421118711
 31
0.0
  0
TEXT
  5
1A723
  8
SU
  6
CONTINUOUS
 62
     3
 10
100.32421578619019
 20
-80.697264883607943
 30
0.0
 40
4.0
  1
40
 50
90.0
 41
0.8299999999999999
  0
TEXT
  5
1A724
  8
SU
  6
CONTINUOUS
 62
     3
 10
100.32421578619019
 20
-54.96012117024209
 30
0.0
 40
4.0
  1
11
 50
90.0
 41
0.8299999999999999
  0
TEXT
  5
1A725
  8
SU
  6
CONTINUOUS
 62
     3
 10
100.32421578619019
 20
-37.776312883631633
 30
0.0
 40
4.0
  1
24
 50
90.0
 41
0.8299999999999999
  0
TEXT
  5
1A726
  8
SU
  6
CONTINUOUS
 62
     3
 10
272.38326339744441
 20
-162.23536097792751
 30
0.0
 40
4.0
  1
24
 41
0.8299999999999999
  0
LINE
  5
1A727
  8
SU
  6
CONTINUOUS
 62
     3
 10
277.75648784162303
 20
-184.4559977446678
 30
0.0
 11
277.75648784162303
 21
-172.61472421118711
 31
0.0
  0
LINE
  5
1A728
  8
SU
  6
CONTINUOUS
 62
     3
 10
277.95648784162302
 20
-184.33599774466771
 30
0.0
 11
277.95648784162302
 21
-172.73472421118711
 31
0.0
  0
LINE
  5
1A729
  8
SU
  6
CONTINUOUS
 62
     3
 10
278.15648784162289
 20
-184.2159977446677
 30
0.0
 11
278.15648784162289
 21
-172.85472421118689
 31
0.0
  0
LINE
  5
1A72A
  8
SU
  6
CONTINUOUS
 62
     3
 10
278.35648784162311
 20
-184.09599774466781
 30
0.0
 11
278.35648784162311
 21
-172.9747242111869
 31
0.0
  0
LINE
  5
1A72B
  8
SU
  6
CONTINUOUS
 62
     3
 10
278.55648784162281
 20
-183.97599774466789
 30
0.0
 11
278.55648784162281
 21
-173.0947242111871
 31
0.0
  0
LINE
  5
1A72C
  8
SU
  6
CONTINUOUS
 62
     3
 10
278.75648784162308
 20
-183.85599774466789
 30
0.0
 11
278.75648784162308
 21
-173.2147242111871
 31
0.0
  0
LINE
  5
1A72D
  8
SU
  6
CONTINUOUS
 62
     3
 10
278.95648784162302
 20
-183.7359977446678
 30
0.0
 11
278.95648784162302
 21
-173.33472421118711
 31
0.0
  0
LINE
  5
1A72E
  8
SU
  6
CONTINUOUS
 62
     3
 10
279.156487841623
 20
-183.6159977446676
 30
0.0
 11
279.156487841623
 21
-173.45472421118711
 31
0.0
  0
LINE
  5
1A72F
  8
SU
  6
CONTINUOUS
 62
     3
 10
279.35648784162311
 20
-183.4959977446679
 30
0.0
 11
279.35648784162311
 21
-173.5747242111868
 31
0.0
  0
LINE
  5
1A730
  8
SU
  6
CONTINUOUS
 62
     3
 10
279.55648784162281
 20
-183.3759977446679
 30
0.0
 11
279.55648784162281
 21
-173.69472421118681
 31
0.0
  0
LINE
  5
1A731
  8
SU
  6
CONTINUOUS
 62
     3
 10
279.75648784162303
 20
-183.25599774466781
 30
0.0
 11
279.75648784162303
 21
-173.8147242111871
 31
0.0
  0
LINE
  5
1A732
  8
SU
  6
CONTINUOUS
 62
     3
 10
279.95648784162302
 20
-183.1359977446678
 30
0.0
 11
279.95648784162302
 21
-173.93472421118679
 31
0.0
  0
LINE
  5
1A733
  8
SU
  6
CONTINUOUS
 62
     3
 10
280.15648784162289
 20
-183.0159977446678
 30
0.0
 11
280.15648784162289
 21
-174.05472421118711
 31
0.0
  0
LINE
  5
1A734
  8
SU
  6
CONTINUOUS
 62
     3
 10
280.35648784162311
 20
-182.89599774466791
 30
0.0
 11
280.35648784162311
 21
-174.17472421118711
 31
0.0
  0
LINE
  5
1A735
  8
SU
  6
CONTINUOUS
 62
     3
 10
280.55648784162281
 20
-182.77599774466771
 30
0.0
 11
280.55648784162281
 21
-174.29472421118709
 31
0.0
  0
LINE
  5
1A736
  8
SU
  6
CONTINUOUS
 62
     3
 10
280.75648784162308
 20
-182.6559977446675
 30
0.0
 11
280.75648784162308
 21
-174.41472421118681
 31
0.0
  0
LINE
  5
1A737
  8
SU
  6
CONTINUOUS
 62
     3
 10
280.95648784162302
 20
-182.53599774466781
 30
0.0
 11
280.95648784162302
 21
-174.5347242111869
 31
0.0
  0
LINE
  5
1A738
  8
SU
  6
CONTINUOUS
 62
     3
 10
281.156487841623
 20
-182.41599774466789
 30
0.0
 11
281.156487841623
 21
-174.6547242111871
 31
0.0
  0
LINE
  5
1A739
  8
SU
  6
CONTINUOUS
 62
     3
 10
281.35648784162311
 20
-182.2959977446678
 30
0.0
 11
281.35648784162311
 21
-174.77472421118711
 31
0.0
  0
LINE
  5
1A73A
  8
SU
  6
CONTINUOUS
 62
     3
 10
281.55648784162281
 20
-182.1759977446678
 30
0.0
 11
281.55648784162281
 21
-174.89472421118711
 31
0.0
  0
LINE
  5
1A73B
  8
SU
  6
CONTINUOUS
 62
     3
 10
281.75648784162303
 20
-182.05599774466771
 30
0.0
 11
281.75648784162303
 21
-175.01472421118689
 31
0.0
  0
LINE
  5
1A73C
  8
SU
  6
CONTINUOUS
 62
     3
 10
281.95648784162302
 20
-181.9359977446677
 30
0.0
 11
281.95648784162302
 21
-175.13472421118689
 31
0.0
  0
LINE
  5
1A73D
  8
SU
  6
CONTINUOUS
 62
     3
 10
282.15648784162289
 20
-181.81599774466781
 30
0.0
 11
282.15648784162289
 21
-175.2547242111871
 31
0.0
  0
LINE
  5
1A73E
  8
SU
  6
CONTINUOUS
 62
     3
 10
282.35648784162311
 20
-181.69599774466781
 30
0.0
 11
282.35648784162311
 21
-175.3747242111869
 31
0.0
  0
LINE
  5
1A73F
  8
SU
  6
CONTINUOUS
 62
     3
 10
282.55648784162281
 20
-181.5759977446678
 30
0.0
 11
282.55648784162281
 21
-175.4947242111871
 31
0.0
  0
LINE
  5
1A740
  8
SU
  6
CONTINUOUS
 62
     3
 10
282.75648784162308
 20
-181.45599774466791
 30
0.0
 11
282.75648784162308
 21
-175.61472421118711
 31
0.0
  0
LINE
  5
1A741
  8
SU
  6
CONTINUOUS
 62
     3
 10
282.95648784162302
 20
-181.33599774466771
 30
0.0
 11
282.95648784162302
 21
-175.73472421118711
 31
0.0
  0
LINE
  5
1A742
  8
SU
  6
CONTINUOUS
 62
     3
 10
283.156487841623
 20
-181.2159977446679
 30
0.0
 11
283.156487841623
 21
-175.85472421118681
 31
0.0
  0
LINE
  5
1A743
  8
SU
  6
CONTINUOUS
 62
     3
 10
283.35648784162311
 20
-181.09599774466781
 30
0.0
 11
283.35648784162311
 21
-175.9747242111869
 31
0.0
  0
LINE
  5
1A744
  8
SU
  6
CONTINUOUS
 62
     3
 10
283.55648784162281
 20
-180.97599774466789
 30
0.0
 11
283.55648784162281
 21
-176.0947242111869
 31
0.0
  0
LINE
  5
1A745
  8
SU
  6
CONTINUOUS
 62
     3
 10
283.75648784162303
 20
-180.8559977446678
 30
0.0
 11
283.75648784162303
 21
-176.2147242111871
 31
0.0
  0
LINE
  5
1A746
  8
SU
  6
CONTINUOUS
 62
     3
 10
283.95648784162302
 20
-180.7359977446678
 30
0.0
 11
283.95648784162302
 21
-176.33472421118711
 31
0.0
  0
LINE
  5
1A747
  8
SU
  6
CONTINUOUS
 62
     3
 10
284.156487841623
 20
-180.61599774466771
 30
0.0
 11
284.156487841623
 21
-176.45472421118711
 31
0.0
  0
LINE
  5
1A748
  8
SU
  6
CONTINUOUS
 62
     3
 10
284.35648784162311
 20
-180.4959977446679
 30
0.0
 11
284.35648784162311
 21
-176.5747242111868
 31
0.0
  0
LINE
  5
1A749
  8
SU
  6
CONTINUOUS
 62
     3
 10
284.55648784162281
 20
-180.3759977446679
 30
0.0
 11
284.55648784162281
 21
-176.69472421118709
 31
0.0
  0
LINE
  5
1A74A
  8
SU
  6
CONTINUOUS
 62
     3
 10
284.75648784162303
 20
-180.25599774466781
 30
0.0
 11
284.75648784162303
 21
-176.8147242111869
 31
0.0
  0
LINE
  5
1A74B
  8
SU
  6
CONTINUOUS
 62
     3
 10
284.95648784162302
 20
-180.13599774466761
 30
0.0
 11
284.95648784162302
 21
-176.9347242111869
 31
0.0
  0
LINE
  5
1A74C
  8
SU
  6
CONTINUOUS
 62
     3
 10
285.156487841623
 20
-180.0159977446678
 30
0.0
 11
285.156487841623
 21
-177.05472421118711
 31
0.0
  0
LINE
  5
1A74D
  8
SU
  6
CONTINUOUS
 62
     3
 10
285.35648784162311
 20
-179.8959977446678
 30
0.0
 11
285.35648784162311
 21
-177.17472421118711
 31
0.0
  0
LINE
  5
1A74E
  8
SU
  6
CONTINUOUS
 62
     3
 10
285.5564878416227
 20
-179.7759977446679
 30
0.0
 11
285.5564878416227
 21
-177.29472421118689
 31
0.0
  0
LINE
  5
1A74F
  8
SU
  6
CONTINUOUS
 62
     3
 10
285.75648784162303
 20
-179.65599774466779
 30
0.0
 11
285.75648784162303
 21
-177.41472421118689
 31
0.0
  0
LINE
  5
1A750
  8
SU
  6
CONTINUOUS
 62
     3
 10
285.95648784162302
 20
-179.5359977446679
 30
0.0
 11
285.95648784162302
 21
-177.5347242111871
 31
0.0
  0
LINE
  5
1A751
  8
SU
  6
CONTINUOUS
 62
     3
 10
286.15648784162289
 20
-179.41599774466781
 30
0.0
 11
286.15648784162289
 21
-177.6547242111871
 31
0.0
  0
LINE
  5
1A752
  8
SU
  6
CONTINUOUS
 62
     3
 10
286.35648784162282
 20
-179.2959977446678
 30
0.0
 11
286.35648784162282
 21
-177.77472421118711
 31
0.0
  0
LINE
  5
1A753
  8
SU
  6
CONTINUOUS
 62
     3
 10
286.55648784162281
 20
-179.1759977446678
 30
0.0
 11
286.55648784162281
 21
-177.89472421118711
 31
0.0
  0
LINE
  5
1A754
  8
SU
  6
CONTINUOUS
 62
     3
 10
286.75648784162308
 20
-179.05599774466779
 30
0.0
 11
286.75648784162308
 21
-178.01472421118689
 31
0.0
  0
LINE
  5
1A755
  8
SU
  6
CONTINUOUS
 62
     3
 10
286.95648784162302
 20
-178.93599774466779
 30
0.0
 11
286.95648784162302
 21
-178.13472421118709
 31
0.0
  0
LINE
  5
1A756
  8
SU
  6
CONTINUOUS
 62
     3
 10
287.156487841623
 20
-178.81599774466781
 30
0.0
 11
287.156487841623
 21
-178.2547242111871
 31
0.0
  0
LINE
  5
1A757
  8
SU
  6
CONTINUOUS
 62
     3
 10
287.35648784162311
 20
-178.69599774466749
 30
0.0
 11
287.35648784162311
 21
-178.3747242111869
 31
0.0
  0
LINE
  5
1A758
  8
SU
  6
CONTINUOUS
 62
     3
 10
287.5564878416227
 20
-178.5759977446678
 30
0.0
 11
287.5564878416227
 21
-178.4947242111871
 31
0.0
  0
TEXT
  5
1A759
  8
SU
  6
CONTINUOUS
 62
     3
 10
114.3242182347192
 20
-17.850353891059719
 30
0.0
 40
4.0
  1
182
 50
90.0
 41
0.8299999999999999
  0
TEXT
  5
1A75A
  8
SU
  6
CONTINUOUS
 62
     3
 10
100.32421578619019
 20
21.681302224672681
 30
0.0
 40
4.0
  1
99.5
 50
90.0
 41
0.8299999999999999
  0
TEXT
  5
1A75B
  8
SU
  6
CONTINUOUS
 62
     3
 10
65.711453881428469
 20
98.264639022057565
 30
0.0
 40
4.0
  1
（20）
 41
0.8299999999999999
  0
TEXT
  5
1A75C
  8
SU
  6
CONTINUOUS
 62
     3
 10
247.7114538814281
 20
98.264639022057708
 30
0.0
 40
4.0
  1
（20）
 41
0.8299999999999999
  0
TEXT
  5
1A75D
  8
SU
  6
CONTINUOUS
 62
     3
 10
-154.40441314975729
 20
68.227500745686157
 30
0.0
 40
4.0
  1
3
 41
0.8299999999999999
  0
LINE
  5
1A75E
  8
SU
  6
CONTINUOUS
 62
     3
 10
-163.0301274354712
 20
66.92750074568616
 30
0.0
 11
-165.43012743547101
 21
66.92750074568616
 31
0.0
  0
TEXT
  5
1A75F
  8
SU
  6
CONTINUOUS
 62
     3
 10
-256.01012743547091
 20
68.22750074568593
 30
0.0
 40
4.0
  1
176
 41
0.8299999999999999
  0
ARC
  5
1A760
  8
SU
  6
CONTINUOUS
 62
     3
 10
-339.03012743547049
 20
66.927500745685933
 30
0.0
 40
0.3000000000000114
 50
0.0
 51
180.0
  0
ARC
  5
1A761
  8
SU
  6
CONTINUOUS
 62
     3
 10
-339.03012743547049
 20
66.927500745685933
 30
0.0
 40
0.3000000000000114
 50
180.0
 51
0.0
  0
ARC
  5
1A762
  8
SU
  6
CONTINUOUS
 62
     3
 10
-163.0301274354712
 20
66.927500745685933
 30
0.0
 40
0.3000000000000114
 50
180.0
 51
0.0
  0
ARC
  5
1A763
  8
SU
  6
CONTINUOUS
 62
     3
 10
-163.0301274354712
 20
66.927500745685933
 30
0.0
 40
0.3000000000000114
 50
0.0
 51
180.0
  0
ARC
  5
1A764
  8
SU
  6
CONTINUOUS
 62
     3
 10
-163.0301274354712
 20
66.92750074568616
 30
0.0
 40
0.3000000000000114
 50
180.0
 51
0.0
  0
ARC
  5
1A765
  8
SU
  6
CONTINUOUS
 62
     3
 10
-163.0301274354712
 20
66.92750074568616
 30
0.0
 40
0.3000000000000114
 50
0.0
 51
180.0
  0
ARC
  5
1A766
  8
SU
  6
CONTINUOUS
 62
     3
 10
-160.03012743547151
 20
66.92750074568616
 30
0.0
 40
0.3000000000000114
 50
0.0
 51
180.0
  0
ARC
  5
1A767
  8
SU
  6
CONTINUOUS
 62
     3
 10
-160.03012743547151
 20
66.92750074568616
 30
0.0
 40
0.3000000000000114
 50
180.0
 51
0.0
  0
ARC
  5
1A768
  8
SU
  6
CONTINUOUS
 62
     3
 10
243.62421578619009
 20
96.964639022057696
 30
0.0
 40
0.3000000000000114
 50
0.0
 51
180.0
  0
ARC
  5
1A769
  8
SU
  6
CONTINUOUS
 62
     3
 10
243.62421578619009
 20
96.964639022057696
 30
0.0
 40
0.3000000000000114
 50
180.0
 51
0.0
  0
ARC
  5
1A76A
  8
SU
  6
CONTINUOUS
 62
     3
 10
81.624215786190376
 20
96.964639022057554
 30
0.0
 40
0.2999999999999971
 50
180.0
 51
0.0
  0
ARC
  5
1A76B
  8
SU
  6
CONTINUOUS
 62
     3
 10
81.624215786190376
 20
96.964639022057554
 30
0.0
 40
0.2999999999999971
 50
0.0
 51
180.0
  0
ARC
  5
1A76C
  8
SU
  6
CONTINUOUS
 62
     3
 10
101.62421578619031
 20
76.964632855890386
 30
0.0
 40
0.2999999999999971
 50
270.0
 51
90.0
  0
ARC
  5
1A76D
  8
SU
  6
CONTINUOUS
 62
     3
 10
101.62421578619031
 20
76.964632855890386
 30
0.0
 40
0.2999999999999971
 50
90.0
 51
270.0
  0
ARC
  5
1A76E
  8
SU
  6
CONTINUOUS
 62
     3
 10
115.62421823471919
 20
76.964632855890386
 30
0.0
 40
0.2999999999999971
 50
270.0
 51
90.0
  0
ARC
  5
1A76F
  8
SU
  6
CONTINUOUS
 62
     3
 10
115.62421823471919
 20
76.964632855890386
 30
0.0
 40
0.2999999999999971
 50
90.0
 51
270.0
  0
ARC
  5
1A770
  8
SU
  6
CONTINUOUS
 62
     3
 10
115.62421823471919
 20
-105.0353609779422
 30
0.0
 40
0.2999999999999971
 50
90.0
 51
270.0
  0
ARC
  5
1A771
  8
SU
  6
CONTINUOUS
 62
     3
 10
115.62421823471919
 20
-105.0353609779422
 30
0.0
 40
0.2999999999999971
 50
270.0
 51
90.0
  0
ARC
  5
1A772
  8
SU
  6
CONTINUOUS
 62
     3
 10
287.62421578619001
 20
-163.53536097792741
 30
0.0
 40
0.3000000000000114
 50
180.0
 51
0.0
  0
ARC
  5
1A773
  8
SU
  6
CONTINUOUS
 62
     3
 10
287.62421578619001
 20
-163.53536097792741
 30
0.0
 40
0.3000000000000114
 50
0.0
 51
180.0
  0
ARC
  5
1A774
  8
SU
  6
CONTINUOUS
 62
     3
 10
101.62421578619031
 20
-22.535361739878329
 30
0.0
 40
0.3000000000000007
 50
270.0
 51
90.0
  0
ARC
  5
1A775
  8
SU
  6
CONTINUOUS
 62
     3
 10
101.62421578619031
 20
-22.535361739878329
 30
0.0
 40
0.3000000000000007
 50
90.0
 51
270.0
  0
ARC
  5
1A776
  8
SU
  6
CONTINUOUS
 62
     3
 10
101.62421578619031
 20
-57.53535926548021
 30
0.0
 40
0.2999999999999971
 50
90.0
 51
270.0
  0
ARC
  5
1A777
  8
SU
  6
CONTINUOUS
 62
     3
 10
101.62421578619031
 20
-57.53535926548021
 30
0.0
 40
0.2999999999999971
 50
270.0
 51
90.0
  0
ARC
  5
1A778
  8
SU
  6
CONTINUOUS
 62
     3
 10
101.62421578619031
 20
-46.535359265480203
 30
0.0
 40
0.2999999999999971
 50
270.0
 51
90.0
  0
ARC
  5
1A779
  8
SU
  6
CONTINUOUS
 62
     3
 10
101.62421578619031
 20
-46.535359265480203
 30
0.0
 40
0.2999999999999971
 50
90.0
 51
270.0
  0
ARC
  5
1A77A
  8
SU
  6
CONTINUOUS
 62
     3
 10
101.62421578619031
 20
-97.535360977926175
 30
0.0
 40
0.2999999999999971
 50
90.0
 51
270.0
  0
ARC
  5
1A77B
  8
SU
  6
CONTINUOUS
 62
     3
 10
101.62421578619031
 20
-97.535360977926175
 30
0.0
 40
0.2999999999999971
 50
270.0
 51
90.0
  0
ARC
  5
1A77C
  8
SU
  6
CONTINUOUS
 62
     3
 10
37.624215786190092
 20
-163.53536097792741
 30
0.0
 40
0.2999999999999971
 50
0.0
 51
180.0
  0
ARC
  5
1A77D
  8
SU
  6
CONTINUOUS
 62
     3
 10
37.624215786190092
 20
-163.53536097792741
 30
0.0
 40
0.2999999999999971
 50
180.0
 51
0.0
  0
ARC
  5
1A77E
  8
SU
  6
CONTINUOUS
 62
     3
 10
65.624215801777041
 20
-163.53536097792741
 30
0.0
 40
0.2999999999999971
 50
180.0
 51
0.0
  0
ARC
  5
1A77F
  8
SU
  6
CONTINUOUS
 62
     3
 10
65.624215801777041
 20
-163.53536097792741
 30
0.0
 40
0.2999999999999971
 50
0.0
 51
180.0
  0
ARC
  5
1A780
  8
SU
  6
CONTINUOUS
 62
     3
 10
61.62421578619017
 20
-163.53536097792741
 30
0.0
 40
0.2999999999999971
 50
0.0
 51
180.0
  0
ARC
  5
1A781
  8
SU
  6
CONTINUOUS
 62
     3
 10
61.62421578619017
 20
-163.53536097792741
 30
0.0
 40
0.2999999999999971
 50
180.0
 51
0.0
  0
ARC
  5
1A782
  8
SU
  6
CONTINUOUS
 62
     3
 10
101.62421578619031
 20
-97.535360977926175
 30
0.0
 40
0.2999999999999971
 50
270.0
 51
90.0
  0
ARC
  5
1A783
  8
SU
  6
CONTINUOUS
 62
     3
 10
101.62421578619031
 20
-97.535360977926175
 30
0.0
 40
0.2999999999999971
 50
90.0
 51
270.0
  0
ARC
  5
1A784
  8
SU
  6
CONTINUOUS
 62
     3
 10
101.62421578619031
 20
-105.0353609779422
 30
0.0
 40
0.2999999999999971
 50
90.0
 51
270.0
  0
ARC
  5
1A785
  8
SU
  6
CONTINUOUS
 62
     3
 10
101.62421578619031
 20
-105.0353609779422
 30
0.0
 40
0.2999999999999971
 50
270.0
 51
90.0
  0
ARC
  5
1A786
  8
SU
  6
CONTINUOUS
 62
     3
 10
259.62421577060343
 20
-163.53536097792741
 30
0.0
 40
0.3000000000000114
 50
0.0
 51
180.0
  0
ARC
  5
1A787
  8
SU
  6
CONTINUOUS
 62
     3
 10
259.62421577060343
 20
-163.53536097792741
 30
0.0
 40
0.3000000000000114
 50
180.0
 51
0.0
  0
ARC
  5
1A788
  8
SU
  6
CONTINUOUS
 62
     3
 10
263.62421578619012
 20
-163.53536097792741
 30
0.0
 40
0.3000000000000114
 50
180.0
 51
0.0
  0
ARC
  5
1A789
  8
SU
  6
CONTINUOUS
 62
     3
 10
263.62421578619012
 20
-163.53536097792741
 30
0.0
 40
0.3000000000000114
 50
0.0
 51
180.0
  0
ARC
  5
1A78A
  8
SU
  6
CONTINUOUS
 62
     3
 10
259.62421577060343
 20
-163.53536097792741
 30
0.0
 40
0.3000000000000114
 50
180.0
 51
0.0
  0
ARC
  5
1A78B
  8
SU
  6
CONTINUOUS
 62
     3
 10
259.62421577060343
 20
-163.53536097792741
 30
0.0
 40
0.3000000000000114
 50
0.0
 51
180.0
  0
ARC
  5
1A78C
  8
SU
  6
CONTINUOUS
 62
     3
 10
65.624215801777254
 20
-163.53536097792741
 30
0.0
 40
0.2999999999999971
 50
0.0
 51
180.0
  0
ARC
  5
1A78D
  8
SU
  6
CONTINUOUS
 62
     3
 10
65.624215801777254
 20
-163.53536097792741
 30
0.0
 40
0.2999999999999971
 50
180.0
 51
0.0
  0
ARC
  5
1A78E
  8
SU
  6
CONTINUOUS
 62
     3
 10
-339.0301274354731
 20
66.92750074568653
 30
0.0
 40
0.3000000000000114
 50
0.0
 51
180.0
  0
ARC
  5
1A78F
  8
SU
  6
CONTINUOUS
 62
     3
 10
-339.0301274354731
 20
66.92750074568653
 30
0.0
 40
0.3000000000000114
 50
180.0
 51
0.0
  0
ARC
  5
1A790
  8
SU
  6
CONTINUOUS
 62
     3
 10
-342.03012743547112
 20
66.92750074568653
 30
0.0
 40
0.3000000000000114
 50
180.0
 51
0.0
  0
ARC
  5
1A791
  8
SU
  6
CONTINUOUS
 62
     3
 10
-342.03012743547112
 20
66.92750074568653
 30
0.0
 40
0.3000000000000114
 50
0.0
 51
180.0
  0
ARC
  5
1A792
  8
SU
  6
CONTINUOUS
 62
     3
 10
-377.0301274354693
 20
-83.068655924727196
 30
0.0
 40
0.2999999999999971
 50
90.0
 51
270.0
  0
ARC
  5
1A793
  8
SU
  6
CONTINUOUS
 62
     3
 10
-377.0301274354693
 20
-83.068655924727196
 30
0.0
 40
0.2999999999999971
 50
270.0
 51
90.0
  0
ARC
  5
1A794
  8
SU
  6
CONTINUOUS
 62
     3
 10
-377.0301274354693
 20
-48.068653096843448
 30
0.0
 40
0.2999999999999971
 50
270.0
 51
90.0
  0
ARC
  5
1A795
  8
SU
  6
CONTINUOUS
 62
     3
 10
-377.0301274354693
 20
-48.068653096843448
 30
0.0
 40
0.2999999999999971
 50
90.0
 51
270.0
  0
ARC
  5
1A796
  8
SU
  6
CONTINUOUS
 62
     3
 10
-125.03012743546959
 20
123.42750074568499
 30
0.0
 40
0.2999999999999971
 50
90.0
 51
270.0
  0
ARC
  5
1A797
  8
SU
  6
CONTINUOUS
 62
     3
 10
-125.03012743546959
 20
123.42750074568499
 30
0.0
 40
0.2999999999999971
 50
270.0
 51
90.0
  0
ARC
  5
1A798
  8
SU
  6
CONTINUOUS
 62
     3
 10
-125.03012743546959
 20
147.42750074568511
 30
0.0
 40
0.3000000000000114
 50
270.0
 51
90.0
  0
ARC
  5
1A799
  8
SU
  6
CONTINUOUS
 62
     3
 10
-125.03012743546959
 20
147.42750074568511
 30
0.0
 40
0.3000000000000114
 50
90.0
 51
270.0
  0
ARC
  5
1A79A
  8
SU
  6
CONTINUOUS
 62
     3
 10
-167.53012743547089
 20
81.927500745686601
 30
0.0
 40
0.3000000000000114
 50
0.0
 51
180.0
  0
ARC
  5
1A79B
  8
SU
  6
CONTINUOUS
 62
     3
 10
-167.53012743547089
 20
81.927500745686601
 30
0.0
 40
0.3000000000000114
 50
180.0
 51
0.0
  0
ARC
  5
1A79C
  8
SU
  6
CONTINUOUS
 62
     3
 10
-163.0301274354712
 20
81.927500745686601
 30
0.0
 40
0.3000000000000114
 50
180.0
 51
0.0
  0
ARC
  5
1A79D
  8
SU
  6
CONTINUOUS
 62
     3
 10
-163.0301274354712
 20
81.927500745686601
 30
0.0
 40
0.3000000000000114
 50
0.0
 51
180.0
  0
ARC
  5
1A79E
  8
SU
  6
CONTINUOUS
 62
     3
 10
-125.03012743546959
 20
120.42750074568499
 30
0.0
 40
0.2999999999999971
 50
90.0
 51
270.0
  0
ARC
  5
1A79F
  8
SU
  6
CONTINUOUS
 62
     3
 10
-125.03012743546959
 20
120.42750074568499
 30
0.0
 40
0.2999999999999971
 50
270.0
 51
90.0
  0
ARC
  5
1A7A0
  8
SU
  6
CONTINUOUS
 62
     3
 10
-125.03012743546959
 20
123.42750074568499
 30
0.0
 40
0.2999999999999971
 50
270.0
 51
90.0
  0
ARC
  5
1A7A1
  8
SU
  6
CONTINUOUS
 62
     3
 10
-125.03012743546959
 20
123.42750074568499
 30
0.0
 40
0.2999999999999971
 50
90.0
 51
270.0
  0
ARC
  5
1A7A2
  8
SU
  6
CONTINUOUS
 62
     3
 10
-218.5301291481853
 20
81.927500745686899
 30
0.0
 40
0.3000000000000114
 50
180.0
 51
0.0
  0
ARC
  5
1A7A3
  8
SU
  6
CONTINUOUS
 62
     3
 10
-218.5301291481853
 20
81.927500745686899
 30
0.0
 40
0.3000000000000114
 50
0.0
 51
180.0
  0
ARC
  5
1A7A4
  8
SU
  6
CONTINUOUS
 62
     3
 10
-242.5301266737867
 20
81.927500745686899
 30
0.0
 40
0.3000000000000114
 50
0.0
 51
180.0
  0
ARC
  5
1A7A5
  8
SU
  6
CONTINUOUS
 62
     3
 10
-242.5301266737867
 20
81.927500745686899
 30
0.0
 40
0.3000000000000114
 50
180.0
 51
0.0
  0
ARC
  5
1A7A6
  8
SU
  6
CONTINUOUS
 62
     3
 10
-167.53012743942071
 20
81.927500745686601
 30
0.0
 40
0.3000000000000114
 50
180.0
 51
0.0
  0
ARC
  5
1A7A7
  8
SU
  6
CONTINUOUS
 62
     3
 10
-167.53012743942071
 20
81.927500745686601
 30
0.0
 40
0.3000000000000114
 50
0.0
 51
180.0
  0
ARC
  5
1A7A8
  8
SU
  6
CONTINUOUS
 62
     3
 10
-207.53012914793371
 20
81.927500745686601
 30
0.0
 40
0.3000000000000114
 50
0.0
 51
180.0
  0
ARC
  5
1A7A9
  8
SU
  6
CONTINUOUS
 62
     3
 10
-207.53012914793371
 20
81.927500745686601
 30
0.0
 40
0.3000000000000114
 50
180.0
 51
0.0
  0
ARC
  5
1A7AA
  8
SU
  6
CONTINUOUS
 62
     3
 10
-207.53012914793371
 20
81.927500745686757
 30
0.0
 40
0.3000000000000114
 50
180.0
 51
0.0
  0
ARC
  5
1A7AB
  8
SU
  6
CONTINUOUS
 62
     3
 10
-207.53012914793371
 20
81.927500745686757
 30
0.0
 40
0.3000000000000114
 50
0.0
 51
180.0
  0
ARC
  5
1A7AC
  8
SU
  6
CONTINUOUS
 62
     3
 10
-218.5301291481853
 20
81.927500745686757
 30
0.0
 40
0.3000000000000114
 50
0.0
 51
180.0
  0
ARC
  5
1A7AD
  8
SU
  6
CONTINUOUS
 62
     3
 10
-218.5301291481853
 20
81.927500745686757
 30
0.0
 40
0.3000000000000114
 50
180.0
 51
0.0
  0
ARC
  5
1A7AE
  8
SU
  6
CONTINUOUS
 62
     3
 10
-242.53012667353551
 20
81.927500745686814
 30
0.0
 40
0.3000000000000114
 50
180.0
 51
0.0
  0
ARC
  5
1A7AF
  8
SU
  6
CONTINUOUS
 62
     3
 10
-242.53012667353551
 20
81.927500745686814
 30
0.0
 40
0.3000000000000114
 50
0.0
 51
180.0
  0
ARC
  5
1A7B0
  8
SU
  6
CONTINUOUS
 62
     3
 10
-339.03012743547049
 20
81.927500745686814
 30
0.0
 40
0.3000000000000114
 50
0.0
 51
180.0
  0
ARC
  5
1A7B1
  8
SU
  6
CONTINUOUS
 62
     3
 10
-339.03012743547049
 20
81.927500745686814
 30
0.0
 40
0.3000000000000114
 50
180.0
 51
0.0
  0
ARC
  5
1A7B2
  8
SU
  6
CONTINUOUS
 62
     3
 10
-362.0301274354693
 20
123.4275007456849
 30
0.0
 40
0.2999999999999971
 50
270.0
 51
90.0
  0
ARC
  5
1A7B3
  8
SU
  6
CONTINUOUS
 62
     3
 10
-362.0301274354693
 20
123.4275007456849
 30
0.0
 40
0.2999999999999971
 50
90.0
 51
270.0
  0
ARC
  5
1A7B4
  8
SU
  6
CONTINUOUS
 62
     3
 10
-362.0301274354693
 20
103.42746822502259
 30
0.0
 40
0.2999999999999971
 50
90.0
 51
270.0
  0
ARC
  5
1A7B5
  8
SU
  6
CONTINUOUS
 62
     3
 10
-362.0301274354693
 20
103.42746822502259
 30
0.0
 40
0.2999999999999971
 50
270.0
 51
90.0
  0
ARC
  5
1A7B6
  8
SU
  6
CONTINUOUS
 62
     3
 10
-125.03012743546959
 20
-68.068653096843505
 30
0.0
 40
0.2999999999999971
 50
90.0
 51
270.0
  0
ARC
  5
1A7B7
  8
SU
  6
CONTINUOUS
 62
     3
 10
-125.03012743546959
 20
-68.068653096843505
 30
0.0
 40
0.2999999999999971
 50
270.0
 51
90.0
  0
ARC
  5
1A7B8
  8
SU
  6
CONTINUOUS
 62
     3
 10
-125.03012743546959
 20
-83.068655924727196
 30
0.0
 40
0.2999999999999971
 50
90.0
 51
270.0
  0
ARC
  5
1A7B9
  8
SU
  6
CONTINUOUS
 62
     3
 10
-125.03012743546959
 20
-83.068655924727196
 30
0.0
 40
0.2999999999999971
 50
270.0
 51
90.0
  0
ARC
  5
1A7BA
  8
SU
  6
CONTINUOUS
 62
     3
 10
-163.0301275581015
 20
-103.0686559247347
 30
0.0
 40
0.3000000000000114
 50
180.0
 51
0.0
  0
ARC
  5
1A7BB
  8
SU
  6
CONTINUOUS
 62
     3
 10
-163.0301275581015
 20
-103.0686559247347
 30
0.0
 40
0.3000000000000114
 50
0.0
 51
180.0
  0
ARC
  5
1A7BC
  8
SU
  6
CONTINUOUS
 62
     3
 10
-160.03012744459861
 20
-103.0686559247347
 30
0.0
 40
0.3000000000000114
 50
0.0
 51
180.0
  0
ARC
  5
1A7BD
  8
SU
  6
CONTINUOUS
 62
     3
 10
-160.03012744459861
 20
-103.0686559247347
 30
0.0
 40
0.3000000000000114
 50
180.0
 51
0.0
  0
ARC
  5
1A7BE
  8
SU
  6
CONTINUOUS
 62
     3
 10
-125.0301273219669
 20
-222.8960776698739
 30
0.0
 40
0.3000000000000114
 50
90.0
 51
270.0
  0
ARC
  5
1A7BF
  8
SU
  6
CONTINUOUS
 62
     3
 10
-125.0301273219669
 20
-222.8960776698739
 30
0.0
 40
0.3000000000000114
 50
270.0
 51
90.0
  0
ARC
  5
1A7C0
  8
SU
  6
CONTINUOUS
 62
     3
 10
-110.03012732196839
 20
-234.8960776698739
 30
0.0
 40
0.3000000000000114
 50
90.0
 51
270.0
  0
ARC
  5
1A7C1
  8
SU
  6
CONTINUOUS
 62
     3
 10
-110.03012732196839
 20
-234.8960776698739
 30
0.0
 40
0.3000000000000114
 50
270.0
 51
90.0
  0
ARC
  5
1A7C2
  8
SU
  6
CONTINUOUS
 62
     3
 10
-125.0301273219669
 20
-214.8960776698739
 30
0.0
 40
0.3000000000000114
 50
90.0
 51
270.0
  0
ARC
  5
1A7C3
  8
SU
  6
CONTINUOUS
 62
     3
 10
-125.0301273219669
 20
-214.8960776698739
 30
0.0
 40
0.3000000000000114
 50
270.0
 51
90.0
  0
ARC
  5
1A7C4
  8
SU
  6
CONTINUOUS
 62
     3
 10
-362.0301274354693
 20
-68.068653096843462
 30
0.0
 40
0.2999999999999971
 50
270.0
 51
90.0
  0
ARC
  5
1A7C5
  8
SU
  6
CONTINUOUS
 62
     3
 10
-362.0301274354693
 20
-68.068653096843462
 30
0.0
 40
0.2999999999999971
 50
90.0
 51
270.0
  0
ARC
  5
1A7C6
  8
SU
  6
CONTINUOUS
 62
     3
 10
-362.0301274354693
 20
-83.068655924727196
 30
0.0
 40
0.2999999999999971
 50
90.0
 51
270.0
  0
ARC
  5
1A7C7
  8
SU
  6
CONTINUOUS
 62
     3
 10
-362.0301274354693
 20
-83.068655924727196
 30
0.0
 40
0.2999999999999971
 50
270.0
 51
90.0
  0
ARC
  5
1A7C8
  8
SU
  6
CONTINUOUS
 62
     3
 10
-362.0301274354693
 20
-68.068653096843462
 30
0.0
 40
0.2999999999999971
 50
90.0
 51
270.0
  0
ARC
  5
1A7C9
  8
SU
  6
CONTINUOUS
 62
     3
 10
-362.0301274354693
 20
-68.068653096843462
 30
0.0
 40
0.2999999999999971
 50
270.0
 51
90.0
  0
ARC
  5
1A7CA
  8
SU
  6
CONTINUOUS
 62
     3
 10
-362.0301274354693
 20
-48.068653096843462
 30
0.0
 40
0.2999999999999971
 50
270.0
 51
90.0
  0
ARC
  5
1A7CB
  8
SU
  6
CONTINUOUS
 62
     3
 10
-362.0301274354693
 20
-48.068653096843462
 30
0.0
 40
0.2999999999999971
 50
90.0
 51
270.0
  0
ARC
  5
1A7CC
  8
SU
  6
CONTINUOUS
 62
     3
 10
-270.03012754897429
 20
-103.0686559247349
 30
0.0
 40
0.3000000000000114
 50
180.0
 51
0.0
  0
ARC
  5
1A7CD
  8
SU
  6
CONTINUOUS
 62
     3
 10
-270.03012754897429
 20
-103.0686559247349
 30
0.0
 40
0.3000000000000114
 50
0.0
 51
180.0
  0
ARC
  5
1A7CE
  8
SU
  6
CONTINUOUS
 62
     3
 10
-342.03012743547112
 20
-103.0686559247349
 30
0.0
 40
0.3000000000000114
 50
0.0
 51
180.0
  0
ARC
  5
1A7CF
  8
SU
  6
CONTINUOUS
 62
     3
 10
-342.03012743547112
 20
-103.0686559247349
 30
0.0
 40
0.3000000000000114
 50
180.0
 51
0.0
  0
ARC
  5
1A7D0
  8
SU
  6
CONTINUOUS
 62
     3
 10
-270.03012754897429
 20
-103.0686559247349
 30
0.0
 40
0.3000000000000114
 50
0.0
 51
180.0
  0
ARC
  5
1A7D1
  8
SU
  6
CONTINUOUS
 62
     3
 10
-270.03012754897429
 20
-103.0686559247349
 30
0.0
 40
0.3000000000000114
 50
180.0
 51
0.0
  0
ARC
  5
1A7D2
  8
SU
  6
CONTINUOUS
 62
     3
 10
-163.0301275581015
 20
-103.0686559247349
 30
0.0
 40
0.3000000000000114
 50
180.0
 51
0.0
  0
ARC
  5
1A7D3
  8
SU
  6
CONTINUOUS
 62
     3
 10
-163.0301275581015
 20
-103.0686559247349
 30
0.0
 40
0.3000000000000114
 50
0.0
 51
180.0
  0
ARC
  5
1A7D4
  8
SU
  6
CONTINUOUS
 62
     3
 10
-125.03012743546959
 20
-63.068653096843498
 30
0.0
 40
0.2999999999999971
 50
90.0
 51
270.0
  0
ARC
  5
1A7D5
  8
SU
  6
CONTINUOUS
 62
     3
 10
-125.03012743546959
 20
-63.068653096843498
 30
0.0
 40
0.2999999999999971
 50
270.0
 51
90.0
  0
ARC
  5
1A7D6
  8
SU
  6
CONTINUOUS
 62
     3
 10
-33.37578668100798
 20
50.464639022057682
 30
0.0
 40
0.2999999999999971
 50
270.0
 51
90.0
  0
ARC
  5
1A7D7
  8
SU
  6
CONTINUOUS
 62
     3
 10
-33.37578668100798
 20
50.464639022057682
 30
0.0
 40
0.2999999999999971
 50
90.0
 51
270.0
  0
ARC
  5
1A7D8
  8
SU
  6
CONTINUOUS
 62
     3
 10
-33.375786681007959
 20
62.964639022057682
 30
0.0
 40
0.2999999999999971
 50
270.0
 51
90.0
  0
ARC
  5
1A7D9
  8
SU
  6
CONTINUOUS
 62
     3
 10
-33.375786681007959
 20
62.964639022057682
 30
0.0
 40
0.2999999999999971
 50
90.0
 51
270.0
  0
ARC
  5
1A7DA
  8
SU
  6
CONTINUOUS
 62
     3
 10
-48.375786681007959
 20
62.964639022057682
 30
0.0
 40
0.2999999999999971
 50
90.0
 51
270.0
  0
ARC
  5
1A7DB
  8
SU
  6
CONTINUOUS
 62
     3
 10
-48.375786681007959
 20
62.964639022057682
 30
0.0
 40
0.2999999999999971
 50
270.0
 51
90.0
  0
ARC
  5
1A7DC
  8
SU
  6
CONTINUOUS
 62
     3
 10
-48.375786681007959
 20
76.96463902205771
 30
0.0
 40
0.2999999999999971
 50
270.0
 51
90.0
  0
ARC
  5
1A7DD
  8
SU
  6
CONTINUOUS
 62
     3
 10
-48.375786681007959
 20
76.96463902205771
 30
0.0
 40
0.2999999999999971
 50
90.0
 51
270.0
  0
ARC
  5
1A7DE
  8
SU
  6
CONTINUOUS
 62
     3
 10
-33.37578668100798
 20
-78.53536097794229
 30
0.0
 40
0.2999999999999971
 50
90.0
 51
270.0
  0
ARC
  5
1A7DF
  8
SU
  6
CONTINUOUS
 62
     3
 10
-33.37578668100798
 20
-78.53536097794229
 30
0.0
 40
0.2999999999999971
 50
270.0
 51
90.0
  0
ARC
  5
1A7E0
  8
SU
  6
CONTINUOUS
 62
     3
 10
-48.375786681007959
 20
-91.035360977942275
 30
0.0
 40
0.2999999999999971
 50
270.0
 51
90.0
  0
ARC
  5
1A7E1
  8
SU
  6
CONTINUOUS
 62
     3
 10
-48.375786681007959
 20
-91.035360977942275
 30
0.0
 40
0.2999999999999971
 50
90.0
 51
270.0
  0
ARC
  5
1A7E2
  8
SU
  6
CONTINUOUS
 62
     3
 10
-48.375786681007959
 20
-105.0353609779422
 30
0.0
 40
0.2999999999999971
 50
90.0
 51
270.0
  0
ARC
  5
1A7E3
  8
SU
  6
CONTINUOUS
 62
     3
 10
-48.375786681007959
 20
-105.0353609779422
 30
0.0
 40
0.2999999999999971
 50
270.0
 51
90.0
  0
ARC
  5
1A7E4
  8
SU
  6
CONTINUOUS
 62
     3
 10
-33.37578668100798
 20
-91.035360977942275
 30
0.0
 40
0.2999999999999971
 50
90.0
 51
270.0
  0
ARC
  5
1A7E5
  8
SU
  6
CONTINUOUS
 62
     3
 10
-33.37578668100798
 20
-91.035360977942275
 30
0.0
 40
0.2999999999999971
 50
270.0
 51
90.0
  0
ARC
  5
1A7E6
  8
SU
  6
CONTINUOUS
 62
     3
 10
-33.375786681008002
 20
-66.535360977942318
 30
0.0
 40
0.2999999999999971
 50
90.0
 51
270.0
  0
ARC
  5
1A7E7
  8
SU
  6
CONTINUOUS
 62
     3
 10
-33.375786681008002
 20
-66.535360977942318
 30
0.0
 40
0.2999999999999971
 50
270.0
 51
90.0
  0
ARC
  5
1A7E8
  8
SU
  6
CONTINUOUS
 62
     3
 10
-33.37578668100798
 20
38.464639022057689
 30
0.0
 40
0.2999999999999971
 50
270.0
 51
90.0
  0
ARC
  5
1A7E9
  8
SU
  6
CONTINUOUS
 62
     3
 10
-33.37578668100798
 20
38.464639022057689
 30
0.0
 40
0.2999999999999971
 50
90.0
 51
270.0
  0
ARC
  5
1A7EA
  8
SU
  6
CONTINUOUS
 62
     3
 10
-174.030127435471
 20
208.42750074569301
 30
0.0
 40
0.3000000000000114
 50
180.0
 51
0.0
  0
ARC
  5
1A7EB
  8
SU
  6
CONTINUOUS
 62
     3
 10
-174.030127435471
 20
208.42750074569301
 30
0.0
 40
0.3000000000000114
 50
0.0
 51
180.0
  0
ARC
  5
1A7EC
  8
SU
  6
CONTINUOUS
 62
     3
 10
-174.030127435471
 20
223.4275007456929
 30
0.0
 40
0.3000000000000114
 50
0.0
 51
180.0
  0
ARC
  5
1A7ED
  8
SU
  6
CONTINUOUS
 62
     3
 10
-174.030127435471
 20
223.4275007456929
 30
0.0
 40
0.3000000000000114
 50
180.0
 51
0.0
  0
ARC
  5
1A7EE
  8
SU
  6
CONTINUOUS
 62
     3
 10
-160.0301274354712
 20
223.4275007456929
 30
0.0
 40
0.3000000000000114
 50
180.0
 51
0.0
  0
ARC
  5
1A7EF
  8
SU
  6
CONTINUOUS
 62
     3
 10
-160.0301274354712
 20
223.4275007456929
 30
0.0
 40
0.3000000000000114
 50
0.0
 51
180.0
  0
ARC
  5
1A7F0
  8
SU
  6
CONTINUOUS
 62
     3
 10
-186.530127435471
 20
208.42750074569301
 30
0.0
 40
0.3000000000000114
 50
180.0
 51
0.0
  0
ARC
  5
1A7F1
  8
SU
  6
CONTINUOUS
 62
     3
 10
-186.530127435471
 20
208.42750074569301
 30
0.0
 40
0.3000000000000114
 50
0.0
 51
180.0
  0
ARC
  5
1A7F2
  8
SU
  6
CONTINUOUS
 62
     3
 10
-315.53012743547112
 20
208.42750074569301
 30
0.0
 40
0.3000000000000114
 50
0.0
 51
180.0
  0
ARC
  5
1A7F3
  8
SU
  6
CONTINUOUS
 62
     3
 10
-315.53012743547112
 20
208.42750074569301
 30
0.0
 40
0.3000000000000114
 50
180.0
 51
0.0
  0
ARC
  5
1A7F4
  8
SU
  6
CONTINUOUS
 62
     3
 10
263.62421578619012
 20
96.96463902205744
 30
0.0
 40
0.3000000000000114
 50
0.0
 51
180.0
  0
ARC
  5
1A7F5
  8
SU
  6
CONTINUOUS
 62
     3
 10
263.62421578619012
 20
96.96463902205744
 30
0.0
 40
0.3000000000000114
 50
180.0
 51
0.0
  0
ARC
  5
1A7F6
  8
SU
  6
CONTINUOUS
 62
     3
 10
287.62421578618989
 20
96.96463902205744
 30
0.0
 40
0.3000000000000114
 50
180.0
 51
0.0
  0
ARC
  5
1A7F7
  8
SU
  6
CONTINUOUS
 62
     3
 10
287.62421578618989
 20
96.96463902205744
 30
0.0
 40
0.3000000000000114
 50
0.0
 51
180.0
  0
ARC
  5
1A7F8
  8
SU
  6
CONTINUOUS
 62
     3
 10
61.624215786190391
 20
96.96463902205744
 30
0.0
 40
0.2999999999999971
 50
180.0
 51
0.0
  0
ARC
  5
1A7F9
  8
SU
  6
CONTINUOUS
 62
     3
 10
61.624215786190391
 20
96.96463902205744
 30
0.0
 40
0.2999999999999971
 50
0.0
 51
180.0
  0
ARC
  5
1A7FA
  8
SU
  6
CONTINUOUS
 62
     3
 10
37.624215786190291
 20
96.96463902205744
 30
0.0
 40
0.2999999999999971
 50
0.0
 51
180.0
  0
ARC
  5
1A7FB
  8
SU
  6
CONTINUOUS
 62
     3
 10
37.624215786190291
 20
96.96463902205744
 30
0.0
 40
0.2999999999999971
 50
180.0
 51
0.0
  0
ARC
  5
1A7FC
  8
SU
  6
CONTINUOUS
 62
     3
 10
-328.03012743547112
 20
208.42750074569301
 30
0.0
 40
0.3000000000000114
 50
0.0
 51
180.0
  0
ARC
  5
1A7FD
  8
SU
  6
CONTINUOUS
 62
     3
 10
-328.03012743547112
 20
208.42750074569301
 30
0.0
 40
0.3000000000000114
 50
180.0
 51
0.0
  0
ARC
  5
1A7FE
  8
SU
  6
CONTINUOUS
 62
     3
 10
-303.53012743547112
 20
208.42750074569301
 30
0.0
 40
0.3000000000000114
 50
0.0
 51
180.0
  0
ARC
  5
1A7FF
  8
SU
  6
CONTINUOUS
 62
     3
 10
-303.53012743547112
 20
208.42750074569301
 30
0.0
 40
0.3000000000000114
 50
180.0
 51
0.0
  0
ARC
  5
1A800
  8
SU
  6
CONTINUOUS
 62
     3
 10
-198.5301274354712
 20
208.42750074569301
 30
0.0
 40
0.3000000000000114
 50
180.0
 51
0.0
  0
ARC
  5
1A801
  8
SU
  6
CONTINUOUS
 62
     3
 10
-198.5301274354712
 20
208.42750074569301
 30
0.0
 40
0.3000000000000114
 50
0.0
 51
180.0
  0
ARC
  5
1A802
  8
SU
  6
CONTINUOUS
 62
     3
 10
-328.03012743547112
 20
223.4275007456929
 30
0.0
 40
0.3000000000000114
 50
180.0
 51
0.0
  0
ARC
  5
1A803
  8
SU
  6
CONTINUOUS
 62
     3
 10
-328.03012743547112
 20
223.4275007456929
 30
0.0
 40
0.3000000000000114
 50
0.0
 51
180.0
  0
ARC
  5
1A804
  8
SU
  6
CONTINUOUS
 62
     3
 10
-342.03012743547112
 20
223.4275007456929
 30
0.0
 40
0.3000000000000114
 50
0.0
 51
180.0
  0
ARC
  5
1A805
  8
SU
  6
CONTINUOUS
 62
     3
 10
-342.03012743547112
 20
223.4275007456929
 30
0.0
 40
0.3000000000000114
 50
180.0
 51
0.0
  0
ARC
  5
1A806
  8
SU
  6
CONTINUOUS
 62
     3
 10
-362.03012743547112
 20
147.42750074568511
 30
0.0
 40
0.3000000000000114
 50
270.0
 51
90.0
  0
ARC
  5
1A807
  8
SU
  6
CONTINUOUS
 62
     3
 10
-362.03012743547112
 20
147.42750074568511
 30
0.0
 40
0.3000000000000114
 50
90.0
 51
270.0
  0
ENDSEC
  0
EOF
