  0
SECTION
  2
HEADER
  9
$ACADVER
  1
AC1009
  9
$INSBASE
 10
0.0
 20
0.0
 30
0.0
  9
$EXTMIN
 10
19.300000000000001
 20
16.25
 30
0.0
  9
$EXTMAX
 10
1165.5
 20
830.74999999999989
 30
0.0
  9
$LIMMIN
 10
0.0
 20
0.0
  9
$LIMMAX
 10
1189.0
 20
841.0
  9
$ORTHOMODE
 70
     0
  9
$REGENMODE
 70
     1
  9
$FILLMODE
 70
     1
  9
$QTEXTMODE
 70
     0
  9
$MIRRTEXT
 70
     0
  9
$DRAGMODE
 70
     2
  9
$LTSCALE
 40
1.0
  9
$OSMODE
 70
  3071
  9
$ATTMODE
 70
     1
  9
$TEXTSIZE
 40
12.5
  9
$TRACEWID
 40
1.0
  9
$TEXTSTYLE
  7
STANDARD
  9
$CLAYER
  8
0
  9
$CELTYPE
  6
BYLAYER
  9
$CECOLOR
 62
   256
  9
$DIMSCALE
 40
1.0
  9
$DIMASZ
 40
7.0
  9
$DIMEXO
 40
1.0
  9
$DIMDLI
 40
7.0
  9
$DIMRND
 40
0.0
  9
$DIMDLE
 40
0.0
  9
$DIMEXE
 40
3.0
  9
$DIMTP
 40
0.1
  9
$DIMTM
 40
0.1
  9
$DIMTXT
 40
7.0
  9
$DIMCEN
 40
0.0
  9
$DIMTSZ
 40
0.0
  9
$DIMTOL
 70
     0
  9
$DIMLIM
 70
     0
  9
$DIMTIH
 70
     0
  9
$DIMTOH
 70
     0
  9
$DIMSE1
 70
     0
  9
$DIMSE2
 70
     0
  9
$DIMTAD
 70
     1
  9
$DIMZIN
 70
     8
  9
$DIMBLK
  1
DOTSMALL
  9
$DIMASO
 70
     1
  9
$DIMSHO
 70
     1
  9
$DIMPOST
  1

  9
$DIMAPOST
  1
"
  9
$DIMALT
 70
     0
  9
$DIMALTD
 70
     2
  9
$DIMALTF
 40
0.0393701
  9
$DIMLFAC
 40
1.0
  9
$DIMTOFL
 70
     1
  9
$DIMTVP
 40
0.0
  9
$DIMTIX
 70
     0
  9
$DIMSOXD
 70
     0
  9
$DIMSAH
 70
     0
  9
$DIMBLK1
  1

  9
$DIMBLK2
  1

  9
$DIMSTYLE
  2
SANKYO
  9
$DIMCLRD
 70
   256
  9
$DIMCLRE
 70
   256
  9
$DIMCLRT
 70
   256
  9
$DIMTFAC
 40
0.71
  9
$DIMGAP
 40
1.3
  9
$LUNITS
 70
     2
  9
$LUPREC
 70
     4
  9
$SKETCHINC
 40
1.0
  9
$FILLETRAD
 40
0.4
  9
$AUNITS
 70
     0
  9
$AUPREC
 70
     0
  9
$MENU
  1
.
  9
$ELEVATION
 40
0.0
  9
$PELEVATION
 40
0.0
  9
$THICKNESS
 40
0.0
  9
$LIMCHECK
 70
     0
  9
$BLIPMODE
 70
     0
  9
$CHAMFERA
 40
10.0
  9
$CHAMFERB
 40
10.0
  9
$SKPOLY
 70
     0
  9
$TDCREATE
 40
2455110.561913426
  9
$TDUPDATE
 40
2459033.562406308
  9
$TDINDWG
 40
2.0599421296
  9
$TDUSRTIMER
 40
2.0597464814999999
  9
$USRTIMER
 70
     1
  9
$ANGBASE
 50
0.0
  9
$ANGDIR
 70
     0
  9
$PDMODE
 70
     0
  9
$PDSIZE
 40
0.0
  9
$PLINEWID
 40
0.0
  9
$COORDS
 70
     2
  9
$SPLFRAME
 70
     0
  9
$SPLINETYPE
 70
     6
  9
$SPLINESEGS
 70
     8
  9
$ATTDIA
 70
     1
  9
$ATTREQ
 70
     1
  9
$HANDLING
 70
     1
  9
$HANDSEED
  5
1E784
  9
$SURFTAB1
 70
     6
  9
$SURFTAB2
 70
     6
  9
$SURFTYPE
 70
     6
  9
$SURFU
 70
     6
  9
$SURFV
 70
     6
  9
$UCSNAME
  2

  9
$UCSORG
 10
0.0
 20
0.0
 30
0.0
  9
$UCSXDIR
 10
1.0
 20
0.0
 30
0.0
  9
$UCSYDIR
 10
0.0
 20
1.0
 30
0.0
  9
$PUCSNAME
  2

  9
$PUCSORG
 10
0.0
 20
0.0
 30
0.0
  9
$PUCSXDIR
 10
1.0
 20
0.0
 30
0.0
  9
$PUCSYDIR
 10
0.0
 20
1.0
 30
0.0
  9
$USERI1
 70
     0
  9
$USERI2
 70
     0
  9
$USERI3
 70
     0
  9
$USERI4
 70
     0
  9
$USERI5
 70
     0
  9
$USERR1
 40
0.0
  9
$USERR2
 40
0.0
  9
$USERR3
 40
0.0
  9
$USERR4
 40
0.0
  9
$USERR5
 40
0.0
  9
$WORLDVIEW
 70
     1
  9
$SHADEDGE
 70
     3
  9
$SHADEDIF
 70
    70
  9
$TILEMODE
 70
     1
  9
$MAXACTVP
 70
    48
  9
$PLIMCHECK
 70
     0
  9
$PEXTMIN
 10
1.0000000000000000E+020
 20
1.0000000000000000E+020
 30
1.0000000000000000E+020
  9
$PEXTMAX
 10
-1.0000000000000000E+020
 20
-1.0000000000000000E+020
 30
-1.0000000000000000E+020
  9
$PLIMMIN
 10
0.0
 20
0.0
  9
$PLIMMAX
 10
420.0
 20
297.0
  9
$UNITMODE
 70
     0
  9
$VISRETAIN
 70
     1
  9
$PLINEGEN
 70
     0
  9
$PSLTSCALE
 70
     1
  0
ENDSEC
  0
SECTION
  2
TABLES
  0
TABLE
  2
VPORT
 70
     1
  0
VPORT
  2
*ACTIVE
 70
     0
 10
0.0
 20
0.0
 11
1.0
 21
1.0
 12
592.41359224346638
 22
423.48359113394218
 13
0.0
 23
0.0
 14
2.5
 24
2.5
 15
10.0
 25
10.0
 16
0.0
 26
0.0
 36
1.0
 17
0.0
 27
0.0
 37
0.0
 40
820.92390940123255
 41
2.050913838120104
 42
50.0
 43
0.0
 44
0.0
 50
0.0
 51
0.0
 71
     0
 72
   100
 73
     1
 74
     1
 75
     0
 76
     0
 77
     0
 78
     0
  0
ENDTAB
  0
TABLE
  2
LTYPE
 70
    21
  0
LTYPE
  2
CONTINUOUS
 70
     0
  3
Solid line
 72
    65
 73
     0
 40
0.0
  0
LTYPE
  2
CENTER
 70
     0
  3
Center ____ _ ____ _ ____ _ ____ _ ____ _ ____
 72
    65
 73
     4
 40
50.799999999999997
 49
31.75
 49
-6.3499999999999988
 49
6.3499999999999988
 49
-6.3499999999999988
  0
LTYPE
  2
PHANTOM2
 70
     0
  3
Phantom (.5x) ___ _ _ ___ _ _ ___ _ _ ___ _ _
 72
    65
 73
     6
 40
31.75
 49
15.875
 49
-3.1749999999999989
 49
3.1749999999999989
 49
-3.1749999999999989
 49
3.1749999999999989
 49
-3.1749999999999989
  0
LTYPE
  2
AM_ISO02W050
 70
     0
  3
__ __ __ __ __ __ __ __ __ __ __ __ __ __ __
 72
    65
 73
     2
 40
7.5
 49
6.0
 49
-1.5
  0
LTYPE
  2
AMCONSTR
 70
     0
  3
_______________________
 72
    65
 73
     2
 40
9999.0
 49
9999.0
 49
0.0
  0
LTYPE
  2
AMZIGZAG
 70
     0
  3
/\/-/\/-/\/-/\/-/\/-/\/
 72
    65
 73
     2
 40
11.0001
 49
0.0001
 49
-11.0
  0
LTYPE
  2
ACISOWELD
 70
     0
  3
_ _ _ _ _
 72
    65
 73
     2
 40
2.0
 49
2.0
 49
-1.0
  0
LTYPE
  2
ACISOTGB
 70
     0
  3
__ . . __ . .
 72
    65
 73
     6
 40
9.0
 49
4.0
 49
-1.0
 49
1.0
 49
-1.0
 49
1.0
 49
-1.0
  0
LTYPE
  2
ACISOTGL
 70
     0
  3
_ _ _ _ _
 72
    65
 73
     2
 40
3.0
 49
2.0
 49
-1.0
  0
LTYPE
  2
HIDDEN
 70
     0
  3
Hidden __ __ __ __ __ __ __ __ __ __ __ __ __ _
 72
    65
 73
     2
 40
9.5249999999999986
 49
6.3499999999999988
 49
-3.1749999999999989
  0
LTYPE
  2
AM_ISO08W050
 70
     0
  3
____ . ____ . ____ . ____ . ____ . ____ . ____
 72
    65
 73
     4
 40
18.0
 49
12.0
 49
-1.5
 49
3.0
 49
-1.5
  0
LTYPE
  2
AM_ISO09W050
 70
     0
  3
_____ . . _____ . . _____ . . ____ .. ____
 72
    65
 73
     6
 40
22.5
 49
12.0
 49
-1.5
 49
3.0
 49
-1.5
 49
3.0
 49
-1.5
  0
LTYPE
  2
AM_ISO08W050X2
 70
     0
  3
__ . __ . __ . __ . __ . __
 72
    65
 73
     4
 40
9.0
 49
6.0
 49
-0.75
 49
1.5
 49
-0.75
  0
LTYPE
  2
AM_ISO02W050X2
 70
     0
  3
 _ _ _ _ _ _ _ _ _ _ _ _
 72
    65
 73
     2
 40
3.75
 49
3.0
 49
-0.75
  0
LTYPE
  2
CENTER2
 70
     0
  3
Center (.5x) ___ _ ___ _ ___ _ ___ _ ___ _ ___
 72
    65
 73
     4
 40
28.574999999999999
 49
19.050000000000001
 49
-3.1749999999999989
 49
3.1749999999999989
 49
-3.1749999999999989
  0
LTYPE
  2
DASHED2
 70
     0
  3
Dashed (.5x) _ _ _ _ _ _ _ _ _ _ _ _ _ _ _ _ _
 72
    65
 73
     2
 40
9.5249999999999986
 49
6.3499999999999988
 49
-3.1749999999999989
  0
LTYPE
  2
DDM
 70
     0
  3
中点線
 72
    65
 73
     2
 40
3.0
 49
2.0
 49
-1.0
  0
LTYPE
  2
DD2
 70
     0
  3
二点鎖線
 72
    65
 73
     6
 40
12.0
 49
6.0
 49
-1.1999999999999991
 49
1.1999999999999991
 49
-1.1999999999999991
 49
1.1999999999999991
 49
-1.1999999999999991
  0
LTYPE
  2
HIDDEN2
 70
     0
  3
Hidden (.5x) _ _ _ _ _ _ _ _ _ _ _ _ _ _ _ _ _
 72
    65
 73
     2
 40
0.1875
 49
0.125
 49
-0.0625
  0
LTYPE
  2
ACANSTGB
 70
     0
  3
__ . . __ . .
 72
    65
 73
     6
 40
0.35433070866
 49
0.15748031496
 49
-0.03937007874
 49
0.03937007874
 49
-0.03937007874
 49
0.03937007874
 49
-0.03937007874
  0
LTYPE
  2
ACANSTGL
 70
     0
  3
_ _ _ _ _
 72
    65
 73
     2
 40
0.11811023622
 49
0.07874015748
 49
-0.03937007874
  0
ENDTAB
  0
TABLE
  2
LAYER
 70
    11
  0
LAYER
  2
0
 70
     0
 62
     7
  6
CONTINUOUS
  0
LAYER
  2
KI1
 70
     0
 62
     7
  6
CONTINUOUS
  0
LAYER
  2
SU
 70
     0
 62
     3
  6
CONTINUOUS
  0
LAYER
  2
MJ
 70
     0
 62
     2
  6
CONTINUOUS
  0
LAYER
  2
OS
 70
     0
 62
     2
  6
CONTINUOUS
  0
LAYER
  2
KI2
 70
     0
 62
     4
  6
CONTINUOUS
  0
LAYER
  2
PH
 70
     0
 62
     6
  6
PHANTOM2
  0
LAYER
  2
WK
 70
     4
 62
     7
  6
CONTINUOUS
  0
LAYER
  2
DEFPOINTS
 70
     1
 62
    -7
  6
CONTINUOUS
  0
LAYER
  2
TS
 70
     0
 62
     6
  6
DASHED2
  0
LAYER
  2
CL
 70
     0
 62
     4
  6
CENTER2
  0
ENDTAB
  0
TABLE
  2
STYLE
 70
     6
  0
STYLE
  2
STANDARD
 70
     0
 40
0.0
 41
0.8299999999999999
 50
0.0
 71
     0
 42
12.5
  3
romans.shx
  4
extfont.shx
  0
STYLE
  2

 70
     1
 40
0.0
 41
1.0
 50
0.0
 71
     0
 42
2.5
  3
ltypeshp.shx
  4

  0
STYLE
  2
ACISOGDT
 70
     0
 40
0.0
 41
1.0
 50
0.0
 71
     0
 42
2.5
  3
amgdt.shx
  4

  0
STYLE
  2
ACANSGDT
 70
     0
 40
0.0
 41
1.0
 50
0.0
 71
     0
 42
12.5
  3
amgdt.shx
  4

  0
STYLE
  2
SIMPLEX
 70
     0
 40
0.0
 41
1.0
 50
0.0
 71
     0
 42
3.5
  3
simplex.shx
  4
extfont2.shx
  0
STYLE
  2
ACISOTS
 70
     0
 40
1.0
 41
1.0
 50
0.0
 71
     0
 42
12.5
  3
isocp.shx
  4
extfont.shx
  0
ENDTAB
  0
TABLE
  2
VIEW
 70
     6
  0
VIEW
  2
AM_VIEW1
 70
     0
 40
297.5
 10
-194.33547008547001
 20
148.25
 41
457.32905982905982
 11
0.0
 21
0.0
 31
1.0
 12
0.0
 22
0.0
 32
0.0
 42
50.0
 43
0.0
 44
0.0
 50
0.0
 71
     0
  0
VIEW
  2
AM_VIEW2
 70
     0
 40
297.5
 10
189.33547008547001
 20
148.25
 41
457.32905982905982
 11
0.0
 21
0.0
 31
1.0
 12
0.0
 22
0.0
 32
0.0
 42
50.0
 43
0.0
 44
0.0
 50
0.0
 71
     0
  0
VIEW
  2
AM_VIEW3
 70
     0
 40
297.5
 10
-194.33547008547001
 20
-149.25
 41
457.32905982905982
 11
0.0
 21
0.0
 31
1.0
 12
0.0
 22
0.0
 32
0.0
 42
50.0
 43
0.0
 44
0.0
 50
0.0
 71
     0
  0
VIEW
  2
AM_VIEW4
 70
     0
 40
297.5
 10
189.33547008547001
 20
-149.25
 41
457.32905982905982
 11
0.0
 21
0.0
 31
1.0
 12
0.0
 22
0.0
 32
0.0
 42
50.0
 43
0.0
 44
0.0
 50
0.0
 71
     0
  0
VIEW
  2
AM_VIEW5
 70
     0
 40
297.5
 10
-2.5
 20
-0.5
 41
457.32905982905982
 11
0.0
 21
0.0
 31
1.0
 12
0.0
 22
0.0
 32
0.0
 42
50.0
 43
0.0
 44
0.0
 50
0.0
 71
     0
  0
VIEW
  2
AM_VIEW6
 70
     0
 40
594.99405000000002
 10
-2.5
 20
-0.5
 41
914.6489730769232
 11
0.0
 21
0.0
 31
1.0
 12
0.0
 22
0.0
 32
0.0
 42
50.0
 43
0.0
 44
0.0
 50
0.0
 71
     0
  0
ENDTAB
  0
TABLE
  2
UCS
 70
     0
  0
ENDTAB
  0
TABLE
  2
APPID
 70
    50
  0
APPID
  2
ACAD
 70
     0
  0
APPID
  2
MCAD_NO_VIS
 70
     0
  0
APPID
  2
ACAD_TEMP_GRAPHIC
 70
     0
  0
APPID
  2
ACATTRIBSERVICES
 70
     0
  0
APPID
  2
GENIUS_GENDIMSH_14
 70
     0
  0
APPID
  2
GENIUS_GENODEF_13
 70
     0
  0
APPID
  2
GENIUS_GENOENT_13
 70
     0
  0
APPID
  2
GENIUS_GENOBJ-N-TIT_13
 70
     0
  0
APPID
  2
GENIUS_GENOLIS_13
 70
     0
  0
APPID
  2
GENIUS_GENTITLE_13
 70
     0
  0
APPID
  2
GENIUS_GENOREF_13
 70
     0
  0
APPID
  2
GENIUS_GENSCREG_15
 70
     0
  0
APPID
  2
GENIUS_GENOBJ-N-SDF_13
 70
     0
  0
APPID
  2
GENIUS_GENOBJ-N-REV_13
 70
     0
  0
APPID
  2
GENIUS_GENOBJ-N-RSSYM_13
 70
     0
  0
APPID
  2
GENIUS_GENSYMENT_13
 70
     0
  0
APPID
  2
GENIUS_GENSCSYM_13
 70
     0
  0
APPID
  2
GENIUS_GENOBJ-N-CEN_13
 70
     0
  0
APPID
  2
GENIUS_GENOBJ-N-FIL_13
 70
     0
  0
APPID
  2
GENIUS_GENBH_13
 70
     0
  0
APPID
  2
GENIUS_GENOBJ-NBEHI-BHF_13
 70
     0
  0
APPID
  2
GENIUS_GENFIL_13
 70
     0
  0
APPID
  2
GENIUS_GENOBJ-N-CHA_13
 70
     0
  0
APPID
  2
GENIUS_GENOBJ-NBEHI-BHB_13
 70
     0
  0
APPID
  2
GENIUS_GENOBJ-N-CRS_13
 70
     0
  0
APPID
  2
GENIUS_GENDTOL_13
 70
     0
  0
APPID
  2
AD_DRAW
 70
     0
  0
APPID
  2
DESIGNERASSEMBLIES
 70
     0
  0
APPID
  2
ACADM_DIM_EDIT
 70
     0
  0
APPID
  2
AMDT_DM_ADJ
 70
     0
  0
APPID
  2
ACAD_PSEXT
 70
     0
  0
APPID
  2
ACAECLAYERSTANDARD
 70
     0
  0
APPID
  2
DCO15
 70
     0
  0
APPID
  2
GENIUS_GENOBJ-N-HTC_13
 70
     0
  0
APPID
  2
GENIUS_GENHATCH_13
 70
     0
  0
APPID
  2
ACAD_NAV_VCDISPLAY
 70
     0
  0
APPID
  2
ACAD_DSTYLE_DIMARC_LENGTH_
 70
     0
  0
APPID
  2
GENIUS_GENREC_14
 70
     0
  0
APPID
  2
GENIUS_GENOBJ-N-REC_13
 70
     0
  0
APPID
  2
GENIUS_GENCEN_19
 70
     0
  0
APPID
  2
ACAD_DSTYLE_DIMBREAK
 70
     0
  0
APPID
  2
ACAD_DSTYLE_DIMJAG
 70
     0
  0
APPID
  2
ACAD_DSTYLE_DIMINSPECT
 70
     0
  0
APPID
  2
ACAD_EXEMPT_FROM_CAD_STANDARDS
 70
     0
  0
APPID
  2
ACADANNOMONITORALERTICONDI
 70
     0
  0
APPID
  2
ACAD_MLEADERVER
 70
     0
  0
APPID
  2
ACAD_DSTYLE_DIM_LINETYPE
 70
     0
  0
APPID
  2
ACAD_DSTYLE_DIM_EXT1_LINETYPE
 70
     0
  0
APPID
  2
ACAD_DSTYLE_DIM_EXT2_LINETYPE
 70
     0
  0
APPID
  2
CONTENTBLOCKICON
 70
     0
  0
ENDTAB
  0
TABLE
  2
DIMSTYLE
 70
    11
  0
DIMSTYLE
  2
SANKYO
 70
     0
  3

  4
"
  5
DOTSMALL
  6

  7

 40
1.0
 41
7.0
 42
1.0
 43
7.0
 44
3.0
 45
0.0
 46
0.0
 47
0.1
 48
0.1
140
7.0
141
0.0
142
0.0
143
0.0393701
144
1.0
145
0.0
146
0.71
147
1.3
 71
     0
 72
     0
 73
     0
 74
     0
 75
     0
 76
     0
 77
     1
 78
     8
170
     0
171
     2
172
     1
173
     0
174
     0
175
     0
176
   256
177
   256
178
   256
  0
DIMSTYLE
  2
AM_ISO
 70
     0
  3

  4
"
  5

  6

  7

 40
1.0
 41
1.6000000000000001
 42
1.0
 43
7.0
 44
1.0
 45
0.0
 46
0.0
 47
0.1
 48
0.1
140
2.5
141
0.0
142
0.0
143
0.0393701
144
1.0
145
0.0
146
0.71
147
0.625
 71
     0
 72
     0
 73
     0
 74
     0
 75
     0
 76
     0
 77
     1
 78
     8
170
     0
171
     2
172
     1
173
     0
174
     0
175
     0
176
   256
177
   256
178
   256
  0
DIMSTYLE
  2
AM_ISO$3
 70
     0
  3

  4
"
  5

  6

  7

 40
1.0
 41
1.6000000000000001
 42
1.0
 43
7.0
 44
1.0
 45
0.0
 46
0.0
 47
0.1
 48
0.1
140
2.5
141
0.0
142
0.0
143
0.0393701
144
1.0
145
0.0
146
0.71
147
0.625
 71
     0
 72
     0
 73
     0
 74
     0
 75
     0
 76
     0
 77
     1
 78
     8
170
     0
171
     2
172
     1
173
     0
174
     0
175
     0
176
   256
177
   256
178
   256
  0
DIMSTYLE
  2
AM_ISO$4
 70
     0
  3

  4
"
  5

  6

  7

 40
1.0
 41
1.6000000000000001
 42
1.0
 43
7.0
 44
1.0
 45
0.0
 46
0.0
 47
0.1
 48
0.1
140
2.5
141
0.0
142
0.0
143
0.0393701
144
1.0
145
0.0
146
0.71
147
0.625
 71
     0
 72
     0
 73
     0
 74
     0
 75
     0
 76
     0
 77
     1
 78
     8
170
     0
171
     2
172
     1
173
     0
174
     0
175
     0
176
   256
177
   256
178
   256
  0
DIMSTYLE
  2
AM_ISO$6
 70
     0
  3

  4
"
  5

  6

  7

 40
1.0
 41
1.6000000000000001
 42
1.0
 43
7.0
 44
1.0
 45
0.0
 46
0.0
 47
0.1
 48
0.1
140
2.5
141
0.0
142
0.0
143
0.0393701
144
1.0
145
0.0
146
0.71
147
0.625
 71
     0
 72
     0
 73
     0
 74
     0
 75
     0
 76
     0
 77
     0
 78
     8
170
     0
171
     2
172
     1
173
     0
174
     0
175
     0
176
   256
177
   256
178
   256
  0
DIMSTYLE
  2
AM_ISO$7
 70
     0
  3

  4
"
  5

  6

  7

 40
1.0
 41
1.6000000000000001
 42
1.0
 43
7.0
 44
1.0
 45
0.0
 46
0.0
 47
0.1
 48
0.1
140
2.5
141
0.0
142
0.0
143
0.0393701
144
1.0
145
0.0
146
0.71
147
0.625
 71
     0
 72
     0
 73
     0
 74
     0
 75
     0
 76
     0
 77
     1
 78
     8
170
     0
171
     2
172
     1
173
     0
174
     0
175
     0
176
   256
177
   256
178
   256
  0
DIMSTYLE
  2
AM_ISO$SF
 70
     0
  3

  4
"
  5

  6

  7

 40
1.0
 41
2.5
 42
1.0
 43
10.0
 44
1.0
 45
0.0
 46
0.0
 47
0.1
 48
0.1
140
3.5
141
0.0
142
0.0
143
0.0393701
144
1.0
145
0.0
146
0.71
147
1.5
 71
     0
 72
     0
 73
     0
 74
     0
 75
     1
 76
     1
 77
     1
 78
     8
170
     0
171
     2
172
     1
173
     0
174
     0
175
     0
176
   256
177
   256
178
     2
  0
DIMSTYLE
  2
AM_ISO$SH
 70
     0
  3

  4
"
  5

  6
GENAXEH
  7

 40
1.0
 41
2.5
 42
1.0
 43
10.0
 44
1.0
 45
0.0
 46
0.0
 47
0.1
 48
0.1
140
3.5
141
0.0
142
0.0
143
0.0393701
144
2.0
145
0.0
146
0.71
147
1.5
 71
     0
 72
     0
 73
     0
 74
     0
 75
     1
 76
     1
 77
     1
 78
     8
170
     0
171
     2
172
     1
173
     1
174
     0
175
     0
176
   256
177
   256
178
     2
  0
DIMSTYLE
  2
AM_ISO$2
 70
     0
  3

  4
"
  5

  6

  7

 40
1.0
 41
1.6000000000000001
 42
1.0
 43
7.0
 44
1.0
 45
0.0
 46
0.0
 47
0.1
 48
0.1
140
2.5
141
0.0
142
0.0
143
0.0393701
144
1.0
145
0.0
146
0.71
147
0.625
 71
     0
 72
     0
 73
     0
 74
     0
 75
     0
 76
     0
 77
     1
 78
     8
170
     0
171
     2
172
     1
173
     0
174
     0
175
     0
176
   256
177
   256
178
   256
  0
DIMSTYLE
  2
AM_ISO$0
 70
     0
  3

  4
"
  5

  6

  7

 40
1.0
 41
1.6000000000000001
 42
1.0
 43
7.0
 44
1.0
 45
0.0
 46
0.0
 47
0.1
 48
0.1
140
2.5
141
0.0
142
0.0
143
0.0393701
144
1.0
145
0.0
146
0.71
147
0.625
 71
     0
 72
     0
 73
     0
 74
     0
 75
     0
 76
     0
 77
     1
 78
     8
170
     0
171
     2
172
     1
173
     0
174
     0
175
     0
176
   256
177
   256
178
   256
  0
DIMSTYLE
  2
SANKYO$0
 70
     0
  3

  4
"
  5
DOTSMALL
  6

  7

 40
1.0
 41
7.0
 42
1.0
 43
7.0
 44
3.0
 45
0.0
 46
0.0
 47
0.1
 48
0.1
140
7.0
141
0.0
142
0.0
143
0.0393701
144
1.0
145
0.0
146
0.71
147
1.3
 71
     0
 72
     0
 73
     0
 74
     0
 75
     0
 76
     0
 77
     1
 78
     8
170
     0
171
     2
172
     1
173
     0
174
     0
175
     0
176
   256
177
   256
178
   256
  0
ENDTAB
  0
ENDSEC
  0
SECTION
  2
BLOCKS
  0
BLOCK
  8
0
  2
$MODEL_SPACE
 70
     0
 10
0.0
 20
0.0
 30
0.0
  3
$MODEL_SPACE
  1

  0
ENDBLK
  5
1A
  8
0
  0
BLOCK
 67
     1
  8
0
  2
$PAPER_SPACE
 70
     0
 10
0.0
 20
0.0
 30
0.0
  3
$PAPER_SPACE
  1

  0
ENDBLK
  5
17
 67
     1
  8
0
  0
BLOCK
  8
0
  2
GENAXEH
 70
     0
 10
0.0
 20
0.0
 30
0.0
  3
GENAXEH
  1

  0
LINE
  5
102
  8
0
 10
-1.0
 20
0.0
 30
0.0
 11
1.0
 21
0.0
 31
0.0
  0
ENDBLK
  5
104
  8
0
  0
BLOCK
  8
0
  2
_OPEN
 70
     0
 10
0.0
 20
0.0
 30
0.0
  3
_OPEN
  1

  0
LINE
  5
30B
  8
0
  6
BYBLOCK
 62
     0
 10
-1.0
 20
0.1666666666666666
 30
0.0
 11
0.0
 21
0.0
 31
0.0
  0
LINE
  5
30C
  8
0
  6
BYBLOCK
 62
     0
 10
-1.0
 20
-0.1666666666666666
 30
0.0
 11
0.0
 21
0.0
 31
0.0
  0
LINE
  5
30D
  8
0
  6
BYBLOCK
 62
     0
 10
0.0
 20
0.0
 30
0.0
 11
-1.0
 21
0.0
 31
0.0
  0
ENDBLK
  5
30F
  8
0
  0
BLOCK
  8
0
  2
_DOTSMALL
 70
     0
 10
0.0
 20
0.0
 30
0.0
  3
_DOTSMALL
  1

  0
POLYLINE
  5
A331
  8
0
  6
BYBLOCK
 62
     0
 66
     1
 10
0.0
 20
0.0
 30
0.0
 70
     1
 40
0.5
 41
0.5
  0
VERTEX
  5
1E76B
  8
0
  6
BYBLOCK
 62
     0
 10
-0.0625
 20
0.0
 30
0.0
 42
1.0
  0
VERTEX
  5
1E76C
  8
0
  6
BYBLOCK
 62
     0
 10
0.0625
 20
0.0
 30
0.0
 42
1.0
  0
SEQEND
  5
1E76D
  8
0
  6
BYBLOCK
 62
     0
  0
ENDBLK
  5
A333
  8
0
  0
ENDSEC
  0
SECTION
  2
ENTITIES
  0
LINE
  5
9B1A
  8
WK
 10
23.5
 20
16.25
 30
0.0
 11
1165.5
 21
16.25
 31
0.0
  0
LINE
  5
9B1C
  8
WK
 10
23.5
 20
824.75
 30
0.0
 11
23.5
 21
16.25
 31
0.0
  0
TEXT
  5
9BE2
  8
WK
 10
22.5
 20
16.25
 30
0.0
 40
3.2000000000000002
  1
A0
 50
90.0
 41
0.8299999999999999
  0
LINE
  5
9C31
  8
WK
 10
1085.5
 20
34.25
 30
0.0
 11
1085.5
 21
16.25
 31
0.0
  0
LINE
  5
9C32
  8
WK
 10
890.49999999999989
 20
34.25
 30
0.0
 11
890.49999999999989
 21
16.25
 31
0.0
  0
LINE
  5
9C34
  8
WK
 10
1045.5
 20
34.25
 30
0.0
 11
1045.5
 21
16.25
 31
0.0
  0
LINE
  5
9C35
  8
WK
 10
1065.5
 20
34.25
 30
0.0
 11
1065.5
 21
16.25
 31
0.0
  0
LINE
  5
9C37
  8
WK
 10
1005.5
 20
34.25
 30
0.0
 11
1005.5
 21
16.25
 31
0.0
  0
LINE
  5
9C38
  8
WK
 10
985.5
 20
34.25
 30
0.0
 11
985.5
 21
16.25
 31
0.0
  0
LINE
  5
9C3A
  8
WK
 10
890.49999999999989
 20
34.25
 30
0.0
 11
1165.5
 21
34.25
 31
0.0
  0
LINE
  5
9C3B
  8
WK
 10
899.5
 20
26.25
 30
0.0
 11
972.49999999999989
 21
26.25
 31
0.0
  0
LINE
  5
9C3E
  8
WK
 10
1005.5
 20
22.25
 30
0.0
 11
1045.5
 21
22.25
 31
0.0
  0
LINE
  5
9C3F
  8
WK
 10
1005.5
 20
28.25
 30
0.0
 11
1045.5
 21
28.25
 31
0.0
  0
LINE
  5
9C46
  8
WK
 10
1151.8094750193111
 20
25.25
 30
0.0
 11
1163.8094750193111
 21
25.25
 31
0.0
  0
CIRCLE
  5
9C47
  8
WK
 10
1157.8094750193111
 20
25.25
 30
0.0
 40
6.0
  0
TEXT
  5
9C56
  8
WK
 10
992.52780952380954
 20
20.649999643948512
 30
0.0
 40
3.2000000000000002
  1
1:1
 41
0.8299999999999999
 72
     4
 11
995.5
 21
22.249999643948509
 31
0.0
  0
TEXT
  5
9C57
  8
WK
 10
1087.8031333333331
 20
30.150000000000009
 30
0.0
 40
3.2000000000000002
  1
図番
 41
0.8299999999999999
  0
TEXT
  5
9C58
  8
WK
 10
1067.9290000000001
 20
30.150000000000009
 30
0.0
 40
3.2000000000000002
  1
検図
 41
0.8299999999999999
  0
TEXT
  5
9C59
  8
WK
 10
1047.9290000000001
 20
30.150000000000009
 30
0.0
 40
3.2000000000000002
  1
作図
 41
0.8299999999999999
  0
TEXT
  5
9C5A
  8
WK
 10
1006.5535725057121
 20
29.149999999999999
 30
0.0
 40
3.2000000000000002
  1
作成
 41
0.8299999999999999
  0
TEXT
  5
9C5B
  8
WK
 10
1006.5535725057121
 20
23.149999999999999
 30
0.0
 40
3.2000000000000002
  1
制定
 41
0.8299999999999999
  0
TEXT
  5
9C5C
  8
WK
 10
1006.5535725057121
 20
17.149999999999999
 30
0.0
 40
3.2000000000000002
  1
廃止
 41
0.8299999999999999
  0
TEXT
  5
9C5D
  8
WK
 10
986.42899999999997
 20
30.149999999999999
 30
0.0
 40
3.2000000000000002
  1
尺度
 41
0.8299999999999999
  0
TEXT
  5
9C5E
  8
WK
 10
973.49999999999989
 20
18.25
 30
0.0
 40
4.0
  1
基準図
 41
0.8
  0
TEXT
  5
9C77
  8
WK
 10
892.30313333333345
 20
30.150000000000009
 30
0.0
 40
3.2000000000000002
  1
図名
 41
0.8299999999999999
  0
LINE
  5
9E0D
  8
WK
 10
23.5
 20
824.75
 30
0.0
 11
1165.5
 21
824.75
 31
0.0
  0
LINE
  5
9E18
  8
WK
 10
1165.5
 20
824.75
 30
0.0
 11
1165.5
 21
16.25
 31
0.0
  0
TEXT
  5
12887
  8
WK
 10
1130.0726417273511
 20
826.75
 30
0.0
 40
4.0
  1
大栄建材株式会社
 41
0.9
 72
     2
 11
1163.672641727351
 21
826.75
 31
0.0
  0
TEXT
  5
1DDAE
  8
MJ
 10
1005.5
 20
42.25
 30
0.0
 40
7.0
  1
cl13a001
 41
0.8299999999999999
  0
TEXT
  5
1DDAF
  8
MJ
 10
1005.5
 20
69.25
 30
0.0
 40
7.0
  1
クレーヴァ35
 41
0.8299999999999999
  0
TEXT
  5
1DDB0
  8
MJ
 10
1005.5
 20
60.25
 30
0.0
 40
7.0
  1
折戸
 41
0.8299999999999999
  0
TEXT
  5
1DDB1
  8
MJ
 10
1005.5
 20
78.25
 30
0.0
 40
7.0
  1
スーパースクリーン　クレーヴァ
 41
0.8299999999999999
  0
TEXT
  5
1DDB2
  8
MJ
 10
1005.5
 20
51.25
 30
0.0
 40
7.0
  1
たて横断面
 41
0.8299999999999999
  0
TEXT
  5
1DDB3
  8
MJ
 10
482.527729920144
 20
684.77139286328293
 30
0.0
 40
10.0
  1
折戸（1折）
 41
0.84552428
  0
TEXT
  5
1DDBA
  8
MJ
 10
482.527729920144
 20
384.77139286328293
 30
0.0
 40
10.0
  1
折戸（2折）
 41
0.84552428
  0
TEXT
  5
1DDEC
  8
MJ
 10
492.52772992014388
 20
664.77139286328293
 30
0.0
 40
10.0
  1
クロス納まり
 41
0.8299999999999999
 11
492.52772992014388
 21
669.77139286328293
 31
0.0
 73
     2
  0
TEXT
  5
1DDED
  8
MJ
 10
492.52772992014388
 20
364.77139286328293
 30
0.0
 40
10.0
  1
造作材納まり
 41
0.8299999999999999
 11
492.52772992014388
 21
369.77139286328293
 31
0.0
 73
     2
  0
LINE
  5
1DE18
  8
KI1
 10
219.93887718176549
 20
269.8015056355444
 30
0.0
 11
219.93887718176549
 21
420.05150563554417
 31
0.0
  0
LINE
  5
1DE19
  8
KI1
 10
219.93887718176549
 20
422.05150563554417
 30
0.0
 11
219.93887718176549
 21
572.30150563554434
 31
0.0
  0
LINE
  5
1DE1A
  8
KI1
 10
252.93887718176549
 20
269.8015056355444
 30
0.0
 11
219.93887718176549
 21
269.8015056355444
 31
0.0
  0
LINE
  5
1DE1B
  8
KI1
 10
252.93887718176549
 20
572.30150563554434
 30
0.0
 11
252.93887718176549
 21
422.05150563554417
 31
0.0
  0
LINE
  5
1DE1C
  8
KI1
 10
252.93887718176549
 20
420.05150563554417
 30
0.0
 11
252.93887718176549
 21
269.8015056355444
 31
0.0
  0
LINE
  5
1DE1D
  8
KI1
 10
219.93887718176549
 20
572.30150563554434
 30
0.0
 11
252.93887718176549
 21
572.30150563554434
 31
0.0
  0
LINE
  5
1DE1E
  8
OS
 10
189.9388771816071
 20
242.8015056355444
 30
0.0
 11
223.93887718176549
 21
242.8015056355444
 31
0.0
  0
LINE
  5
1DE1F
  8
OS
 10
189.9388771816071
 20
245.80150563554429
 30
0.0
 11
223.93887718176549
 21
245.80150563554429
 31
0.0
  0
LINE
  5
1DE20
  8
OS
 10
189.9388771816071
 20
248.80150563554429
 30
0.0
 11
223.93887718176549
 21
248.80150563554429
 31
0.0
  0
LINE
  5
1DE21
  8
OS
 10
189.9388771816071
 20
251.80150563554429
 30
0.0
 11
223.93887718176549
 21
251.80150563554429
 31
0.0
  0
LINE
  5
1DE22
  8
OS
 10
278.0809210549404
 20
239.80150563554429
 30
0.0
 11
189.9388771816071
 21
239.80150563554429
 31
0.0
  0
LINE
  5
1DE23
  8
OS
 10
248.93887718176549
 20
248.80150563554429
 30
0.0
 11
278.08092105494029
 21
248.80150563554429
 31
0.0
  0
LINE
  5
1DE24
  8
OS
 10
248.93887718176549
 20
245.80150563554429
 30
0.0
 11
278.08092105494029
 21
245.80150563554429
 31
0.0
  0
LINE
  5
1DE25
  8
OS
 10
248.93887718176549
 20
242.8015056355444
 30
0.0
 11
278.08092105494029
 21
242.8015056355444
 31
0.0
  0
LINE
  5
1DE26
  8
OS
 10
248.93887718176549
 20
251.80150563554429
 30
0.0
 11
278.08092105494029
 21
251.80150563554429
 31
0.0
  0
LINE
  5
1DE28
  8
OS
 10
189.9388771816071
 20
601.8015056355448
 30
0.0
 11
278.0809210549404
 21
601.80150563554378
 31
0.0
  0
ARC
  5
1DE2F
  8
KI2
 10
245.43887718176521
 20
583.80150534641643
 30
0.0
 40
3.0
 50
180.0
 51
0.0
  0
ARC
  5
1DE30
  8
KI2
 10
227.43887718176521
 20
583.80150534641643
 30
0.0
 40
3.0
 50
180.0
 51
0.0
  0
LINE
  5
1DE31
  8
KI2
 10
241.43887718176521
 20
594.30150534641643
 30
0.0
 11
241.43887718176521
 21
578.30150534641677
 31
0.0
  0
LINE
  5
1DE32
  8
KI2
 10
231.43887718176569
 20
578.30150534641677
 30
0.0
 11
231.43887718176569
 21
594.30150534641643
 31
0.0
  0
LINE
  5
1DE33
  8
KI2
 10
241.43887718176521
 20
578.30150534641677
 30
0.0
 11
231.43887718176569
 21
578.30150534641677
 31
0.0
  0
LINE
  5
1DE34
  8
KI2
 10
232.9388771817656
 20
578.30150534641677
 30
0.0
 11
232.9388771817656
 21
572.30150534641689
 31
0.0
  0
LINE
  5
1DE35
  8
KI2
 10
239.93887718176521
 20
578.30150534641677
 30
0.0
 11
239.93887718176521
 21
572.30150534641689
 31
0.0
  0
LINE
  5
1DE36
  8
KI2
 10
231.43887718176569
 20
594.30150534641643
 30
0.0
 11
241.43887718176521
 21
594.30150534641643
 31
0.0
  0
LINE
  5
1DE37
  8
KI2
 10
231.43887718176569
 20
585.30150534641859
 30
0.0
 11
230.43887718176521
 21
585.30150534641859
 31
0.0
  0
LINE
  5
1DE38
  8
KI2
 10
230.43887718176521
 20
594.30150534641643
 30
0.0
 11
231.43887718176569
 21
594.30150534641643
 31
0.0
  0
LINE
  5
1DE39
  8
KI2
 10
230.43887718176521
 20
583.80150534641643
 30
0.0
 11
230.43887718176521
 21
595.80150534641643
 31
0.0
  0
ARC
  5
1DE3A
  8
KI2
 10
227.43887718176521
 20
595.80150534641643
 30
0.0
 40
3.0
 50
0.0
 51
180.0
  0
LINE
  5
1DE3B
  8
KI2
 10
224.43887718176521
 20
595.80150534641643
 30
0.0
 11
224.43887718176521
 21
583.80150534641643
 31
0.0
  0
LINE
  5
1DE3C
  8
KI2
 10
242.43887718176521
 20
585.30150534641859
 30
0.0
 11
241.43887718176521
 21
585.30150534641859
 31
0.0
  0
LINE
  5
1DE3D
  8
KI2
 10
241.43887718176521
 20
594.30150534641643
 30
0.0
 11
242.43887718176521
 21
594.30150534641643
 31
0.0
  0
LINE
  5
1DE3E
  8
KI2
 10
242.43887718176521
 20
595.80150534641643
 30
0.0
 11
242.43887718176521
 21
583.80150534641643
 31
0.0
  0
LINE
  5
1DE3F
  8
KI2
 10
248.43887718176521
 20
583.80150534641643
 30
0.0
 11
248.43887718176521
 21
595.80150534641643
 31
0.0
  0
ARC
  5
1DE40
  8
KI2
 10
245.43887718176521
 20
595.80150534641643
 30
0.0
 40
3.0
 50
0.0
 51
180.0
  0
LINE
  5
1DE41
  8
KI1
 10
232.93887718160781
 20
600.80150505729
 30
0.0
 11
223.43887718160829
 21
600.80150505729
 31
0.0
  0
LINE
  5
1DE42
  8
KI1
 10
230.33887718160841
 20
599.30150505729011
 30
0.0
 11
225.43887718160781
 21
599.30150505729011
 31
0.0
  0
LINE
  5
1DE43
  8
KI1
 10
222.93887718160829
 20
579.30150505729102
 30
0.0
 11
229.93887718160789
 21
579.30150505729102
 31
0.0
  0
ARC
  5
1DE44
  8
KI1
 10
227.83887718160841
 20
585.80150505729011
 30
0.0
 40
4.9999999999993401
 50
220.00775391348429
 51
301.89079180185308
  0
LINE
  5
1DE45
  8
KI1
 10
223.43887718160829
 20
600.80150505729
 30
0.0
 11
223.43887718160829
 21
601.30150505729102
 31
0.0
  0
ARC
  5
1DE46
  8
KI1
 10
222.93887718160781
 20
601.30150505729102
 30
0.0
 40
0.5000000000000142
 50
0.0
 51
180.0
  0
LINE
  5
1DE47
  8
KI1
 10
223.93887718160781
 20
597.80150505729011
 30
0.0
 11
223.93887718160869
 21
582.77991607134356
 31
0.0
  0
ARC
  5
1DE48
  8
KI1
 10
222.93887718160829
 20
579.80150505729
 30
0.0
 40
0.5000000000000142
 50
180.0
 51
270.0
  0
ARC
  5
1DE49
  8
KI1
 10
224.2388771816089
 20
582.77991607134356
 30
0.0
 40
0.299999999999983
 50
180.0
 51
220.0077539135271
  0
LINE
  5
1DE4A
  8
KI1
 10
222.43887718160829
 20
601.30150505729102
 30
0.0
 11
222.43887718160781
 21
579.80150505729
 31
0.0
  0
ARC
  5
1DE4B
  8
KI1
 10
225.43887718160781
 20
597.80150505729011
 30
0.0
 40
1.5
 50
90.0
 51
180.0
  0
LINE
  5
1DE4C
  8
KI1
 10
247.43887718160829
 20
599.30150505729011
 30
0.0
 11
242.5388771816082
 21
599.30150505729011
 31
0.0
  0
LINE
  5
1DE4D
  8
KI1
 10
249.43887718160781
 20
600.80150505729
 30
0.0
 11
239.93887718160829
 21
600.80150505729
 31
0.0
  0
ARC
  5
1DE4E
  8
KI1
 10
239.43887718160781
 20
601.30150505729102
 30
0.0
 40
0.5000000000000142
 50
0.0
 51
180.0
  0
LINE
  5
1DE4F
  8
KI1
 10
238.93887718160781
 20
600.80150505729
 30
0.0
 11
238.93887718160781
 21
601.30150505729102
 31
0.0
  0
LINE
  5
1DE50
  8
KI1
 10
239.93887718160829
 20
600.80150505729
 30
0.0
 11
239.93887718160829
 21
601.30150505729102
 31
0.0
  0
ARC
  5
1DE51
  8
KI1
 10
240.23887718160799
 20
599.00150505729084
 30
0.0
 40
0.2999999999998976
 50
0.0
 51
90.0
  0
LINE
  5
1DE52
  8
KI1
 10
236.43887718160781
 20
599.60150505729109
 30
0.0
 11
236.7388771816085
 21
599.30150505729011
 31
0.0
  0
LINE
  5
1DE53
  8
KI1
 10
236.13887718160811
 20
599.30150505729011
 30
0.0
 11
232.63887718160811
 21
599.30150505729011
 31
0.0
  0
LINE
  5
1DE54
  8
KI1
 10
233.93887718160829
 20
601.30150505729102
 30
0.0
 11
233.93887718160829
 21
600.80150505729
 31
0.0
  0
LINE
  5
1DE55
  8
KI1
 10
232.93887718160781
 20
601.30150505729102
 30
0.0
 11
232.93887718160781
 21
600.80150505729
 31
0.0
  0
ARC
  5
1DE56
  8
KI1
 10
232.63887718160811
 20
599.00150505729084
 30
0.0
 40
0.2999999999997271
 50
90.0
 51
180.0
  0
ARC
  5
1DE57
  8
KI1
 10
233.43887718160781
 20
601.30150505729102
 30
0.0
 40
0.5000000000000142
 50
0.0
 51
180.0
  0
LINE
  5
1DE58
  8
KI1
 10
236.13887718160811
 20
599.30150505729011
 30
0.0
 11
236.43887718160781
 21
599.60150505729109
 31
0.0
  0
LINE
  5
1DE59
  8
KI1
 10
238.93887718160781
 20
600.80150505729
 30
0.0
 11
233.93887718160829
 21
600.80150505729
 31
0.0
  0
LINE
  5
1DE5A
  8
KI1
 10
240.23887718160799
 20
599.30150505729011
 30
0.0
 11
236.7388771816085
 21
599.30150505729011
 31
0.0
  0
LINE
  5
1DE5B
  8
KI1
 10
249.43887718160781
 20
600.80150505729
 30
0.0
 11
249.43887718160781
 21
601.30150505729102
 31
0.0
  0
ARC
  5
1DE5C
  8
KI1
 10
249.93887718160781
 20
601.30150505729102
 30
0.0
 40
0.5000000000000142
 50
0.0
 51
180.0
  0
LINE
  5
1DE5D
  8
KI1
 10
248.93887718160869
 20
582.77991607134277
 30
0.0
 11
248.93887718160829
 21
597.80150505729011
 31
0.0
  0
LINE
  5
1DE5E
  8
KI1
 10
242.93887718160829
 20
579.30150505729102
 30
0.0
 11
249.93887718160829
 21
579.30150505729102
 31
0.0
  0
ARC
  5
1DE5F
  8
KI1
 10
229.93887718160789
 20
580.30150505729102
 30
0.0
 40
0.999999999999858
 50
270.0
 51
0.0
  0
ARC
  5
1DE60
  8
KI1
 10
230.63887718160811
 20
581.30150505729011
 30
0.0
 40
0.3000000000000255
 50
0.0
 51
121.8907918014838
  0
ARC
  5
1DE61
  8
KI1
 10
242.93887718160829
 20
580.30150505729102
 30
0.0
 40
0.9999999999999857
 50
180.0
 51
270.0
  0
ARC
  5
1DE62
  8
KI1
 10
245.03887718160769
 20
585.80150505729011
 30
0.0
 40
4.9999999999985487
 50
238.10920819814689
 51
319.99224608651571
  0
LINE
  5
1DE63
  8
KI1
 10
241.93887718160781
 20
581.30150505729011
 30
0.0
 11
241.93887718160781
 21
580.30150505729102
 31
0.0
  0
ARC
  5
1DE64
  8
KI1
 10
242.23887718160799
 20
581.30150505729011
 30
0.0
 40
0.3000000000014133
 50
58.109208198173143
 51
180.0
  0
LINE
  5
1DE65
  8
KI1
 10
230.93887718160829
 20
581.30150505729011
 30
0.0
 11
230.93887718160829
 21
580.30150505729102
 31
0.0
  0
ARC
  5
1DE66
  8
KI1
 10
248.63887718160851
 20
582.77991607134277
 30
0.0
 40
0.2999999999997082
 50
319.9922460866004
 51
0.0
  0
LINE
  5
1DE67
  8
KI1
 10
241.5388771816082
 20
597.30150505729102
 30
0.0
 11
241.5388771816082
 21
598.30150505729102
 31
0.0
  0
LINE
  5
1DE68
  8
KI1
 10
240.5388771816078
 20
597.30150505729102
 30
0.0
 11
241.5388771816082
 21
597.30150505729102
 31
0.0
  0
LINE
  5
1DE69
  8
KI1
 10
231.33887718160841
 20
597.30150505729102
 30
0.0
 11
232.33887718160841
 21
597.30150505729102
 31
0.0
  0
LINE
  5
1DE6A
  8
KI1
 10
231.33887718160841
 20
598.30150505729102
 30
0.0
 11
231.33887718160841
 21
597.30150505729102
 31
0.0
  0
ARC
  5
1DE6B
  8
KI1
 10
249.93887718160829
 20
579.80150505729
 30
0.0
 40
0.5000000000000142
 50
270.0
 51
0.0
  0
LINE
  5
1DE6C
  8
KI1
 10
250.43887718160829
 20
579.80150505729
 30
0.0
 11
250.43887718160829
 21
601.30150505729102
 31
0.0
  0
ARC
  5
1DE6D
  8
KI1
 10
230.33887718160841
 20
598.30150505729102
 30
0.0
 40
1.000000000000028
 50
0.0
 51
90.0
  0
ARC
  5
1DE6E
  8
KI1
 10
242.5388771816082
 20
598.30150505729102
 30
0.0
 40
0.9999999999999431
 50
90.0
 51
180.0
  0
LINE
  5
1DE6F
  8
KI1
 10
240.5388771816078
 20
599.00150505729084
 30
0.0
 11
240.5388771816078
 21
597.30150505729102
 31
0.0
  0
LINE
  5
1DE70
  8
KI1
 10
232.33887718160841
 20
597.30150505729102
 30
0.0
 11
232.33887718160841
 21
599.00150505729084
 31
0.0
  0
ARC
  5
1DE71
  8
KI1
 10
247.43887718160829
 20
597.80150505729011
 30
0.0
 40
1.5
 50
0.0
 51
90.0
  0
LINE
  5
1DE76
  8
OS
 10
502.027729920127
 20
533.9491870731722
 30
0.0
 11
502.02772992011069
 21
631.44918110136109
 31
0.0
  0
LINE
  5
1DE77
  8
OS
 10
492.527729920144
 20
631.44918110136109
 30
0.0
 11
492.527729920127
 21
533.94918707316651
 31
0.0
  0
LINE
  5
1DE78
  8
OS
 10
506.02772992012689
 20
631.44918110136109
 30
0.0
 11
506.02772992012711
 21
533.94918707317447
 31
0.0
  0
LINE
  5
1DE79
  8
KI2
 10
793.02773388499816
 20
583.64918567711368
 30
0.0
 11
793.02773388499816
 21
582.94918567711363
 31
0.0
  0
LINE
  5
1DE7A
  8
KI2
 10
799.02772992016253
 20
583.64918567711368
 30
0.0
 11
793.02773388499816
 21
583.64918567711368
 31
0.0
  0
LINE
  5
1DE7B
  8
KI2
 10
799.02772992016253
 20
582.94918567711363
 30
0.0
 11
793.02773388499816
 21
582.94918567711363
 31
0.0
  0
LINE
  5
1DE7C
  8
KI2
 10
793.02772856632475
 20
567.94918567711341
 30
0.0
 11
793.02772839709428
 21
567.24918567711347
 31
0.0
  0
LINE
  5
1DE7D
  8
KI2
 10
793.02772839709428
 20
567.24918567711347
 30
0.0
 11
799.0277291948878
 21
567.2491842265639
 31
0.0
  0
LINE
  5
1DE7E
  8
KI2
 10
793.02772856632475
 20
567.94918567711341
 30
0.0
 11
799.0277293641185
 21
567.94918422656394
 31
0.0
  0
LINE
  5
1DE7F
  8
KI2
 10
802.02772992016253
 20
570.24918422656378
 30
0.0
 11
802.02772992016253
 21
580.64918567711356
 31
0.0
  0
LINE
  5
1DE80
  8
KI2
 10
801.32772992016248
 20
570.24918422656378
 30
0.0
 11
801.32772992016248
 21
580.64918567711356
 31
0.0
  0
ARC
  5
1DE81
  8
KI2
 10
799.02772992016253
 20
580.64918567711356
 30
0.0
 40
3.0
 50
0.0
 51
90.0
1001
GENIUS_GENODEF_13
1002
{
1000
HIER
1070
     0
1002
}
1002
{
1000
MANEDIT
1070
     0
1002
}
1002
{
1000
NOSEL
1070
     0
1002
}
1002
{
1000
BEHIND
1070
     0
1002
}
1002
{
1000
OTHER
1070
     0
1002
}
1002
{
1000
REACTOR
1002
}
1001
GENIUS_GENOBJ-N-FIL_13
1002
{
1000
OWNER
1000
GEN
1002
}
  0
ARC
  5
1DE82
  8
KI2
 10
799.02772992016253
 20
580.64918567711356
 30
0.0
 40
2.2999999999999989
 50
0.0
 51
90.0
1001
GENIUS_GENODEF_13
1002
{
1000
HIER
1070
     0
1002
}
1002
{
1000
MANEDIT
1070
     0
1002
}
1002
{
1000
NOSEL
1070
     0
1002
}
1002
{
1000
BEHIND
1070
     0
1002
}
1002
{
1000
OTHER
1070
     0
1002
}
1002
{
1000
REACTOR
1002
}
1001
GENIUS_GENOBJ-N-FIL_13
1002
{
1000
OWNER
1000
GEN
1002
}
  0
ARC
  5
1DE83
  8
KI2
 10
799.02772992016253
 20
570.24918422656378
 30
0.0
 40
3.0
 50
269.99998614827302
 51
0.0
1001
GENIUS_GENODEF_13
1002
{
1000
HIER
1070
     0
1002
}
1002
{
1000
MANEDIT
1070
     0
1002
}
1002
{
1000
NOSEL
1070
     0
1002
}
1002
{
1000
BEHIND
1070
     0
1002
}
1002
{
1000
OTHER
1070
     0
1002
}
1002
{
1000
REACTOR
1002
}
1001
GENIUS_GENOBJ-N-FIL_13
1002
{
1000
OWNER
1000
GEN
1002
}
  0
ARC
  5
1DE84
  8
KI2
 10
799.02772992016253
 20
570.24918422656378
 30
0.0
 40
2.2999999999999989
 50
269.99998614827302
 51
0.0
1001
GENIUS_GENODEF_13
1002
{
1000
HIER
1070
     0
1002
}
1002
{
1000
MANEDIT
1070
     0
1002
}
1002
{
1000
NOSEL
1070
     0
1002
}
1002
{
1000
BEHIND
1070
     0
1002
}
1002
{
1000
OTHER
1070
     0
1002
}
1002
{
1000
REACTOR
1002
}
1001
GENIUS_GENOBJ-N-FIL_13
1002
{
1000
OWNER
1000
GEN
1002
}
  0
LINE
  5
1DE85
  8
OS
 10
802.02772992015844
 20
533.9491870731722
 30
0.0
 11
802.02772992017435
 21
631.44918110136109
 31
0.0
  0
LINE
  5
1DE86
  8
OS
 10
811.52772992014116
 20
631.44918110136109
 30
0.0
 11
811.52772992015855
 21
533.94918707316651
 31
0.0
  0
LINE
  5
1DE87
  8
OS
 10
798.02772992015798
 20
631.44918110136109
 30
0.0
 11
798.02772992015844
 21
533.94918707317447
 31
0.0
  0
LINE
  5
1DE8D
  8
SU
 10
796.39058458031093
 20
624.46379982925566
 30
0.0
 11
798.33362779497793
 21
621.19612358061386
 31
0.0
  0
LINE
  5
1DE8E
  8
SU
 10
795.43582705181461
 20
623.65699250295052
 30
0.0
 11
798.33362779497793
 21
621.19612358061386
 31
0.0
  0
LINE
  5
1DE8F
  8
SU
 10
798.33362779497793
 20
621.19612358061386
 30
0.0
 11
795.91320581606283
 21
624.06039616610315
 31
0.0
  0
LINE
  5
1DE90
  8
SU
 10
795.91320581606283
 20
624.06039616610315
 30
0.0
 11
788.77033028260485
 21
632.51311339899416
 31
0.0
1001
ACAD
1000
DSTYLE
1002
{
1070
   176
1070
     4
1070
    40
1040
2.5
1070
    41
1040
1.5
1070
    77
1070
     0
1070
   371
1070
    13
1002
}
  0
LINE
  5
1DEB3
  8
KI1
 10
511.02772992014491
 20
591.94918707316583
 30
0.0
 11
579.02260629795865
 21
591.94918707316583
 31
0.0
  0
LINE
  5
1DEB4
  8
KI1
 10
581.02260629795865
 20
591.94918707316583
 30
0.0
 11
650.02772992014513
 21
591.94918707316583
 31
0.0
  0
LINE
  5
1DEB5
  8
KI1
 10
650.02772992014513
 20
591.94918707316583
 30
0.0
 11
650.02772992014513
 21
567.94918707316583
 31
0.0
  0
LINE
  5
1DEB6
  8
KI1
 10
650.02772992014513
 20
567.94918707316583
 30
0.0
 11
634.52772992014525
 21
567.94918707316583
 31
0.0
  0
LINE
  5
1DEB7
  8
KI1
 10
634.52772992014525
 20
567.94918707316583
 30
0.0
 11
625.52772992014525
 21
558.94918707316583
 31
0.0
  0
LINE
  5
1DEB8
  8
KI1
 10
625.52772992014525
 20
558.94918707316583
 30
0.0
 11
581.02260629795865
 21
558.94918707316583
 31
0.0
  0
LINE
  5
1DEB9
  8
KI1
 10
578.96584769138087
 20
558.94918707316583
 30
0.0
 11
511.02772992014411
 21
558.94918707316583
 31
0.0
  0
LINE
  5
1DEBA
  8
KI1
 10
511.02772992014411
 20
558.94918707316583
 30
0.0
 11
511.02772992014411
 21
591.94918707316583
 31
0.0
  0
LINE
  5
1DEBB
  8
KI1
 10
793.02772992014445
 20
591.94918707316583
 30
0.0
 11
725.03285354232673
 21
591.94918707316583
 31
0.0
  0
LINE
  5
1DEBC
  8
KI1
 10
723.03285354232673
 20
591.94918707316583
 30
0.0
 11
654.02772992014411
 21
591.94918707316583
 31
0.0
  0
LINE
  5
1DEBD
  8
KI1
 10
654.02772992014411
 20
591.94918707316583
 30
0.0
 11
654.02772992014411
 21
567.94918707316583
 31
0.0
  0
LINE
  5
1DEBE
  8
KI1
 10
654.02772992014411
 20
567.94918707316583
 30
0.0
 11
669.52772992014411
 21
567.94918707316583
 31
0.0
  0
LINE
  5
1DEBF
  8
KI1
 10
669.52772992014411
 20
567.94918707316583
 30
0.0
 11
678.52772992014411
 21
558.94918707316583
 31
0.0
  0
LINE
  5
1DEC0
  8
KI1
 10
678.52772992014411
 20
558.94918707316583
 30
0.0
 11
723.03285354232673
 21
558.94918707316583
 31
0.0
  0
LINE
  5
1DEC1
  8
KI1
 10
725.03285354232673
 20
558.94918707316583
 30
0.0
 11
793.02772992014525
 21
558.94918707316583
 31
0.0
  0
LINE
  5
1DEC2
  8
KI1
 10
793.02772992014525
 20
558.94918707316583
 30
0.0
 11
793.02772992014525
 21
591.94918707316583
 31
0.0
  0
LINE
  5
1DEC3
  8
KI2
 10
511.02772595528683
 20
583.64918567711311
 30
0.0
 11
511.02772595528683
 21
582.94918567711318
 31
0.0
  0
LINE
  5
1DEC4
  8
KI2
 10
505.02772992012251
 20
583.64918567711311
 30
0.0
 11
511.02772595528683
 21
583.64918567711311
 31
0.0
  0
LINE
  5
1DEC5
  8
KI2
 10
505.02772992012251
 20
582.94918567711318
 30
0.0
 11
511.02772595528683
 21
582.94918567711318
 31
0.0
  0
LINE
  5
1DEC6
  8
KI2
 10
511.02773127396028
 20
567.94918567711295
 30
0.0
 11
511.02773144319082
 21
567.24918567711313
 31
0.0
  0
LINE
  5
1DEC7
  8
KI2
 10
511.02773144319082
 20
567.24918567711313
 30
0.0
 11
505.0277306453973
 21
567.24918422656344
 31
0.0
  0
LINE
  5
1DEC8
  8
KI2
 10
511.02773127396028
 20
567.94918567711295
 30
0.0
 11
505.02773047616648
 21
567.94918422656337
 31
0.0
  0
LINE
  5
1DEC9
  8
KI2
 10
502.02772992012262
 20
570.24918422656344
 30
0.0
 11
502.02772992012262
 21
580.64918567711322
 31
0.0
  0
LINE
  5
1DECA
  8
KI2
 10
502.72772992012273
 20
570.24918422656344
 30
0.0
 11
502.72772992012273
 21
580.64918567711322
 31
0.0
  0
ARC
  5
1DECB
  8
KI2
 10
505.02772992012251
 20
580.64918567711322
 30
0.0
 40
3.0
 50
90.0
 51
180.0
1001
GENIUS_GENODEF_13
1002
{
1000
HIER
1070
     0
1002
}
1002
{
1000
MANEDIT
1070
     0
1002
}
1002
{
1000
NOSEL
1070
     0
1002
}
1002
{
1000
BEHIND
1070
     0
1002
}
1002
{
1000
OTHER
1070
     0
1002
}
1002
{
1000
REACTOR
1002
}
1001
GENIUS_GENOBJ-N-FIL_13
1002
{
1000
OWNER
1000
GEN
1002
}
  0
ARC
  5
1DECC
  8
KI2
 10
505.02772992012251
 20
580.64918567711322
 30
0.0
 40
2.2999999999999989
 50
90.0
 51
180.0
1001
GENIUS_GENODEF_13
1002
{
1000
HIER
1070
     0
1002
}
1002
{
1000
MANEDIT
1070
     0
1002
}
1002
{
1000
NOSEL
1070
     0
1002
}
1002
{
1000
BEHIND
1070
     0
1002
}
1002
{
1000
OTHER
1070
     0
1002
}
1002
{
1000
REACTOR
1002
}
1001
GENIUS_GENOBJ-N-FIL_13
1002
{
1000
OWNER
1000
GEN
1002
}
  0
ARC
  5
1DECD
  8
KI2
 10
505.02772992012251
 20
570.24918422656344
 30
0.0
 40
3.0
 50
180.0
 51
270.00001385172698
1001
GENIUS_GENODEF_13
1002
{
1000
HIER
1070
     0
1002
}
1002
{
1000
MANEDIT
1070
     0
1002
}
1002
{
1000
NOSEL
1070
     0
1002
}
1002
{
1000
BEHIND
1070
     0
1002
}
1002
{
1000
OTHER
1070
     0
1002
}
1002
{
1000
REACTOR
1002
}
1001
GENIUS_GENOBJ-N-FIL_13
1002
{
1000
OWNER
1000
GEN
1002
}
  0
ARC
  5
1DECE
  8
KI2
 10
505.02772992012251
 20
570.24918422656344
 30
0.0
 40
2.2999999999999989
 50
180.0
 51
270.00001385172698
1001
GENIUS_GENODEF_13
1002
{
1000
HIER
1070
     0
1002
}
1002
{
1000
MANEDIT
1070
     0
1002
}
1002
{
1000
NOSEL
1070
     0
1002
}
1002
{
1000
BEHIND
1070
     0
1002
}
1002
{
1000
OTHER
1070
     0
1002
}
1002
{
1000
REACTOR
1002
}
1001
GENIUS_GENOBJ-N-FIL_13
1002
{
1000
OWNER
1000
GEN
1002
}
  0
LINE
  5
1DECF
  8
SU
 10
507.66487525997451
 20
624.46379982925566
 30
0.0
 11
505.72183204530751
 21
621.19612358061386
 31
0.0
  0
LINE
  5
1DED0
  8
SU
 10
508.61963278847082
 20
623.65699250295052
 30
0.0
 11
505.72183204530751
 21
621.19612358061386
 31
0.0
  0
LINE
  5
1DED1
  8
SU
 10
505.72183204530751
 20
621.19612358061386
 30
0.0
 11
508.14225402422261
 21
624.06039616610315
 31
0.0
  0
LINE
  5
1DED2
  8
SU
 10
508.14225402422261
 20
624.06039616610315
 30
0.0
 11
515.28512955768065
 21
632.51311339899416
 31
0.0
1001
ACAD
1000
DSTYLE
1002
{
1070
   176
1070
     4
1070
    40
1040
2.5
1070
    41
1040
1.5
1070
    77
1070
     0
1070
   371
1070
    13
1002
}
  0
TEXT
  5
1DED3
  8
SU
 10
517.1422572456346
 20
633.8274843675398
 30
0.0
 40
8.0
  1
巾木
 41
0.9
  0
LINE
  5
1DED4
  8
KI2
 10
506.027729920127
 20
595.44918707664328
 30
0.0
 11
578.86362274094677
 21
595.44918707664328
 31
0.0
  0
LINE
  5
1DED5
  8
KI2
 10
506.027729920127
 20
555.44918706968838
 30
0.0
 11
578.96584769138087
 21
555.44918706968826
 31
0.0
  0
LINE
  5
1DED6
  8
KI2
 10
581.02260629795865
 20
595.44918707664328
 30
0.0
 11
723.03285354232673
 21
595.44918707664328
 31
0.0
  0
LINE
  5
1DED7
  8
KI2
 10
581.02260629795865
 20
555.44918706968826
 30
0.0
 11
723.03285354232673
 21
555.44918706968826
 31
0.0
  0
LINE
  5
1DED8
  8
KI2
 10
725.03285354232685
 20
595.44918707664328
 30
0.0
 11
798.02772992015832
 21
595.44918707664328
 31
0.0
  0
LINE
  5
1DED9
  8
KI2
 10
725.03285354232685
 20
555.44918706968826
 30
0.0
 11
798.02772992015844
 21
555.44918706968826
 31
0.0
  0
LINE
  5
1DEDB
  8
KI1
 10
255.2399694264839
 20
251.80150563554369
 30
0.0
 11
256.43887718176529
 21
251.80150563554369
 31
0.0
  0
LINE
  5
1DEDC
  8
KI1
 10
256.43887718176529
 20
252.30151563554449
 30
0.0
 11
256.43887718176529
 21
251.80150563554369
 31
0.0
  0
LINE
  5
1DEDD
  8
OS
 10
248.93887718176549
 20
251.80150563554429
 30
0.0
 11
248.93887718176549
 21
239.80150563554429
 31
0.0
  0
LINE
  5
1DEDE
  8
KI1
 10
243.18887718176549
 20
251.80150563554369
 30
0.0
 11
243.18887718176549
 21
250.80150563554389
 31
0.0
  0
LINE
  5
1DEDF
  8
KI1
 10
244.43887718176509
 20
254.401505635544
 30
0.0
 11
243.43887718176549
 21
253.30150563554369
 31
0.0
  0
LINE
  5
1DEE0
  8
KI1
 10
246.4388571817656
 20
251.80150563554369
 30
0.0
 11
243.18887718176549
 21
251.80150563554369
 31
0.0
  0
LINE
  5
1DEE1
  8
KI2
 10
243.36303718176649
 20
254.85758563554469
 30
0.0
 11
243.36303718176649
 21
253.40150563554431
 31
0.0
  0
ARC
  5
1DEE2
  8
KI1
 10
246.9388571817656
 20
241.60152563554399
 30
0.0
 40
0.9999998999999775
 50
270.0
 51
0.0
  0
LINE
  5
1DEE3
  8
KI1
 10
246.4388571817656
 20
251.80150563554369
 30
0.0
 11
246.4388571817656
 21
242.10152563554419
 31
0.0
  0
LINE
  5
1DEE4
  8
KI1
 10
247.93887718176549
 20
241.60152563554399
 30
0.0
 11
247.93887718176549
 21
253.4015056355436
 31
0.0
  0
LINE
  5
1DEE5
  8
KI1
 10
244.43887718176509
 20
254.401505635544
 30
0.0
 11
252.4388871817653
 21
254.401505635544
 31
0.0
  0
LINE
  5
1DEE6
  8
KI1
 10
247.93887718176549
 20
253.4015056355436
 30
0.0
 11
252.19234348540729
 21
253.4015056355436
 31
0.0
  0
LINE
  5
1DEE7
  8
KI1
 10
252.19234348540729
 20
253.4015056355436
 30
0.0
 11
255.2399694264839
 21
251.80150563554369
 31
0.0
  0
LINE
  5
1DEE8
  8
KI1
 10
252.4388871817653
 20
254.401505635544
 30
0.0
 11
256.43887718176529
 21
252.30151563554449
 31
0.0
  0
LINE
  5
1DEE9
  8
KI1
 10
241.68887718176549
 20
250.80150563554389
 30
0.0
 11
241.68887718176549
 21
252.80149563554409
 31
0.0
  0
LINE
  5
1DEEA
  8
KI2
 10
241.59945918176641
 20
253.40150563554431
 30
0.0
 11
241.59945918176641
 21
249.02050563554531
 31
0.0
  0
ARC
  5
1DEEB
  8
KI1
 10
242.18885718176509
 20
252.80149563554409
 30
0.0
 40
0.4999997999996991
 50
90.0
 51
180.0
  0
LINE
  5
1DEEC
  8
KI1
 10
231.18887718176549
 20
252.80149563554409
 30
0.0
 11
231.18887718176549
 21
250.80150563554389
 31
0.0
  0
LINE
  5
1DEED
  8
KI2
 10
231.27829718176531
 20
253.40150563554431
 30
0.0
 11
231.27829718176531
 21
249.02050563554531
 31
0.0
  0
ARC
  5
1DEEE
  8
KI1
 10
230.6888971817659
 20
252.80149563554409
 30
0.0
 40
0.4999997999998059
 50
0.0
 51
90.0
  0
LINE
  5
1DEEF
  8
KI2
 10
231.27829718176531
 20
249.02050563554531
 30
0.0
 11
241.59945918176641
 21
249.02050563554531
 31
0.0
  0
ARC
  5
1DEF0
  8
KI1
 10
239.4388811817669
 20
240.60150563554359
 30
0.0
 40
0.5000000000000568
 50
180.0
 51
0.0
  0
LINE
  5
1DEF1
  8
KI1
 10
238.93888118176639
 20
240.60150563554359
 30
0.0
 11
236.43887718176549
 21
240.6015056355443
 31
0.0
  0
ARC
  5
1DEF2
  8
KI1
 10
233.43887318176419
 20
240.60150563554359
 30
0.0
 40
0.5000000000000142
 50
180.0
 51
0.0
  0
LINE
  5
1DEF3
  8
KI1
 10
236.43887718176549
 20
240.6015056355443
 30
0.0
 11
233.93887318176419
 21
240.60150563554359
 31
0.0
  0
LINE
  5
1DEF4
  8
KI1
 10
229.43887718176549
 20
253.30150563554369
 30
0.0
 11
228.43887718176549
 21
254.401505635544
 31
0.0
  0
LINE
  5
1DEF5
  8
KI1
 10
229.68887718176549
 20
251.80150563554369
 30
0.0
 11
226.43889718176499
 21
251.80150563554369
 31
0.0
  0
LINE
  5
1DEF6
  8
KI1
 10
229.68887718176549
 20
250.80150563554389
 30
0.0
 11
229.68887718176549
 21
251.80150563554369
 31
0.0
  0
LINE
  5
1DEF7
  8
KI2
 10
229.5147191817652
 20
254.85758563554469
 30
0.0
 11
229.5147191817652
 21
253.40150563554431
 31
0.0
  0
ARC
  5
1DEF8
  8
KI1
 10
225.9388971817655
 20
241.60152563554399
 30
0.0
 40
0.9999998999999135
 50
180.0
 51
270.0
  0
LINE
  5
1DEF9
  8
KI1
 10
226.43889718176499
 20
242.10152563554419
 30
0.0
 11
226.43889718176499
 21
251.80150563554369
 31
0.0
  0
LINE
  5
1DEFA
  8
OS
 10
223.93887718176549
 20
251.80150563554429
 30
0.0
 11
223.93887718176549
 21
239.80150563554429
 31
0.0
  0
LINE
  5
1DEFB
  8
KI1
 10
224.93887718176549
 20
253.4015056355436
 30
0.0
 11
224.93887718176549
 21
241.60152563554399
 31
0.0
  0
LINE
  5
1DEFC
  8
KI1
 10
220.68541087812329
 20
253.4015056355436
 30
0.0
 11
224.93887718176549
 21
253.4015056355436
 31
0.0
  0
LINE
  5
1DEFD
  8
KI1
 10
220.4388671817658
 20
254.401505635544
 30
0.0
 11
228.43887718176549
 21
254.401505635544
 31
0.0
  0
LINE
  5
1DEFE
  8
KI1
 10
231.18887718176549
 20
250.80150563554389
 30
0.0
 11
229.68887718176549
 21
250.80150563554389
 31
0.0
  0
LINE
  5
1DEFF
  8
KI1
 10
230.6888971817659
 20
253.30150563554369
 30
0.0
 11
229.43887718176549
 21
253.30150563554369
 31
0.0
  0
LINE
  5
1DF00
  8
KI1
 10
232.93887318176419
 20
240.60150563554359
 30
0.0
 11
225.9388971817655
 21
240.6015056355443
 31
0.0
  0
LINE
  5
1DF01
  8
KI1
 10
226.43889718176499
 20
242.10152563554419
 30
0.0
 11
236.43887718176549
 21
242.10152563554419
 31
0.0
  0
LINE
  5
1DF02
  8
KI1
 10
243.43887718176549
 20
253.30150563554369
 30
0.0
 11
242.18885718176509
 21
253.30150563554369
 31
0.0
  0
LINE
  5
1DF03
  8
KI1
 10
243.18887718176549
 20
250.80150563554389
 30
0.0
 11
241.68887718176549
 21
250.80150563554389
 31
0.0
  0
LINE
  5
1DF04
  8
KI2
 10
229.5147191817652
 20
254.85758563554469
 30
0.0
 11
243.36303718176649
 21
254.85758563554469
 31
0.0
  0
LINE
  5
1DF05
  8
KI2
 10
229.5147191817652
 20
253.40150563554431
 30
0.0
 11
243.36303718176649
 21
253.40150563554431
 31
0.0
  0
LINE
  5
1DF06
  8
KI1
 10
246.9388571817656
 20
240.6015056355443
 30
0.0
 11
239.93888118176639
 21
240.60150563554359
 31
0.0
  0
LINE
  5
1DF07
  8
KI1
 10
236.43887718176549
 20
242.10152563554419
 30
0.0
 11
246.4388571817656
 21
242.10152563554419
 31
0.0
  0
LINE
  5
1DF08
  8
KI2
 10
233.4388771817664
 20
268.3015056355444
 30
0.0
 11
233.4388771817664
 21
254.85758563554469
 31
0.0
  0
LINE
  5
1DF09
  8
KI2
 10
239.4388771817664
 20
268.3015056355444
 30
0.0
 11
239.4388771817664
 21
254.85758563554469
 31
0.0
  0
LINE
  5
1DF0A
  8
KI1
 10
216.43887718176549
 20
251.80150563554369
 30
0.0
 11
217.6377849370472
 21
251.80150563554369
 31
0.0
  0
LINE
  5
1DF0B
  8
KI1
 10
216.43887718176549
 20
251.80150563554369
 30
0.0
 11
216.43887718176549
 21
252.30151563554449
 31
0.0
  0
LINE
  5
1DF0C
  8
KI1
 10
216.43887718176549
 20
252.30151563554449
 30
0.0
 11
220.4388671817658
 21
254.401505635544
 31
0.0
  0
LINE
  5
1DF0D
  8
KI1
 10
217.6377849370472
 20
251.80150563554369
 30
0.0
 11
220.68541087812329
 21
253.4015056355436
 31
0.0
  0
LINE
  5
1DF0E
  8
SU
 10
515.28512955768065
 20
632.51311339899416
 30
0.0
 11
536.6467922439806
 21
632.51311339899416
 31
0.0
1001
ACAD
1000
DSTYLE
1002
{
1070
   371
1070
    13
1070
   176
1070
   256
1070
    41
1040
1.5
1070
   147
1040
1.0
1070
    77
1070
     0
1002
}
  0
TEXT
  5
1DF0F
  8
SU
 10
771.07320259465087
 20
633.8274843675398
 30
0.0
 40
8.0
  1
巾木
 41
0.9
  0
LINE
  5
1DF10
  8
SU
 10
788.77033028260485
 20
632.51311339899416
 30
0.0
 11
767.40866759630489
 21
632.51311339899416
 31
0.0
1001
ACAD
1000
DSTYLE
1002
{
1070
   371
1070
    13
1070
   176
1070
   256
1070
    41
1040
1.5
1070
   147
1040
1.0
1070
    77
1070
     0
1002
}
  0
LINE
  5
1DF11
  8
KI1
 10
654.02772992014411
 20
571.54918707316608
 30
0.0
 11
650.02772992014491
 21
571.54918707316597
 31
0.0
  0
LINE
  5
1DF12
  8
KI1
 10
654.02772992014411
 20
591.94918707316594
 30
0.0
 11
650.02772992014491
 21
591.94918707316583
 31
0.0
  0
ARC
  5
1DF17
  8
KI2
 10
221.43887718176549
 20
269.8015056355444
 30
0.0
 40
1.5
 50
180.0
 51
270.0
  0
ARC
  5
1DF18
  8
KI2
 10
251.43887718176549
 20
269.8015056355444
 30
0.0
 40
1.5
 50
270.0
 51
0.0
  0
LINE
  5
1DF19
  8
KI2
 10
221.43887718176549
 20
268.3015056355444
 30
0.0
 11
251.43887718176549
 21
268.3015056355444
 31
0.0
  0
LINE
  5
1E28A
  8
KI2
 10
508.0277299201436
 20
314.98824540708119
 30
0.0
 11
565.02772992014411
 21
314.98824540708119
 31
0.0
  0
LINE
  5
1E28B
  8
KI2
 10
508.0277299201436
 20
274.98824540012629
 30
0.0
 11
565.02772992014411
 21
274.98824540012629
 31
0.0
  0
LINE
  5
1E28C
  8
KI2
 10
567.027729920144
 20
314.98824540708119
 30
0.0
 11
677.02772992014445
 21
314.98824540708119
 31
0.0
  0
LINE
  5
1E28D
  8
KI2
 10
567.027729920144
 20
274.98824540012629
 30
0.0
 11
677.02772992014445
 21
274.98824540012629
 31
0.0
  0
LINE
  5
1E28E
  8
KI2
 10
679.02772992014445
 20
314.98824540708119
 30
0.0
 11
790.02772992014559
 21
314.98824540708119
 31
0.0
  0
LINE
  5
1E28F
  8
KI2
 10
679.02772992014445
 20
274.98824540012629
 30
0.0
 11
790.02772992014559
 21
274.98824540012629
 31
0.0
  0
LINE
  5
1E292
  8
KI2
 10
792.02772992014559
 20
314.98824540708119
 30
0.0
 11
902.02772992014604
 21
314.98824540708119
 31
0.0
  0
LINE
  5
1E293
  8
KI2
 10
792.02772992014559
 20
274.98824540012629
 30
0.0
 11
902.02772992014604
 21
274.98824540012629
 31
0.0
  0
LINE
  5
1E294
  8
KI2
 10
904.02772992014604
 20
314.98824540708119
 30
0.0
 11
961.0277299201465
 21
314.98824540708119
 31
0.0
  0
LINE
  5
1E295
  8
KI2
 10
904.02772992014604
 20
274.98824540012629
 30
0.0
 11
961.0277299201465
 21
274.98824540012629
 31
0.0
  0
LINE
  5
1E296
  8
KI2
 10
958.42772992014693
 20
301.84207640360393
 30
0.0
 11
958.42772992014693
 21
300.98824540360368
 31
0.0
  0
ARC
  5
1E297
  8
KI2
 10
958.02772992014695
 20
301.84207640360393
 30
0.0
 40
0.4
 50
0.0
 51
90.0
  0
ARC
  5
1E298
  8
KI2
 10
959.12772992014675
 20
290.48824540360368
 30
0.0
 40
1.0
 50
270.0
 51
0.0
  0
ARC
  5
1E299
  8
KI2
 10
959.12772992014675
 20
290.48824540360368
 30
0.0
 40
1.5
 50
270.0
 51
0.0
  0
LINE
  5
1E29A
  8
KI2
 10
960.12772992014675
 20
299.4882454036038
 30
0.0
 11
960.12772992014675
 21
290.48824540360368
 31
0.0
  0
LINE
  5
1E29B
  8
KI2
 10
960.62772992014686
 20
299.4882454036038
 30
0.0
 11
960.62772992014686
 21
290.48824540360368
 31
0.0
  0
ARC
  5
1E29C
  8
KI2
 10
959.12772992014675
 20
299.4882454036038
 30
0.0
 40
1.5
 50
0.0
 51
90.0
  0
LINE
  5
1E29D
  8
KI2
 10
959.12772992014675
 20
300.98824540360368
 30
0.0
 11
958.42772992014693
 21
300.98824540360368
 31
0.0
  0
LINE
  5
1E29E
  8
KI2
 10
959.12772992014675
 20
300.48824540360368
 30
0.0
 11
958.02772992014673
 21
300.48824540360368
 31
0.0
  0
ARC
  5
1E29F
  8
KI2
 10
959.12772992014675
 20
299.4882454036038
 30
0.0
 40
1.0
 50
0.0
 51
90.0
  0
LINE
  5
1E2A0
  8
KI2
 10
959.12772992014675
 20
288.98824540360368
 30
0.0
 11
958.42772992014693
 21
288.98824540360368
 31
0.0
  0
LINE
  5
1E2A1
  8
KI2
 10
959.12772992014675
 20
289.4882454036038
 30
0.0
 11
958.02772992014673
 21
289.4882454036038
 31
0.0
  0
LINE
  5
1E2A2
  8
KI2
 10
958.42772992014693
 20
288.13441340360367
 30
0.0
 11
958.42772992014693
 21
288.98824540360368
 31
0.0
  0
ARC
  5
1E2A3
  8
KI2
 10
958.02772992014673
 20
288.13441340360367
 30
0.0
 40
0.4
 50
270.0
 51
0.0
  0
LINE
  5
1E2A4
  8
KI2
 10
735.62772992014561
 20
288.13441440360378
 30
0.0
 11
735.62772992014561
 21
288.98824540360368
 31
0.0
  0
ARC
  5
1E2A5
  8
KI2
 10
736.02772992014559
 20
288.13441440360378
 30
0.0
 40
0.4
 50
180.0
 51
270.0
  0
ARC
  5
1E2A6
  8
KI2
 10
734.92772992014545
 20
299.4882454036038
 30
0.0
 40
1.0
 50
90.0
 51
180.0
  0
ARC
  5
1E2A7
  8
KI2
 10
734.92772992014545
 20
299.4882454036038
 30
0.0
 40
1.5
 50
90.0
 51
180.0
  0
LINE
  5
1E2A8
  8
KI2
 10
733.92772992014545
 20
290.48824540360368
 30
0.0
 11
733.92772992014545
 21
299.4882454036038
 31
0.0
  0
LINE
  5
1E2A9
  8
KI2
 10
733.42772992014545
 20
290.48824540360368
 30
0.0
 11
733.42772992014545
 21
299.4882454036038
 31
0.0
  0
ARC
  5
1E2AA
  8
KI2
 10
734.92772992014545
 20
290.48824540360368
 30
0.0
 40
1.5
 50
180.0
 51
270.0
  0
LINE
  5
1E2AB
  8
KI2
 10
734.92772992014545
 20
288.98824540360368
 30
0.0
 11
735.62772992014561
 21
288.98824540360368
 31
0.0
  0
LINE
  5
1E2AC
  8
KI2
 10
734.92772992014545
 20
289.4882454036038
 30
0.0
 11
736.02772992014559
 21
289.4882454036038
 31
0.0
  0
ARC
  5
1E2AD
  8
KI2
 10
734.92772992014545
 20
290.48824540360368
 30
0.0
 40
1.0
 50
180.0
 51
270.0
  0
LINE
  5
1E2AE
  8
KI2
 10
734.92772992014545
 20
300.98824540360368
 30
0.0
 11
735.62772992014573
 21
300.98824540360368
 31
0.0
  0
LINE
  5
1E2AF
  8
KI2
 10
734.92772992014545
 20
300.48824540360368
 30
0.0
 11
736.02772992014559
 21
300.48824540360368
 31
0.0
  0
LINE
  5
1E2B0
  8
KI2
 10
735.62772992014573
 20
301.84207740360398
 30
0.0
 11
735.62772992014573
 21
300.98824540360368
 31
0.0
  0
ARC
  5
1E2B1
  8
KI2
 10
736.0277299201457
 20
301.84207740360398
 30
0.0
 40
0.4
 50
90.0
 51
180.0
  0
LINE
  5
1E2B2
  8
KI2
 10
510.62772992014419
 20
288.13441440360378
 30
0.0
 11
510.62772992014419
 21
288.98824540360368
 31
0.0
  0
ARC
  5
1E2B3
  8
KI2
 10
511.02772992014411
 20
288.13441440360378
 30
0.0
 40
0.4
 50
180.0
 51
270.0
  0
ARC
  5
1E2B4
  8
KI2
 10
509.92772992014392
 20
299.4882454036038
 30
0.0
 40
1.0
 50
90.0
 51
180.0
  0
ARC
  5
1E2B5
  8
KI2
 10
509.92772992014392
 20
299.4882454036038
 30
0.0
 40
1.5
 50
90.0
 51
180.0
  0
LINE
  5
1E2B6
  8
KI2
 10
508.92772992014392
 20
290.48824540360368
 30
0.0
 11
508.92772992014392
 21
299.4882454036038
 31
0.0
  0
LINE
  5
1E2B7
  8
KI2
 10
508.42772992014392
 20
290.48824540360368
 30
0.0
 11
508.42772992014392
 21
299.4882454036038
 31
0.0
  0
ARC
  5
1E2B8
  8
KI2
 10
509.92772992014392
 20
290.48824540360368
 30
0.0
 40
1.5
 50
180.0
 51
270.0
  0
LINE
  5
1E2B9
  8
KI2
 10
509.92772992014392
 20
288.98824540360368
 30
0.0
 11
510.62772992014419
 21
288.98824540360368
 31
0.0
  0
LINE
  5
1E2BA
  8
KI2
 10
509.92772992014392
 20
289.4882454036038
 30
0.0
 11
511.02772992014411
 21
289.4882454036038
 31
0.0
  0
ARC
  5
1E2BB
  8
KI2
 10
509.92772992014392
 20
290.48824540360368
 30
0.0
 40
1.0
 50
180.0
 51
270.0
  0
LINE
  5
1E2BC
  8
KI2
 10
509.92772992014392
 20
300.98824540360368
 30
0.0
 11
510.62772992014419
 21
300.98824540360368
 31
0.0
  0
LINE
  5
1E2BD
  8
KI2
 10
509.92772992014392
 20
300.48824540360368
 30
0.0
 11
511.02772992014411
 21
300.48824540360368
 31
0.0
  0
LINE
  5
1E2BE
  8
KI2
 10
510.62772992014419
 20
301.84207740360398
 30
0.0
 11
510.62772992014419
 21
300.98824540360368
 31
0.0
  0
ARC
  5
1E2C0
  8
KI2
 10
511.02772992014411
 20
301.84207740360398
 30
0.0
 40
0.4
 50
90.0
 51
180.0
  0
LINE
  5
1E2C1
  8
OS
 10
961.0277299201465
 20
334.11765303630079
 30
0.0
 11
966.39832328745081
 21
339.48824640360499
 31
0.0
1001
ACAD
1010
0.0
1020
0.0
1030
0.0
  0
LINE
  5
1E2C2
  8
OS
 10
961.0277299201465
 20
324.21815809968899
 30
0.0
 11
976.29781822406255
 21
339.48824640360499
 31
0.0
1001
ACAD
1010
0.0
1020
0.0
1030
0.0
  0
LINE
  5
1E2C3
  8
OS
 10
961.0277299201465
 20
314.3186631630773
 30
0.0
 11
985.02772992014673
 21
338.31866316307747
 31
0.0
1001
ACAD
1010
0.0
1020
0.0
1030
0.0
  0
LINE
  5
1E2C4
  8
OS
 10
961.0277299201465
 20
304.41916822646567
 30
0.0
 11
985.0277299201465
 21
328.41916822646579
 31
0.0
1001
ACAD
1010
0.0
1020
0.0
1030
0.0
  0
LINE
  5
1E2C5
  8
OS
 10
961.0277299201465
 20
294.51967328985398
 30
0.0
 11
985.02772992014673
 21
318.51967328985421
 31
0.0
1001
ACAD
1010
0.0
1020
0.0
1030
0.0
  0
LINE
  5
1E2C6
  8
OS
 10
961.0277299201465
 20
284.6201783532423
 30
0.0
 11
985.02772992014673
 21
308.62017835324252
 31
0.0
1001
ACAD
1010
0.0
1020
0.0
1030
0.0
  0
LINE
  5
1E2C7
  8
OS
 10
961.0277299201465
 20
274.72068341663072
 30
0.0
 11
985.02772992014673
 21
298.72068341663089
 31
0.0
1001
ACAD
1010
0.0
1020
0.0
1030
0.0
  0
LINE
  5
1E2C8
  8
OS
 10
961.0277299201465
 20
264.82118848001898
 30
0.0
 11
985.02772992014673
 21
288.82118848001932
 31
0.0
1001
ACAD
1010
0.0
1020
0.0
1030
0.0
  0
LINE
  5
1E2C9
  8
OS
 10
961.0277299201465
 20
254.9216935434074
 30
0.0
 11
985.0277299201465
 21
278.9216935434074
 31
0.0
1001
ACAD
1010
0.0
1020
0.0
1030
0.0
  0
LINE
  5
1E2CA
  8
OS
 10
966.49377571695345
 20
250.48824440360229
 30
0.0
 11
985.0277299201465
 21
269.02219860679571
 31
0.0
1001
ACAD
1010
0.0
1020
0.0
1030
0.0
  0
LINE
  5
1E2CB
  8
OS
 10
976.39327065356485
 20
250.48824440360229
 30
0.0
 11
985.0277299201465
 21
259.12270367018408
 31
0.0
1001
ACAD
1010
0.0
1020
0.0
1030
0.0
  0
LINE
  5
1E2CC
  8
OS
 10
963.02772992014638
 20
339.48824640360499
 30
0.0
 11
985.0277299201465
 21
339.48824640360499
 31
0.0
  0
LINE
  5
1E2CD
  8
OS
 10
963.02772992014638
 20
250.48824440360229
 30
0.0
 11
985.0277299201465
 21
250.48824440360229
 31
0.0
  0
LINE
  5
1E2CE
  8
OS
 10
985.0277299201465
 20
339.48824640360499
 30
0.0
 11
985.0277299201465
 21
250.48824440360229
 31
0.0
  0
LINE
  5
1E2CF
  8
OS
 10
961.0277299201465
 20
252.48824440360241
 30
0.0
 11
961.0277299201465
 21
337.48824640360499
 31
0.0
  0
LINE
  5
1E2D0
  8
OS
 10
963.02772992014638
 20
250.48824440360229
 30
0.0
 11
961.0277299201465
 21
252.48824440360241
 31
0.0
  0
LINE
  5
1E2D1
  8
OS
 10
963.02772992014638
 20
339.48824640360499
 30
0.0
 11
961.0277299201465
 21
337.48824640360499
 31
0.0
  0
LINE
  5
1E2D2
  8
OS
 10
508.02772992014349
 20
255.85883777090649
 30
0.0
 11
502.65713655283918
 21
250.48824440360221
 31
0.0
1001
ACAD
1010
0.0
1020
0.0
1030
0.0
  0
LINE
  5
1E2D3
  8
OS
 10
508.02772992014349
 20
265.75833270751832
 30
0.0
 11
492.75764161622737
 21
250.48824440360221
 31
0.0
1001
ACAD
1010
0.0
1020
0.0
1030
0.0
  0
LINE
  5
1E2D4
  8
OS
 10
508.02772992014349
 20
275.6578276441299
 30
0.0
 11
484.0277299201432
 21
251.6578276441297
 31
0.0
1001
ACAD
1010
0.0
1020
0.0
1030
0.0
  0
LINE
  5
1E2D5
  8
OS
 10
508.02772992014349
 20
285.55732258074153
 30
0.0
 11
484.02772992014349
 21
261.55732258074141
 31
0.0
1001
ACAD
1010
0.0
1020
0.0
1030
0.0
  0
LINE
  5
1E2D6
  8
OS
 10
508.02772992014349
 20
295.45681751735327
 30
0.0
 11
484.0277299201432
 21
271.4568175173531
 31
0.0
1001
ACAD
1010
0.0
1020
0.0
1030
0.0
  0
LINE
  5
1E2D7
  8
OS
 10
508.02772992014349
 20
305.35631245396502
 30
0.0
 11
484.0277299201432
 21
281.35631245396468
 31
0.0
1001
ACAD
1010
0.0
1020
0.0
1030
0.0
  0
LINE
  5
1E2D8
  8
OS
 10
508.02772992014349
 20
315.25580739057648
 30
0.0
 11
484.0277299201432
 21
291.25580739057631
 31
0.0
1001
ACAD
1010
0.0
1020
0.0
1030
0.0
  0
LINE
  5
1E2D9
  8
OS
 10
508.02772992014349
 20
325.15530232718822
 30
0.0
 11
484.0277299201432
 21
301.155302327188
 31
0.0
1001
ACAD
1010
0.0
1020
0.0
1030
0.0
  0
LINE
  5
1E2DA
  8
OS
 10
508.02772992014349
 20
335.05479726379991
 30
0.0
 11
484.02772992014349
 21
311.0547972637998
 31
0.0
1001
ACAD
1010
0.0
1020
0.0
1030
0.0
  0
LINE
  5
1E2DB
  8
OS
 10
502.56168412333659
 20
339.48824640360499
 30
0.0
 11
484.02772992014349
 21
320.9542922004116
 31
0.0
1001
ACAD
1010
0.0
1020
0.0
1030
0.0
  0
LINE
  5
1E2DC
  8
OS
 10
492.66218918672507
 20
339.48824640360499
 30
0.0
 11
484.02772992014349
 21
330.85378713702312
 31
0.0
1001
ACAD
1010
0.0
1020
0.0
1030
0.0
  0
LINE
  5
1E2DD
  8
OS
 10
506.02772992014349
 20
250.48824440360229
 30
0.0
 11
484.02772992014349
 21
250.48824440360229
 31
0.0
  0
LINE
  5
1E2DE
  8
OS
 10
506.02772992014349
 20
339.48824640360499
 30
0.0
 11
484.02772992014349
 21
339.48824640360499
 31
0.0
  0
LINE
  5
1E2DF
  8
OS
 10
484.02772992014349
 20
250.48824440360229
 30
0.0
 11
484.02772992014349
 21
339.48824640360499
 31
0.0
  0
LINE
  5
1E2E0
  8
OS
 10
508.02772992014349
 20
337.48824640360488
 30
0.0
 11
508.02772992014349
 21
252.48824440360221
 31
0.0
  0
LINE
  5
1E2E1
  8
OS
 10
506.02772992014349
 20
339.48824640360499
 30
0.0
 11
508.02772992014349
 21
337.48824640360488
 31
0.0
  0
LINE
  5
1E2E2
  8
OS
 10
506.02772992014349
 20
250.48824440360229
 30
0.0
 11
508.02772992014349
 21
252.48824440360221
 31
0.0
  0
LINE
  5
1E2EB
  8
KI1
 10
511.02772992014411
 20
311.48824540360368
 30
0.0
 11
565.02772992014411
 21
311.48824540360368
 31
0.0
  0
LINE
  5
1E2EC
  8
KI1
 10
567.027729920144
 20
311.48824540360368
 30
0.0
 11
620.02772992014411
 21
311.48824540360368
 31
0.0
  0
LINE
  5
1E2ED
  8
KI1
 10
620.02772992014411
 20
311.48824540360368
 30
0.0
 11
620.02772992014411
 21
287.4882454036038
 31
0.0
  0
LINE
  5
1E2EE
  8
KI1
 10
620.02772992014411
 20
287.4882454036038
 30
0.0
 11
604.52772992014422
 21
287.4882454036038
 31
0.0
  0
LINE
  5
1E2EF
  8
KI1
 10
604.52772992014422
 20
287.4882454036038
 30
0.0
 11
595.52772992014411
 21
278.48824540360368
 31
0.0
  0
LINE
  5
1E2F0
  8
KI1
 10
595.52772992014411
 20
278.48824540360368
 30
0.0
 11
567.027729920144
 21
278.48824540360368
 31
0.0
  0
LINE
  5
1E2F1
  8
KI1
 10
565.02772992014411
 20
278.48824540360368
 30
0.0
 11
511.02772992014332
 21
278.48824540360368
 31
0.0
  0
LINE
  5
1E2F2
  8
KI1
 10
511.02772992014332
 20
278.48824540360368
 30
0.0
 11
511.02772992014332
 21
311.48824540360368
 31
0.0
  0
LINE
  5
1E2F3
  8
KI1
 10
733.02772992014366
 20
311.48824540360368
 30
0.0
 11
679.02772992014366
 21
311.48824540360368
 31
0.0
  0
LINE
  5
1E2F4
  8
KI1
 10
677.02772992014366
 20
311.48824540360368
 30
0.0
 11
624.02772992014366
 21
311.48824540360368
 31
0.0
  0
LINE
  5
1E2F5
  8
KI1
 10
624.02772992014366
 20
311.48824540360368
 30
0.0
 11
624.02772992014366
 21
287.4882454036038
 31
0.0
  0
LINE
  5
1E2F6
  8
KI1
 10
624.02772992014366
 20
287.4882454036038
 30
0.0
 11
639.52772992014354
 21
287.4882454036038
 31
0.0
  0
LINE
  5
1E2F7
  8
KI1
 10
639.52772992014354
 20
287.4882454036038
 30
0.0
 11
648.52772992014354
 21
278.48824540360368
 31
0.0
  0
LINE
  5
1E2F8
  8
KI1
 10
648.52772992014354
 20
278.48824540360368
 30
0.0
 11
677.02772992014366
 21
278.48824540360368
 31
0.0
  0
LINE
  5
1E2F9
  8
KI1
 10
679.02772992014366
 20
278.48824540360368
 30
0.0
 11
733.02772992014445
 21
278.48824540360368
 31
0.0
  0
LINE
  5
1E2FA
  8
KI1
 10
733.02772992014445
 20
278.48824540360368
 30
0.0
 11
733.02772992014445
 21
311.48824540360368
 31
0.0
  0
LINE
  5
1E2FB
  8
KI1
 10
958.02772992014582
 20
311.48824540360368
 30
0.0
 11
904.02772992014593
 21
311.48824540360368
 31
0.0
  0
LINE
  5
1E2FC
  8
KI1
 10
902.02772992014604
 20
311.48824540360368
 30
0.0
 11
849.02772992014593
 21
311.48824540360368
 31
0.0
  0
LINE
  5
1E2FD
  8
KI1
 10
849.02772992014593
 20
311.48824540360368
 30
0.0
 11
849.02772992014593
 21
287.4882454036038
 31
0.0
  0
LINE
  5
1E2FE
  8
KI1
 10
849.02772992014593
 20
287.4882454036038
 30
0.0
 11
864.52772992014582
 21
287.4882454036038
 31
0.0
  0
LINE
  5
1E2FF
  8
KI1
 10
864.52772992014582
 20
287.4882454036038
 30
0.0
 11
873.52772992014582
 21
278.48824540360368
 31
0.0
  0
LINE
  5
1E300
  8
KI1
 10
873.52772992014582
 20
278.48824540360368
 30
0.0
 11
902.02772992014604
 21
278.48824540360368
 31
0.0
  0
LINE
  5
1E301
  8
KI1
 10
904.02772992014593
 20
278.48824540360368
 30
0.0
 11
958.02772992014673
 21
278.48824540360368
 31
0.0
  0
LINE
  5
1E302
  8
KI1
 10
958.02772992014673
 20
278.48824540360368
 30
0.0
 11
958.02772992014673
 21
311.48824540360368
 31
0.0
  0
LINE
  5
1E303
  8
KI1
 10
736.02772992014627
 20
311.48824540360368
 30
0.0
 11
790.02772992014627
 21
311.48824540360368
 31
0.0
  0
LINE
  5
1E304
  8
KI1
 10
792.02772992014638
 20
311.48824540360368
 30
0.0
 11
845.02772992014627
 21
311.48824540360368
 31
0.0
  0
LINE
  5
1E305
  8
KI1
 10
845.02772992014627
 20
311.48824540360368
 30
0.0
 11
845.02772992014627
 21
287.4882454036038
 31
0.0
  0
LINE
  5
1E306
  8
KI1
 10
845.02772992014627
 20
287.4882454036038
 30
0.0
 11
829.5277299201465
 21
287.4882454036038
 31
0.0
  0
LINE
  5
1E307
  8
KI1
 10
829.5277299201465
 20
287.4882454036038
 30
0.0
 11
820.5277299201465
 21
278.48824540360368
 31
0.0
  0
LINE
  5
1E308
  8
KI1
 10
820.5277299201465
 20
278.48824540360368
 30
0.0
 11
792.02772992014638
 21
278.48824540360368
 31
0.0
  0
LINE
  5
1E309
  8
KI1
 10
790.02772992014627
 20
278.48824540360368
 30
0.0
 11
736.02772992014559
 21
278.48824540360368
 31
0.0
  0
LINE
  5
1E30A
  8
KI1
 10
736.02772992014559
 20
278.48824540360368
 30
0.0
 11
736.02772992014559
 21
311.48824540360368
 31
0.0
  0
LINE
  5
1E30C
  8
KI1
 10
624.02772992014332
 20
291.08824540360399
 30
0.0
 11
620.02772992014411
 21
291.08824540360388
 31
0.0
  0
LINE
  5
1E30D
  8
KI1
 10
624.02772992014332
 20
311.48824540360391
 30
0.0
 11
620.02772992014411
 21
311.48824540360368
 31
0.0
  0
LINE
  5
1E30E
  8
KI1
 10
849.02772992014548
 20
291.08824540360399
 30
0.0
 11
845.02772992014627
 21
291.08824540360388
 31
0.0
  0
LINE
  5
1E30F
  8
KI1
 10
849.02772992014548
 20
311.48824540360391
 30
0.0
 11
845.02772992014627
 21
311.48824540360368
 31
0.0
  0
LINE
  5
1E504
  8
SU
 10
957.02772992014673
 20
311.48824540360368
 30
0.0
 11
930.02772992014661
 21
311.48824540360368
 31
0.0
  0
LINE
  5
1E505
  8
SU
 10
957.02772992014673
 20
278.48824540360408
 30
0.0
 11
930.02772992014661
 21
278.48824540360408
 31
0.0
  0
LINE
  5
1E506
  8
SU
 10
933.02772992014673
 20
311.48824540360368
 30
0.0
 11
933.02772992014673
 21
278.48824540360408
 31
0.0
  0
LINE
  5
1E50A
  8
SU
 10
733.02772992014434
 20
230.48824440360329
 30
0.0
 11
736.0277299201457
 21
230.48824440360329
 31
0.0
  0
LINE
  5
1E50C
  8
SU
 10
511.02772992014332
 20
277.48824540360368
 30
0.0
 11
511.02772992014332
 21
227.48824440360329
 31
0.0
  0
LINE
  5
1E50D
  8
SU
 10
733.02772992014434
 20
277.48824540360368
 30
0.0
 11
733.02772992014434
 21
227.48824440360329
 31
0.0
  0
LINE
  5
1E50E
  8
SU
 10
511.02772992014332
 20
230.48824440360329
 30
0.0
 11
733.02772992014434
 21
230.48824440360329
 31
0.0
  0
LINE
  5
1E512
  8
SU
 10
518.02772992014354
 20
216.48824440360309
 30
0.0
 11
508.02772992014349
 21
210.48824440360301
 31
0.0
  0
LINE
  5
1E513
  8
SU
 10
518.02772992014354
 20
204.48824440360301
 30
0.0
 11
508.02772992014349
 21
210.48824440360301
 31
0.0
  0
LINE
  5
1E514
  8
SU
 10
518.02772992014354
 20
216.48824440360309
 30
0.0
 11
518.02772992014354
 21
204.48824440360301
 31
0.0
  0
LINE
  5
1E515
  8
SU
 10
508.09545786471068
 20
210.52888117034371
 30
0.0
 11
508.09545786471068
 21
210.4476076368627
 31
0.0
  0
LINE
  5
1E516
  8
SU
 10
508.2954578647105
 20
210.64888117034349
 30
0.0
 11
508.2954578647105
 21
210.32760763686281
 31
0.0
  0
LINE
  5
1E517
  8
SU
 10
508.49545786471077
 20
210.7688811703436
 30
0.0
 11
508.49545786471077
 21
210.20760763686269
 31
0.0
  0
LINE
  5
1E518
  8
SU
 10
508.69545786471059
 20
210.8888811703435
 30
0.0
 11
508.69545786471059
 21
210.0876076368626
 31
0.0
  0
LINE
  5
1E519
  8
SU
 10
508.89545786471092
 20
211.00888117034339
 30
0.0
 11
508.89545786471092
 21
209.96760763686271
 31
0.0
  0
LINE
  5
1E51A
  8
SU
 10
509.09545786471068
 20
211.12888117034359
 30
0.0
 11
509.09545786471068
 21
209.84760763686279
 31
0.0
  0
LINE
  5
1E51B
  8
SU
 10
509.2954578647105
 20
211.24888117034371
 30
0.0
 11
509.2954578647105
 21
209.7276076368627
 31
0.0
  0
LINE
  5
1E51C
  8
SU
 10
509.49545786471077
 20
211.3688811703436
 30
0.0
 11
509.49545786471077
 21
209.60760763686261
 31
0.0
  0
LINE
  5
1E51D
  8
SU
 10
509.69545786471059
 20
211.48888117034349
 30
0.0
 11
509.69545786471059
 21
209.48760763686269
 31
0.0
  0
LINE
  5
1E51E
  8
SU
 10
509.89545786471081
 20
211.60888117034341
 30
0.0
 11
509.89545786471081
 21
209.3676076368628
 31
0.0
  0
LINE
  5
1E51F
  8
SU
 10
510.09545786471068
 20
211.7288811703437
 30
0.0
 11
510.09545786471068
 21
209.2476076368626
 31
0.0
  0
LINE
  5
1E520
  8
SU
 10
510.2954578647105
 20
211.84888117034359
 30
0.0
 11
510.2954578647105
 21
209.12760763686251
 31
0.0
  0
LINE
  5
1E521
  8
SU
 10
510.49545786471077
 20
211.96888117034351
 30
0.0
 11
510.49545786471077
 21
209.00760763686259
 31
0.0
  0
LINE
  5
1E522
  8
SU
 10
510.69545786471059
 20
212.0888811703436
 30
0.0
 11
510.69545786471059
 21
208.8876076368627
 31
0.0
  0
LINE
  5
1E523
  8
SU
 10
510.89545786471092
 20
212.20888117034349
 30
0.0
 11
510.89545786471092
 21
208.76760763686261
 31
0.0
  0
LINE
  5
1E524
  8
SU
 10
511.09545786471068
 20
212.32888117034361
 30
0.0
 11
511.09545786471068
 21
208.6476076368628
 31
0.0
  0
LINE
  5
1E525
  8
SU
 10
511.2954578647105
 20
212.4488811703435
 30
0.0
 11
511.2954578647105
 21
208.5276076368626
 31
0.0
  0
LINE
  5
1E526
  8
SU
 10
511.49545786471077
 20
212.56888117034359
 30
0.0
 11
511.49545786471077
 21
208.40760763686271
 31
0.0
  0
LINE
  5
1E527
  8
SU
 10
511.69545786471059
 20
212.68888117034351
 30
0.0
 11
511.69545786471059
 21
208.28760763686259
 31
0.0
  0
LINE
  5
1E528
  8
SU
 10
511.89545786471092
 20
212.8088811703436
 30
0.0
 11
511.89545786471092
 21
208.1676076368627
 31
0.0
  0
LINE
  5
1E529
  8
SU
 10
512.09545786471074
 20
212.92888117034349
 30
0.0
 11
512.09545786471074
 21
208.04760763686261
 31
0.0
  0
LINE
  5
1E52A
  8
SU
 10
512.29545786471056
 20
213.04888117034341
 30
0.0
 11
512.29545786471056
 21
207.92760763686269
 31
0.0
  0
LINE
  5
1E52B
  8
SU
 10
512.49545786471083
 20
213.1688811703435
 30
0.0
 11
512.49545786471083
 21
207.8076076368626
 31
0.0
  0
LINE
  5
1E52C
  8
SU
 10
512.69545786471065
 20
213.28888117034359
 30
0.0
 11
512.69545786471065
 21
207.68760763686271
 31
0.0
  0
LINE
  5
1E52D
  8
SU
 10
512.89545786471092
 20
213.40888117034351
 30
0.0
 11
512.89545786471092
 21
207.56760763686259
 31
0.0
  0
LINE
  5
1E52E
  8
SU
 10
513.09545786471074
 20
213.5288811703436
 30
0.0
 11
513.09545786471074
 21
207.4476076368627
 31
0.0
  0
LINE
  5
1E52F
  8
SU
 10
513.29545786471056
 20
213.64888117034349
 30
0.0
 11
513.29545786471056
 21
207.32760763686281
 31
0.0
  0
LINE
  5
1E530
  8
SU
 10
513.49545786471083
 20
213.76888117034369
 30
0.0
 11
513.49545786471083
 21
207.20760763686269
 31
0.0
  0
LINE
  5
1E531
  8
SU
 10
513.69545786471065
 20
213.88888117034361
 30
0.0
 11
513.69545786471065
 21
207.0876076368626
 31
0.0
  0
LINE
  5
1E532
  8
SU
 10
513.89545786471081
 20
214.0088811703435
 30
0.0
 11
513.89545786471081
 21
206.96760763686271
 31
0.0
  0
LINE
  5
1E533
  8
SU
 10
514.09545786471074
 20
214.12888117034359
 30
0.0
 11
514.09545786471074
 21
206.84760763686279
 31
0.0
  0
LINE
  5
1E534
  8
SU
 10
514.29545786471056
 20
214.24888117034371
 30
0.0
 11
514.29545786471056
 21
206.7276076368627
 31
0.0
  0
LINE
  5
1E535
  8
SU
 10
514.49545786471083
 20
214.3688811703436
 30
0.0
 11
514.49545786471083
 21
206.6076076368625
 31
0.0
  0
LINE
  5
1E536
  8
SU
 10
514.69545786471065
 20
214.48888117034349
 30
0.0
 11
514.69545786471065
 21
206.48760763686261
 31
0.0
  0
LINE
  5
1E537
  8
SU
 10
514.89545786471092
 20
214.60888117034341
 30
0.0
 11
514.89545786471092
 21
206.3676076368628
 31
0.0
  0
LINE
  5
1E538
  8
SU
 10
515.09545786471074
 20
214.7288811703437
 30
0.0
 11
515.09545786471074
 21
206.24760763686271
 31
0.0
  0
LINE
  5
1E539
  8
SU
 10
515.29545786471056
 20
214.84888117034359
 30
0.0
 11
515.29545786471056
 21
206.12760763686251
 31
0.0
  0
LINE
  5
1E53A
  8
SU
 10
515.49545786471083
 20
214.96888117034351
 30
0.0
 11
515.49545786471083
 21
206.00760763686259
 31
0.0
  0
LINE
  5
1E53B
  8
SU
 10
515.69545786471065
 20
215.0888811703436
 30
0.0
 11
515.69545786471065
 21
205.88760763686281
 31
0.0
  0
LINE
  5
1E53C
  8
SU
 10
515.89545786471092
 20
215.20888117034349
 30
0.0
 11
515.89545786471092
 21
205.76760763686261
 31
0.0
  0
LINE
  5
1E53D
  8
SU
 10
516.09545786471074
 20
215.32888117034361
 30
0.0
 11
516.09545786471074
 21
205.64760763686269
 31
0.0
  0
LINE
  5
1E53E
  8
SU
 10
516.29545786471056
 20
215.4488811703435
 30
0.0
 11
516.29545786471056
 21
205.5276076368626
 31
0.0
  0
LINE
  5
1E53F
  8
SU
 10
516.49545786471083
 20
215.56888117034359
 30
0.0
 11
516.49545786471083
 21
205.40760763686271
 31
0.0
  0
LINE
  5
1E540
  8
SU
 10
516.69545786471065
 20
215.68888117034351
 30
0.0
 11
516.69545786471065
 21
205.28760763686259
 31
0.0
  0
LINE
  5
1E541
  8
SU
 10
516.89545786471092
 20
215.8088811703436
 30
0.0
 11
516.89545786471092
 21
205.1676076368627
 31
0.0
  0
LINE
  5
1E542
  8
SU
 10
517.09545786471074
 20
215.92888117034349
 30
0.0
 11
517.09545786471074
 21
205.04760763686261
 31
0.0
  0
LINE
  5
1E543
  8
SU
 10
517.29545786471056
 20
216.04888117034341
 30
0.0
 11
517.29545786471056
 21
204.92760763686269
 31
0.0
  0
LINE
  5
1E544
  8
SU
 10
517.49545786471083
 20
216.1688811703435
 30
0.0
 11
517.49545786471083
 21
204.8076076368626
 31
0.0
  0
LINE
  5
1E545
  8
SU
 10
517.69545786471065
 20
216.2888811703437
 30
0.0
 11
517.69545786471065
 21
204.68760763686271
 31
0.0
  0
LINE
  5
1E546
  8
SU
 10
517.89545786471081
 20
216.40888117034359
 30
0.0
 11
517.89545786471081
 21
204.56760763686259
 31
0.0
  0
LINE
  5
1E547
  8
SU
 10
511.02772992014332
 20
230.48824440360349
 30
0.0
 11
508.02772992014349
 21
230.48824440360349
 31
0.0
  0
LINE
  5
1E548
  8
SU
 10
508.02772992014349
 20
230.48824440360349
 30
0.0
 11
491.95439658681011
 21
230.48824440360349
 31
0.0
  0
LINE
  5
1E54B
  8
SU
 10
951.0277299201465
 20
216.48824440360309
 30
0.0
 11
961.0277299201465
 21
210.48824440360301
 31
0.0
  0
LINE
  5
1E54C
  8
SU
 10
951.0277299201465
 20
204.48824440360301
 30
0.0
 11
961.0277299201465
 21
210.48824440360301
 31
0.0
  0
LINE
  5
1E54D
  8
SU
 10
951.0277299201465
 20
216.48824440360309
 30
0.0
 11
951.0277299201465
 21
204.48824440360301
 31
0.0
  0
LINE
  5
1E54E
  8
SU
 10
960.9600019755793
 20
210.52888117034371
 30
0.0
 11
960.9600019755793
 21
210.4476076368627
 31
0.0
  0
LINE
  5
1E54F
  8
SU
 10
960.76000197557937
 20
210.64888117034349
 30
0.0
 11
960.76000197557937
 21
210.32760763686281
 31
0.0
  0
LINE
  5
1E550
  8
SU
 10
960.56000197557921
 20
210.7688811703436
 30
0.0
 11
960.56000197557921
 21
210.20760763686269
 31
0.0
  0
LINE
  5
1E551
  8
SU
 10
960.36000197557928
 20
210.8888811703435
 30
0.0
 11
960.36000197557928
 21
210.0876076368626
 31
0.0
  0
LINE
  5
1E552
  8
SU
 10
960.16000197557912
 20
211.00888117034339
 30
0.0
 11
960.16000197557912
 21
209.96760763686271
 31
0.0
  0
LINE
  5
1E553
  8
SU
 10
959.96000197557942
 20
211.12888117034359
 30
0.0
 11
959.96000197557942
 21
209.84760763686279
 31
0.0
  0
LINE
  5
1E554
  8
SU
 10
959.76000197557948
 20
211.24888117034371
 30
0.0
 11
959.76000197557948
 21
209.7276076368627
 31
0.0
  0
LINE
  5
1E555
  8
SU
 10
959.56000197557921
 20
211.3688811703436
 30
0.0
 11
959.56000197557921
 21
209.60760763686261
 31
0.0
  0
LINE
  5
1E556
  8
SU
 10
959.36000197557928
 20
211.48888117034349
 30
0.0
 11
959.36000197557928
 21
209.48760763686269
 31
0.0
  0
LINE
  5
1E557
  8
SU
 10
959.16000197557912
 20
211.60888117034341
 30
0.0
 11
959.16000197557912
 21
209.3676076368628
 31
0.0
  0
LINE
  5
1E558
  8
SU
 10
958.96000197557919
 20
211.7288811703437
 30
0.0
 11
958.96000197557919
 21
209.2476076368626
 31
0.0
  0
LINE
  5
1E559
  8
SU
 10
958.76000197557948
 20
211.84888117034359
 30
0.0
 11
958.76000197557948
 21
209.12760763686251
 31
0.0
  0
LINE
  5
1E55A
  8
SU
 10
958.56000197557921
 20
211.96888117034351
 30
0.0
 11
958.56000197557921
 21
209.00760763686259
 31
0.0
  0
LINE
  5
1E55B
  8
SU
 10
958.36000197557939
 20
212.0888811703436
 30
0.0
 11
958.36000197557939
 21
208.8876076368627
 31
0.0
  0
LINE
  5
1E55C
  8
SU
 10
958.16000197557912
 20
212.20888117034349
 30
0.0
 11
958.16000197557912
 21
208.76760763686261
 31
0.0
  0
LINE
  5
1E55D
  8
SU
 10
957.96000197557919
 20
212.32888117034361
 30
0.0
 11
957.96000197557919
 21
208.6476076368628
 31
0.0
  0
LINE
  5
1E55E
  8
SU
 10
957.76000197557948
 20
212.4488811703435
 30
0.0
 11
957.76000197557948
 21
208.5276076368626
 31
0.0
  0
LINE
  5
1E55F
  8
SU
 10
957.56000197557933
 20
212.56888117034359
 30
0.0
 11
957.56000197557933
 21
208.40760763686271
 31
0.0
  0
LINE
  5
1E560
  8
SU
 10
957.36000197557939
 20
212.68888117034351
 30
0.0
 11
957.36000197557939
 21
208.28760763686259
 31
0.0
  0
LINE
  5
1E561
  8
SU
 10
957.16000197557912
 20
212.8088811703436
 30
0.0
 11
957.16000197557912
 21
208.1676076368627
 31
0.0
  0
LINE
  5
1E562
  8
SU
 10
956.96000197557919
 20
212.92888117034349
 30
0.0
 11
956.96000197557919
 21
208.04760763686261
 31
0.0
  0
LINE
  5
1E563
  8
SU
 10
956.76000197557948
 20
213.04888117034341
 30
0.0
 11
956.76000197557948
 21
207.92760763686269
 31
0.0
  0
LINE
  5
1E564
  8
SU
 10
956.5600019755791
 20
213.1688811703435
 30
0.0
 11
956.5600019755791
 21
207.8076076368626
 31
0.0
  0
LINE
  5
1E565
  8
SU
 10
956.36000197557939
 20
213.28888117034359
 30
0.0
 11
956.36000197557939
 21
207.68760763686271
 31
0.0
  0
LINE
  5
1E566
  8
SU
 10
956.16000197557912
 20
213.40888117034351
 30
0.0
 11
956.16000197557912
 21
207.56760763686259
 31
0.0
  0
LINE
  5
1E567
  8
SU
 10
955.9600019755793
 20
213.5288811703436
 30
0.0
 11
955.9600019755793
 21
207.4476076368627
 31
0.0
  0
LINE
  5
1E568
  8
SU
 10
955.76000197557937
 20
213.64888117034349
 30
0.0
 11
955.76000197557937
 21
207.32760763686281
 31
0.0
  0
LINE
  5
1E569
  8
SU
 10
955.5600019755791
 20
213.76888117034369
 30
0.0
 11
955.5600019755791
 21
207.20760763686269
 31
0.0
  0
LINE
  5
1E56A
  8
SU
 10
955.36000197557939
 20
213.88888117034361
 30
0.0
 11
955.36000197557939
 21
207.0876076368626
 31
0.0
  0
LINE
  5
1E56B
  8
SU
 10
955.16000197557923
 20
214.0088811703435
 30
0.0
 11
955.16000197557923
 21
206.96760763686271
 31
0.0
  0
LINE
  5
1E56C
  8
SU
 10
954.9600019755793
 20
214.12888117034359
 30
0.0
 11
954.9600019755793
 21
206.84760763686279
 31
0.0
  0
LINE
  5
1E56D
  8
SU
 10
954.76000197557937
 20
214.24888117034371
 30
0.0
 11
954.76000197557937
 21
206.7276076368627
 31
0.0
  0
LINE
  5
1E56E
  8
SU
 10
954.5600019755791
 20
214.3688811703436
 30
0.0
 11
954.5600019755791
 21
206.6076076368625
 31
0.0
  0
LINE
  5
1E56F
  8
SU
 10
954.36000197557939
 20
214.48888117034349
 30
0.0
 11
954.36000197557939
 21
206.48760763686261
 31
0.0
  0
LINE
  5
1E570
  8
SU
 10
954.16000197557901
 20
214.60888117034341
 30
0.0
 11
954.16000197557901
 21
206.3676076368628
 31
0.0
  0
LINE
  5
1E571
  8
SU
 10
953.9600019755793
 20
214.7288811703437
 30
0.0
 11
953.9600019755793
 21
206.24760763686271
 31
0.0
  0
LINE
  5
1E572
  8
SU
 10
953.76000197557937
 20
214.84888117034359
 30
0.0
 11
953.76000197557937
 21
206.12760763686251
 31
0.0
  0
LINE
  5
1E573
  8
SU
 10
953.56000197557921
 20
214.96888117034351
 30
0.0
 11
953.56000197557921
 21
206.00760763686259
 31
0.0
  0
LINE
  5
1E574
  8
SU
 10
953.36000197557928
 20
215.0888811703436
 30
0.0
 11
953.36000197557928
 21
205.88760763686281
 31
0.0
  0
LINE
  5
1E575
  8
SU
 10
953.16000197557901
 20
215.20888117034349
 30
0.0
 11
953.16000197557901
 21
205.76760763686261
 31
0.0
  0
LINE
  5
1E576
  8
SU
 10
952.9600019755793
 20
215.32888117034361
 30
0.0
 11
952.9600019755793
 21
205.64760763686269
 31
0.0
  0
LINE
  5
1E577
  8
SU
 10
952.76000197557937
 20
215.4488811703435
 30
0.0
 11
952.76000197557937
 21
205.5276076368626
 31
0.0
  0
LINE
  5
1E578
  8
SU
 10
952.56000197557921
 20
215.56888117034359
 30
0.0
 11
952.56000197557921
 21
205.40760763686271
 31
0.0
  0
LINE
  5
1E579
  8
SU
 10
952.36000197557928
 20
215.68888117034351
 30
0.0
 11
952.36000197557928
 21
205.28760763686259
 31
0.0
  0
LINE
  5
1E57A
  8
SU
 10
952.16000197557912
 20
215.8088811703436
 30
0.0
 11
952.16000197557912
 21
205.1676076368627
 31
0.0
  0
LINE
  5
1E57B
  8
SU
 10
951.9600019755793
 20
215.92888117034349
 30
0.0
 11
951.9600019755793
 21
205.04760763686261
 31
0.0
  0
LINE
  5
1E57C
  8
SU
 10
951.76000197557948
 20
216.04888117034341
 30
0.0
 11
951.76000197557948
 21
204.92760763686269
 31
0.0
  0
LINE
  5
1E57D
  8
SU
 10
951.56000197557921
 20
216.1688811703435
 30
0.0
 11
951.56000197557921
 21
204.8076076368626
 31
0.0
  0
LINE
  5
1E57E
  8
SU
 10
951.36000197557928
 20
216.2888811703437
 30
0.0
 11
951.36000197557928
 21
204.68760763686271
 31
0.0
  0
LINE
  5
1E57F
  8
SU
 10
951.16000197557912
 20
216.40888117034359
 30
0.0
 11
951.16000197557912
 21
204.56760763686259
 31
0.0
  0
LINE
  5
1E580
  8
SU
 10
958.02772992014673
 20
277.48824540360368
 30
0.0
 11
958.02772992014673
 21
227.48824440360329
 31
0.0
  0
LINE
  5
1E581
  8
SU
 10
736.0277299201457
 20
277.48824540360368
 30
0.0
 11
736.0277299201457
 21
227.48824440360329
 31
0.0
  0
LINE
  5
1E582
  8
SU
 10
958.02772992014673
 20
230.48824440360329
 30
0.0
 11
736.0277299201457
 21
230.48824440360329
 31
0.0
  0
LINE
  5
1E586
  8
SU
 10
958.02772992014673
 20
230.48824440360349
 30
0.0
 11
961.0277299201465
 21
230.48824440360349
 31
0.0
  0
LINE
  5
1E587
  8
SU
 10
961.0277299201465
 20
230.48824440360349
 30
0.0
 11
977.10106325347977
 21
230.48824440360349
 31
0.0
  0
LINE
  5
1E58A
  8
SU
 10
961.0277299201465
 20
273.98824540012629
 30
0.0
 11
961.0277299201465
 21
207.48824440360329
 31
0.0
  0
LINE
  5
1E58B
  8
SU
 10
508.0277299201436
 20
273.98824540012629
 30
0.0
 11
508.0277299201436
 21
207.48824440360329
 31
0.0
  0
LINE
  5
1E58C
  8
SU
 10
961.0277299201465
 20
210.48824440360329
 30
0.0
 11
508.0277299201436
 21
210.48824440360329
 31
0.0
  0
LINE
  5
1E58E
  8
SU
 10
512.02772992012694
 20
496.94918607316509
 30
0.0
 11
502.027729920127
 21
490.94918607316509
 31
0.0
  0
LINE
  5
1E58F
  8
SU
 10
512.02772992012694
 20
484.94918607316509
 30
0.0
 11
502.027729920127
 21
490.94918607316509
 31
0.0
  0
LINE
  5
1E590
  8
SU
 10
512.02772992012694
 20
496.94918607316509
 30
0.0
 11
512.02772992012694
 21
484.94918607316509
 31
0.0
  0
LINE
  5
1E591
  8
SU
 10
502.0954578646942
 20
490.98982283990568
 30
0.0
 11
502.0954578646942
 21
490.90854930642479
 31
0.0
  0
LINE
  5
1E592
  8
SU
 10
502.29545786469401
 20
491.10982283990558
 30
0.0
 11
502.29545786469401
 21
490.7885493064249
 31
0.0
  0
LINE
  5
1E593
  8
SU
 10
502.49545786469429
 20
491.22982283990569
 30
0.0
 11
502.49545786469429
 21
490.66854930642472
 31
0.0
  0
LINE
  5
1E594
  8
SU
 10
502.69545786469411
 20
491.34982283990558
 30
0.0
 11
502.69545786469411
 21
490.5485493064246
 31
0.0
  0
LINE
  5
1E595
  8
SU
 10
502.89545786469438
 20
491.46982283990548
 30
0.0
 11
502.89545786469438
 21
490.42854930642471
 31
0.0
  0
LINE
  5
1E596
  8
SU
 10
503.0954578646942
 20
491.58982283990559
 30
0.0
 11
503.0954578646942
 21
490.30854930642482
 31
0.0
  0
LINE
  5
1E597
  8
SU
 10
503.29545786469407
 20
491.70982283990583
 30
0.0
 11
503.29545786469407
 21
490.18854930642482
 31
0.0
  0
LINE
  5
1E598
  8
SU
 10
503.49545786469429
 20
491.82982283990572
 30
0.0
 11
503.49545786469429
 21
490.06854930642459
 31
0.0
  0
LINE
  5
1E599
  8
SU
 10
503.69545786469411
 20
491.94982283990561
 30
0.0
 11
503.69545786469411
 21
489.9485493064247
 31
0.0
  0
LINE
  5
1E59A
  8
SU
 10
503.89545786469438
 20
492.06982283990538
 30
0.0
 11
503.89545786469438
 21
489.8285493064248
 31
0.0
  0
LINE
  5
1E59B
  8
SU
 10
504.0954578646942
 20
492.18982283990567
 30
0.0
 11
504.0954578646942
 21
489.70854930642469
 31
0.0
  0
LINE
  5
1E59C
  8
SU
 10
504.29545786469401
 20
492.30982283990562
 30
0.0
 11
504.29545786469401
 21
489.58854930642462
 31
0.0
  0
LINE
  5
1E59D
  8
SU
 10
504.49545786469429
 20
492.42982283990551
 30
0.0
 11
504.49545786469429
 21
489.46854930642468
 31
0.0
  0
LINE
  5
1E59E
  8
SU
 10
504.69545786469411
 20
492.54982283990569
 30
0.0
 11
504.69545786469411
 21
489.34854930642479
 31
0.0
  0
LINE
  5
1E59F
  8
SU
 10
504.89545786469438
 20
492.66982283990558
 30
0.0
 11
504.89545786469438
 21
489.22854930642472
 31
0.0
  0
LINE
  5
1E5A0
  8
SU
 10
505.0954578646942
 20
492.78982283990558
 30
0.0
 11
505.0954578646942
 21
489.10854930642478
 31
0.0
  0
LINE
  5
1E5A1
  8
SU
 10
505.29545786469401
 20
492.90982283990547
 30
0.0
 11
505.29545786469401
 21
488.98854930642472
 31
0.0
  0
LINE
  5
1E5A2
  8
SU
 10
505.49545786469429
 20
493.02982283990571
 30
0.0
 11
505.49545786469429
 21
488.86854930642482
 31
0.0
  0
LINE
  5
1E5A3
  8
SU
 10
505.69545786469422
 20
493.1498228399056
 30
0.0
 11
505.69545786469422
 21
488.74854930642471
 31
0.0
  0
LINE
  5
1E5A4
  8
SU
 10
505.89545786469438
 20
493.26982283990571
 30
0.0
 11
505.89545786469438
 21
488.62854930642482
 31
0.0
  0
LINE
  5
1E5A5
  8
SU
 10
506.0954578646942
 20
493.38982283990561
 30
0.0
 11
506.0954578646942
 21
488.5085493064247
 31
0.0
  0
LINE
  5
1E5A6
  8
SU
 10
506.29545786469401
 20
493.5098228399055
 30
0.0
 11
506.29545786469401
 21
488.38854930642481
 31
0.0
  0
LINE
  5
1E5A7
  8
SU
 10
506.49545786469429
 20
493.6298228399055
 30
0.0
 11
506.49545786469429
 21
488.26854930642457
 31
0.0
  0
LINE
  5
1E5A8
  8
SU
 10
506.69545786469411
 20
493.74982283990568
 30
0.0
 11
506.69545786469411
 21
488.14854930642468
 31
0.0
  0
LINE
  5
1E5A9
  8
SU
 10
506.89545786469438
 20
493.86982283990562
 30
0.0
 11
506.89545786469438
 21
488.02854930642462
 31
0.0
  0
LINE
  5
1E5AA
  8
SU
 10
507.0954578646942
 20
493.98982283990568
 30
0.0
 11
507.0954578646942
 21
487.90854930642467
 31
0.0
  0
LINE
  5
1E5AB
  8
SU
 10
507.29545786469407
 20
494.10982283990558
 30
0.0
 11
507.29545786469407
 21
487.7885493064249
 31
0.0
  0
LINE
  5
1E5AC
  8
SU
 10
507.49545786469429
 20
494.22982283990569
 30
0.0
 11
507.49545786469429
 21
487.66854930642478
 31
0.0
  0
LINE
  5
1E5AD
  8
SU
 10
507.69545786469411
 20
494.34982283990558
 30
0.0
 11
507.69545786469411
 21
487.5485493064246
 31
0.0
  0
LINE
  5
1E5AE
  8
SU
 10
507.89545786469438
 20
494.46982283990548
 30
0.0
 11
507.89545786469438
 21
487.42854930642471
 31
0.0
  0
LINE
  5
1E5AF
  8
SU
 10
508.0954578646942
 20
494.58982283990559
 30
0.0
 11
508.0954578646942
 21
487.30854930642482
 31
0.0
  0
LINE
  5
1E5B0
  8
SU
 10
508.29545786469407
 20
494.70982283990571
 30
0.0
 11
508.29545786469407
 21
487.1885493064247
 31
0.0
  0
LINE
  5
1E5B1
  8
SU
 10
508.49545786469429
 20
494.8298228399056
 30
0.0
 11
508.49545786469429
 21
487.06854930642459
 31
0.0
  0
LINE
  5
1E5B2
  8
SU
 10
508.69545786469411
 20
494.94982283990549
 30
0.0
 11
508.69545786469411
 21
486.9485493064247
 31
0.0
  0
LINE
  5
1E5B3
  8
SU
 10
508.89545786469438
 20
495.06982283990538
 30
0.0
 11
508.89545786469438
 21
486.8285493064248
 31
0.0
  0
LINE
  5
1E5B4
  8
SU
 10
509.0954578646942
 20
495.18982283990567
 30
0.0
 11
509.0954578646942
 21
486.70854930642469
 31
0.0
  0
LINE
  5
1E5B5
  8
SU
 10
509.29545786469401
 20
495.30982283990562
 30
0.0
 11
509.29545786469401
 21
486.58854930642462
 31
0.0
  0
LINE
  5
1E5B6
  8
SU
 10
509.49545786469429
 20
495.42982283990551
 30
0.0
 11
509.49545786469429
 21
486.46854930642468
 31
0.0
  0
LINE
  5
1E5B7
  8
SU
 10
509.69545786469422
 20
495.54982283990569
 30
0.0
 11
509.69545786469422
 21
486.34854930642479
 31
0.0
  0
LINE
  5
1E5B8
  8
SU
 10
509.89545786469438
 20
495.66982283990552
 30
0.0
 11
509.89545786469438
 21
486.22854930642472
 31
0.0
  0
LINE
  5
1E5B9
  8
SU
 10
510.0954578646942
 20
495.7898228399057
 30
0.0
 11
510.0954578646942
 21
486.10854930642478
 31
0.0
  0
LINE
  5
1E5BA
  8
SU
 10
510.29545786469401
 20
495.90982283990559
 30
0.0
 11
510.29545786469401
 21
485.98854930642472
 31
0.0
  0
LINE
  5
1E5BB
  8
SU
 10
510.49545786469429
 20
496.02982283990559
 30
0.0
 11
510.49545786469429
 21
485.86854930642482
 31
0.0
  0
LINE
  5
1E5BC
  8
SU
 10
510.69545786469411
 20
496.14982283990548
 30
0.0
 11
510.69545786469411
 21
485.74854930642459
 31
0.0
  0
LINE
  5
1E5BD
  8
SU
 10
510.89545786469438
 20
496.26982283990571
 30
0.0
 11
510.89545786469438
 21
485.6285493064247
 31
0.0
  0
LINE
  5
1E5BE
  8
SU
 10
511.0954578646942
 20
496.38982283990561
 30
0.0
 11
511.0954578646942
 21
485.5085493064247
 31
0.0
  0
LINE
  5
1E5BF
  8
SU
 10
511.29545786469407
 20
496.5098228399055
 30
0.0
 11
511.29545786469407
 21
485.38854930642481
 31
0.0
  0
LINE
  5
1E5C0
  8
SU
 10
511.49545786469429
 20
496.62982283990561
 30
0.0
 11
511.49545786469429
 21
485.26854930642469
 31
0.0
  0
LINE
  5
1E5C1
  8
SU
 10
511.69545786469411
 20
496.74982283990568
 30
0.0
 11
511.69545786469411
 21
485.1485493064248
 31
0.0
  0
LINE
  5
1E5C2
  8
SU
 10
511.89545786469438
 20
496.86982283990551
 30
0.0
 11
511.89545786469438
 21
485.02854930642462
 31
0.0
  0
LINE
  5
1E5C3
  8
SU
 10
792.02772992015844
 20
496.94918607316509
 30
0.0
 11
802.02772992015844
 21
490.94918607316509
 31
0.0
  0
LINE
  5
1E5C4
  8
SU
 10
792.02772992015844
 20
484.94918607316509
 30
0.0
 11
802.02772992015844
 21
490.94918607316509
 31
0.0
  0
LINE
  5
1E5C5
  8
SU
 10
792.02772992015844
 20
496.94918607316509
 30
0.0
 11
792.02772992015844
 21
484.94918607316509
 31
0.0
  0
LINE
  5
1E5C6
  8
SU
 10
801.96000197559124
 20
490.98982283990568
 30
0.0
 11
801.96000197559124
 21
490.90854930642479
 31
0.0
  0
LINE
  5
1E5C7
  8
SU
 10
801.76000197559142
 20
491.10982283990558
 30
0.0
 11
801.76000197559142
 21
490.7885493064249
 31
0.0
  0
LINE
  5
1E5C8
  8
SU
 10
801.56000197559115
 20
491.22982283990569
 30
0.0
 11
801.56000197559115
 21
490.66854930642472
 31
0.0
  0
LINE
  5
1E5C9
  8
SU
 10
801.36000197559122
 20
491.34982283990558
 30
0.0
 11
801.36000197559122
 21
490.5485493064246
 31
0.0
  0
LINE
  5
1E5CA
  8
SU
 10
801.16000197559094
 20
491.46982283990548
 30
0.0
 11
801.16000197559094
 21
490.42854930642471
 31
0.0
  0
LINE
  5
1E5CB
  8
SU
 10
800.96000197559135
 20
491.58982283990559
 30
0.0
 11
800.96000197559135
 21
490.30854930642482
 31
0.0
  0
LINE
  5
1E5CC
  8
SU
 10
800.76000197559142
 20
491.70982283990583
 30
0.0
 11
800.76000197559142
 21
490.18854930642482
 31
0.0
  0
LINE
  5
1E5CD
  8
SU
 10
800.56000197559115
 20
491.82982283990572
 30
0.0
 11
800.56000197559115
 21
490.06854930642459
 31
0.0
  0
LINE
  5
1E5CE
  8
SU
 10
800.36000197559122
 20
491.94982283990561
 30
0.0
 11
800.36000197559122
 21
489.9485493064247
 31
0.0
  0
LINE
  5
1E5CF
  8
SU
 10
800.16000197559094
 20
492.06982283990538
 30
0.0
 11
800.16000197559094
 21
489.8285493064248
 31
0.0
  0
LINE
  5
1E5D0
  8
SU
 10
799.96000197559124
 20
492.18982283990567
 30
0.0
 11
799.96000197559124
 21
489.70854930642469
 31
0.0
  0
LINE
  5
1E5D1
  8
SU
 10
799.76000197559142
 20
492.30982283990562
 30
0.0
 11
799.76000197559142
 21
489.58854930642462
 31
0.0
  0
LINE
  5
1E5D2
  8
SU
 10
799.56000197559115
 20
492.42982283990551
 30
0.0
 11
799.56000197559115
 21
489.46854930642468
 31
0.0
  0
LINE
  5
1E5D3
  8
SU
 10
799.36000197559133
 20
492.54982283990569
 30
0.0
 11
799.36000197559133
 21
489.34854930642479
 31
0.0
  0
LINE
  5
1E5D4
  8
SU
 10
799.16000197559094
 20
492.66982283990558
 30
0.0
 11
799.16000197559094
 21
489.22854930642472
 31
0.0
  0
LINE
  5
1E5D5
  8
SU
 10
798.96000197559124
 20
492.78982283990558
 30
0.0
 11
798.96000197559124
 21
489.10854930642478
 31
0.0
  0
LINE
  5
1E5D6
  8
SU
 10
798.76000197559142
 20
492.90982283990547
 30
0.0
 11
798.76000197559142
 21
488.98854930642472
 31
0.0
  0
LINE
  5
1E5D7
  8
SU
 10
798.56000197559115
 20
493.02982283990571
 30
0.0
 11
798.56000197559115
 21
488.86854930642482
 31
0.0
  0
LINE
  5
1E5D8
  8
SU
 10
798.36000197559133
 20
493.1498228399056
 30
0.0
 11
798.36000197559133
 21
488.74854930642471
 31
0.0
  0
LINE
  5
1E5D9
  8
SU
 10
798.16000197559094
 20
493.26982283990571
 30
0.0
 11
798.16000197559094
 21
488.62854930642482
 31
0.0
  0
LINE
  5
1E5DA
  8
SU
 10
797.96000197559124
 20
493.38982283990561
 30
0.0
 11
797.96000197559124
 21
488.5085493064247
 31
0.0
  0
LINE
  5
1E5DB
  8
SU
 10
797.76000197559142
 20
493.5098228399055
 30
0.0
 11
797.76000197559142
 21
488.38854930642481
 31
0.0
  0
LINE
  5
1E5DC
  8
SU
 10
797.56000197559115
 20
493.6298228399055
 30
0.0
 11
797.56000197559115
 21
488.26854930642457
 31
0.0
  0
LINE
  5
1E5DD
  8
SU
 10
797.36000197559133
 20
493.74982283990568
 30
0.0
 11
797.36000197559133
 21
488.14854930642468
 31
0.0
  0
LINE
  5
1E5DE
  8
SU
 10
797.16000197559106
 20
493.86982283990562
 30
0.0
 11
797.16000197559106
 21
488.02854930642462
 31
0.0
  0
LINE
  5
1E5DF
  8
SU
 10
796.96000197559124
 20
493.98982283990568
 30
0.0
 11
796.96000197559124
 21
487.90854930642467
 31
0.0
  0
LINE
  5
1E5E0
  8
SU
 10
796.76000197559142
 20
494.10982283990558
 30
0.0
 11
796.76000197559142
 21
487.7885493064249
 31
0.0
  0
LINE
  5
1E5E1
  8
SU
 10
796.56000197559115
 20
494.22982283990569
 30
0.0
 11
796.56000197559115
 21
487.66854930642478
 31
0.0
  0
LINE
  5
1E5E2
  8
SU
 10
796.36000197559133
 20
494.34982283990558
 30
0.0
 11
796.36000197559133
 21
487.5485493064246
 31
0.0
  0
LINE
  5
1E5E3
  8
SU
 10
796.16000197559094
 20
494.46982283990548
 30
0.0
 11
796.16000197559094
 21
487.42854930642471
 31
0.0
  0
LINE
  5
1E5E4
  8
SU
 10
795.96000197559124
 20
494.58982283990559
 30
0.0
 11
795.96000197559124
 21
487.30854930642482
 31
0.0
  0
LINE
  5
1E5E5
  8
SU
 10
795.76000197559142
 20
494.70982283990571
 30
0.0
 11
795.76000197559142
 21
487.1885493064247
 31
0.0
  0
LINE
  5
1E5E6
  8
SU
 10
795.56000197559115
 20
494.8298228399056
 30
0.0
 11
795.56000197559115
 21
487.06854930642459
 31
0.0
  0
LINE
  5
1E5E7
  8
SU
 10
795.36000197559133
 20
494.94982283990549
 30
0.0
 11
795.36000197559133
 21
486.9485493064247
 31
0.0
  0
LINE
  5
1E5E8
  8
SU
 10
795.16000197559094
 20
495.06982283990538
 30
0.0
 11
795.16000197559094
 21
486.8285493064248
 31
0.0
  0
LINE
  5
1E5E9
  8
SU
 10
794.96000197559124
 20
495.18982283990567
 30
0.0
 11
794.96000197559124
 21
486.70854930642469
 31
0.0
  0
LINE
  5
1E5EA
  8
SU
 10
794.76000197559142
 20
495.30982283990562
 30
0.0
 11
794.76000197559142
 21
486.58854930642462
 31
0.0
  0
LINE
  5
1E5EB
  8
SU
 10
794.56000197559115
 20
495.42982283990551
 30
0.0
 11
794.56000197559115
 21
486.46854930642468
 31
0.0
  0
LINE
  5
1E5EC
  8
SU
 10
794.36000197559133
 20
495.54982283990569
 30
0.0
 11
794.36000197559133
 21
486.34854930642479
 31
0.0
  0
LINE
  5
1E5ED
  8
SU
 10
794.16000197559094
 20
495.66982283990552
 30
0.0
 11
794.16000197559094
 21
486.22854930642472
 31
0.0
  0
LINE
  5
1E5EE
  8
SU
 10
793.96000197559124
 20
495.7898228399057
 30
0.0
 11
793.96000197559124
 21
486.10854930642478
 31
0.0
  0
LINE
  5
1E5EF
  8
SU
 10
793.76000197559142
 20
495.90982283990559
 30
0.0
 11
793.76000197559142
 21
485.98854930642472
 31
0.0
  0
LINE
  5
1E5F0
  8
SU
 10
793.56000197559115
 20
496.02982283990559
 30
0.0
 11
793.56000197559115
 21
485.86854930642482
 31
0.0
  0
LINE
  5
1E5F1
  8
SU
 10
793.36000197559133
 20
496.14982283990548
 30
0.0
 11
793.36000197559133
 21
485.74854930642459
 31
0.0
  0
LINE
  5
1E5F2
  8
SU
 10
793.16000197559106
 20
496.26982283990571
 30
0.0
 11
793.16000197559106
 21
485.6285493064247
 31
0.0
  0
LINE
  5
1E5F3
  8
SU
 10
792.96000197559124
 20
496.38982283990561
 30
0.0
 11
792.96000197559124
 21
485.5085493064247
 31
0.0
  0
LINE
  5
1E5F4
  8
SU
 10
792.76000197559142
 20
496.5098228399055
 30
0.0
 11
792.76000197559142
 21
485.38854930642481
 31
0.0
  0
LINE
  5
1E5F5
  8
SU
 10
792.56000197559115
 20
496.62982283990561
 30
0.0
 11
792.56000197559115
 21
485.26854930642469
 31
0.0
  0
LINE
  5
1E5F6
  8
SU
 10
792.36000197559133
 20
496.74982283990568
 30
0.0
 11
792.36000197559133
 21
485.1485493064248
 31
0.0
  0
LINE
  5
1E5F7
  8
SU
 10
792.16000197559094
 20
496.86982283990551
 30
0.0
 11
792.16000197559094
 21
485.02854930642462
 31
0.0
  0
LINE
  5
1E5F8
  8
SU
 10
792.02772992014525
 20
591.94918707316583
 30
0.0
 11
765.02772992014525
 21
591.94918707316594
 31
0.0
  0
LINE
  5
1E5F9
  8
SU
 10
792.02772992014525
 20
558.94918707316606
 30
0.0
 11
765.02772992014525
 21
558.94918707316617
 31
0.0
  0
LINE
  5
1E5FA
  8
SU
 10
768.02772992014525
 20
591.94918707316583
 30
0.0
 11
768.02772992014525
 21
558.94918707316606
 31
0.0
  0
LINE
  5
1E5FE
  8
SU
 10
502.027729920127
 20
532.9491870731722
 30
0.0
 11
502.027729920127
 21
487.94918607316532
 31
0.0
  0
LINE
  5
1E5FF
  8
SU
 10
802.02772992015844
 20
532.9491870731722
 30
0.0
 11
802.02772992015844
 21
487.94918607316532
 31
0.0
  0
LINE
  5
1E600
  8
SU
 10
502.027729920127
 20
490.94918607316538
 30
0.0
 11
802.02772992015844
 21
490.94918607316538
 31
0.0
  0
LINE
  5
1E602
  8
SU
 10
793.02772992014525
 20
557.94918707316594
 30
0.0
 11
793.02772992014525
 21
507.94918607316532
 31
0.0
  0
LINE
  5
1E603
  8
SU
 10
802.02772992015844
 20
510.94918607316538
 30
0.0
 11
793.02772992014525
 21
510.94918607316538
 31
0.0
  0
LINE
  5
1E607
  8
SU
 10
511.02772992014411
 20
510.94918607316538
 30
0.0
 11
793.02772992014525
 21
510.94918607316538
 31
0.0
  0
LINE
  5
1E60B
  8
SU
 10
511.02772992014411
 20
557.94918707316594
 30
0.0
 11
511.02772992014411
 21
507.94918607316532
 31
0.0
  0
LINE
  5
1E60C
  8
SU
 10
502.027729920127
 20
510.94918607316538
 30
0.0
 11
511.02772992014411
 21
510.94918607316538
 31
0.0
  0
LINE
  5
1E610
  8
SU
 10
216.43887717481149
 20
250.8015126355445
 30
0.0
 11
216.43887717481149
 21
201.80150563554429
 31
0.0
  0
LINE
  5
1E611
  8
SU
 10
256.43887717481152
 20
250.80150563554321
 30
0.0
 11
256.43887717481152
 21
201.80150563554429
 31
0.0
  0
LINE
  5
1E612
  8
SU
 10
216.43887717481149
 20
204.80150563554429
 30
0.0
 11
256.43887717481152
 21
204.80150563554429
 31
0.0
  0
LINE
  5
1E616
  8
SU
 10
224.93887717481149
 20
240.5015054448092
 30
0.0
 11
224.93887717481149
 21
216.80150563554429
 31
0.0
  0
LINE
  5
1E617
  8
SU
 10
247.93887717481149
 20
240.5015054448092
 30
0.0
 11
247.93887717481149
 21
216.80150563554429
 31
0.0
  0
LINE
  5
1E618
  8
SU
 10
224.93887717481149
 20
219.8015056355444
 30
0.0
 11
247.93887717481149
 21
219.8015056355444
 31
0.0
  0
LINE
  5
1E61C
  8
SU
 10
312.08091563880339
 20
261.8015056355444
 30
0.0
 11
318.08091563880328
 21
251.80150563554429
 31
0.0
  0
LINE
  5
1E61D
  8
SU
 10
324.08091563880328
 20
261.8015056355444
 30
0.0
 11
318.08091563880328
 21
251.80150563554429
 31
0.0
  0
LINE
  5
1E61E
  8
SU
 10
312.08091563880339
 20
261.8015056355444
 30
0.0
 11
324.08091563880328
 21
261.8015056355444
 31
0.0
  0
LINE
  5
1E61F
  8
SU
 10
318.04027887206269
 20
251.86923358011151
 30
0.0
 11
318.1215524055437
 21
251.86923358011151
 31
0.0
  0
LINE
  5
1E620
  8
SU
 10
317.9202788720628
 20
252.0692335801113
 30
0.0
 11
318.24155240554359
 21
252.0692335801113
 31
0.0
  0
LINE
  5
1E621
  8
SU
 10
317.80027887206268
 20
252.2692335801116
 30
0.0
 11
318.3615524055437
 21
252.2692335801116
 31
0.0
  0
LINE
  5
1E622
  8
SU
 10
317.6802788720629
 20
252.46923358011139
 30
0.0
 11
318.48155240554382
 21
252.46923358011139
 31
0.0
  0
LINE
  5
1E623
  8
SU
 10
317.56027887206301
 20
252.66923358011169
 30
0.0
 11
318.60155240554371
 21
252.66923358011169
 31
0.0
  0
LINE
  5
1E624
  8
SU
 10
317.44027887206278
 20
252.86923358011151
 30
0.0
 11
318.7215524055436
 21
252.86923358011151
 31
0.0
  0
LINE
  5
1E625
  8
SU
 10
317.32027887206272
 20
253.06923358011139
 30
0.0
 11
318.84155240554372
 21
253.06923358011139
 31
0.0
  0
LINE
  5
1E626
  8
SU
 10
317.20027887206282
 20
253.2692335801116
 30
0.0
 11
318.96155240554378
 21
253.2692335801116
 31
0.0
  0
LINE
  5
1E627
  8
SU
 10
317.08027887206288
 20
253.46923358011151
 30
0.0
 11
319.08155240554368
 21
253.46923358011151
 31
0.0
  0
LINE
  5
1E628
  8
SU
 10
316.96027887206299
 20
253.66923358011169
 30
0.0
 11
319.20155240554362
 21
253.66923358011169
 31
0.0
  0
LINE
  5
1E629
  8
SU
 10
316.8402788720627
 20
253.86923358011151
 30
0.0
 11
319.3215524055438
 21
253.86923358011151
 31
0.0
  0
LINE
  5
1E62A
  8
SU
 10
316.72027887206281
 20
254.0692335801113
 30
0.0
 11
319.44155240554392
 21
254.0692335801113
 31
0.0
  0
LINE
  5
1E62B
  8
SU
 10
316.60027887206292
 20
254.2692335801116
 30
0.0
 11
319.56155240554369
 21
254.2692335801116
 31
0.0
  0
LINE
  5
1E62C
  8
SU
 10
316.4802788720628
 20
254.46923358011139
 30
0.0
 11
319.68155240554358
 21
254.46923358011139
 31
0.0
  0
LINE
  5
1E62D
  8
SU
 10
316.36027887206291
 20
254.66923358011169
 30
0.0
 11
319.8015524055437
 21
254.66923358011169
 31
0.0
  0
LINE
  5
1E62E
  8
SU
 10
316.24027887206279
 20
254.86923358011151
 30
0.0
 11
319.92155240554359
 21
254.86923358011151
 31
0.0
  0
LINE
  5
1E62F
  8
SU
 10
316.1202788720629
 20
255.06923358011139
 30
0.0
 11
320.04155240554383
 21
255.06923358011139
 31
0.0
  0
LINE
  5
1E630
  8
SU
 10
316.00027887206278
 20
255.2692335801116
 30
0.0
 11
320.16155240554372
 21
255.2692335801116
 31
0.0
  0
LINE
  5
1E631
  8
SU
 10
315.88027887206289
 20
255.46923358011151
 30
0.0
 11
320.28155240554378
 21
255.46923358011151
 31
0.0
  0
LINE
  5
1E632
  8
SU
 10
315.76027887206283
 20
255.66923358011169
 30
0.0
 11
320.40155240554373
 21
255.66923358011169
 31
0.0
  0
LINE
  5
1E633
  8
SU
 10
315.64027887206288
 20
255.86923358011151
 30
0.0
 11
320.52155240554379
 21
255.86923358011151
 31
0.0
  0
LINE
  5
1E634
  8
SU
 10
315.52027887206299
 20
256.0692335801113
 30
0.0
 11
320.64155240554368
 21
256.0692335801113
 31
0.0
  0
LINE
  5
1E635
  8
SU
 10
315.40027887206293
 20
256.26923358011157
 30
0.0
 11
320.7615524055438
 21
256.26923358011157
 31
0.0
  0
LINE
  5
1E636
  8
SU
 10
315.28027887206281
 20
256.46923358011139
 30
0.0
 11
320.88155240554369
 21
256.46923358011139
 31
0.0
  0
LINE
  5
1E637
  8
SU
 10
315.16027887206292
 20
256.66923358011172
 30
0.0
 11
321.0015524055438
 21
256.66923358011172
 31
0.0
  0
LINE
  5
1E638
  8
SU
 10
315.0402788720628
 20
256.86923358011148
 30
0.0
 11
321.1215524055437
 21
256.86923358011148
 31
0.0
  0
LINE
  5
1E639
  8
SU
 10
314.92027887206291
 20
257.06923358011142
 30
0.0
 11
321.24155240554359
 21
257.06923358011142
 31
0.0
  0
LINE
  5
1E63A
  8
SU
 10
314.80027887206268
 20
257.26923358011157
 30
0.0
 11
321.3615524055437
 21
257.26923358011157
 31
0.0
  0
LINE
  5
1E63B
  8
SU
 10
314.68027887206279
 20
257.46923358011151
 30
0.0
 11
321.48155240554382
 21
257.46923358011151
 31
0.0
  0
LINE
  5
1E63C
  8
SU
 10
314.5602788720629
 20
257.66923358011172
 30
0.0
 11
321.60155240554371
 21
257.66923358011172
 31
0.0
  0
LINE
  5
1E63D
  8
SU
 10
314.44027887206278
 20
257.8692335801116
 30
0.0
 11
321.7215524055436
 21
257.8692335801116
 31
0.0
  0
LINE
  5
1E63E
  8
SU
 10
314.32027887206272
 20
258.06923358011142
 30
0.0
 11
321.84155240554372
 21
258.06923358011142
 31
0.0
  0
LINE
  5
1E63F
  8
SU
 10
314.20027887206282
 20
258.26923358011157
 30
0.0
 11
321.96155240554378
 21
258.26923358011157
 31
0.0
  0
LINE
  5
1E640
  8
SU
 10
314.08027887206299
 20
258.46923358011139
 30
0.0
 11
322.08155240554368
 21
258.46923358011139
 31
0.0
  0
LINE
  5
1E641
  8
SU
 10
313.9602788720631
 20
258.66923358011172
 30
0.0
 11
322.20155240554362
 21
258.66923358011172
 31
0.0
  0
LINE
  5
1E642
  8
SU
 10
313.8402788720627
 20
258.86923358011148
 30
0.0
 11
322.32155240554368
 21
258.86923358011148
 31
0.0
  0
LINE
  5
1E643
  8
SU
 10
313.72027887206281
 20
259.06923358011142
 30
0.0
 11
322.44155240554392
 21
259.06923358011142
 31
0.0
  0
LINE
  5
1E644
  8
SU
 10
313.60027887206292
 20
259.26923358011157
 30
0.0
 11
322.56155240554381
 21
259.26923358011157
 31
0.0
  0
LINE
  5
1E645
  8
SU
 10
313.4802788720628
 20
259.46923358011151
 30
0.0
 11
322.6815524055437
 21
259.46923358011151
 31
0.0
  0
LINE
  5
1E646
  8
SU
 10
313.36027887206291
 20
259.66923358011172
 30
0.0
 11
322.80155240554382
 21
259.66923358011172
 31
0.0
  0
LINE
  5
1E647
  8
SU
 10
313.24027887206279
 20
259.8692335801116
 30
0.0
 11
322.92155240554371
 21
259.8692335801116
 31
0.0
  0
LINE
  5
1E648
  8
SU
 10
313.1202788720629
 20
260.06923358011142
 30
0.0
 11
323.04155240554383
 21
260.06923358011142
 31
0.0
  0
LINE
  5
1E649
  8
SU
 10
313.00027887206278
 20
260.26923358011157
 30
0.0
 11
323.1615524055436
 21
260.26923358011157
 31
0.0
  0
LINE
  5
1E64A
  8
SU
 10
312.88027887206289
 20
260.46923358011139
 30
0.0
 11
323.28155240554378
 21
260.46923358011139
 31
0.0
  0
LINE
  5
1E64B
  8
SU
 10
312.76027887206283
 20
260.66923358011172
 30
0.0
 11
323.40155240554373
 21
260.66923358011172
 31
0.0
  0
LINE
  5
1E64C
  8
SU
 10
312.64027887206288
 20
260.86923358011148
 30
0.0
 11
323.52155240554379
 21
260.86923358011148
 31
0.0
  0
LINE
  5
1E64D
  8
SU
 10
312.52027887206299
 20
261.06923358011142
 30
0.0
 11
323.64155240554368
 21
261.06923358011142
 31
0.0
  0
LINE
  5
1E64E
  8
SU
 10
312.40027887206293
 20
261.26923358011157
 30
0.0
 11
323.7615524055438
 21
261.26923358011157
 31
0.0
  0
LINE
  5
1E64F
  8
SU
 10
312.28027887206269
 20
261.46923358011151
 30
0.0
 11
323.88155240554369
 21
261.46923358011151
 31
0.0
  0
LINE
  5
1E650
  8
SU
 10
312.16027887206292
 20
261.66923358011172
 30
0.0
 11
324.0015524055438
 21
261.66923358011172
 31
0.0
  0
LINE
  5
1E651
  8
SU
 10
298.08091563880322
 20
251.80150563554429
 30
0.0
 11
298.08091563880322
 21
269.8015056355444
 31
0.0
  0
LINE
  5
1E654
  8
SU
 10
219.93887718176549
 20
571.30150563554434
 30
0.0
 11
219.93887718176549
 21
544.30150563554434
 31
0.0
  0
LINE
  5
1E655
  8
SU
 10
252.93887718160741
 20
571.30150611532781
 30
0.0
 11
252.93887718160741
 21
544.30150563554434
 31
0.0
  0
LINE
  5
1E656
  8
SU
 10
219.93887718176549
 20
547.30150563554434
 30
0.0
 11
252.93887718160741
 21
547.30150563554434
 31
0.0
  0
LINE
  5
1E65A
  8
SU
 10
253.93887718160741
 20
572.30150611532781
 30
0.0
 11
301.08091563880311
 21
572.3015061153277
 31
0.0
  0
LINE
  5
1E65B
  8
SU
 10
298.08091563880311
 20
572.3015061153277
 30
0.0
 11
298.08091563880311
 21
579.30150553707449
 31
0.0
  0
LINE
  5
1E65E
  8
SU
 10
312.08091563880339
 20
591.80150563554389
 30
0.0
 11
318.08091563880328
 21
601.80150563554378
 31
0.0
  0
LINE
  5
1E65F
  8
SU
 10
324.08091563880328
 20
591.80150563554389
 30
0.0
 11
318.08091563880328
 21
601.80150563554378
 31
0.0
  0
LINE
  5
1E660
  8
SU
 10
312.08091563880339
 20
591.80150563554389
 30
0.0
 11
324.08091563880328
 21
591.80150563554389
 31
0.0
  0
LINE
  5
1E661
  8
SU
 10
318.04027887206269
 20
601.73377769097669
 30
0.0
 11
318.1215524055437
 21
601.73377769097669
 31
0.0
  0
LINE
  5
1E662
  8
SU
 10
317.9202788720628
 20
601.53377769097688
 30
0.0
 11
318.24155240554359
 21
601.53377769097688
 31
0.0
  0
LINE
  5
1E663
  8
SU
 10
317.80027887206268
 20
601.33377769097649
 30
0.0
 11
318.3615524055437
 21
601.33377769097649
 31
0.0
  0
LINE
  5
1E664
  8
SU
 10
317.6802788720629
 20
601.13377769097667
 30
0.0
 11
318.48155240554382
 21
601.13377769097667
 31
0.0
  0
LINE
  5
1E665
  8
SU
 10
317.56027887206301
 20
600.93377769097651
 30
0.0
 11
318.60155240554371
 21
600.93377769097651
 31
0.0
  0
LINE
  5
1E666
  8
SU
 10
317.44027887206278
 20
600.73377769097669
 30
0.0
 11
318.7215524055436
 21
600.73377769097669
 31
0.0
  0
LINE
  5
1E667
  8
SU
 10
317.32027887206272
 20
600.53377769097688
 30
0.0
 11
318.84155240554372
 21
600.53377769097688
 31
0.0
  0
LINE
  5
1E668
  8
SU
 10
317.20027887206282
 20
600.33377769097649
 30
0.0
 11
318.96155240554378
 21
600.33377769097649
 31
0.0
  0
LINE
  5
1E669
  8
SU
 10
317.08027887206288
 20
600.13377769097667
 30
0.0
 11
319.08155240554368
 21
600.13377769097667
 31
0.0
  0
LINE
  5
1E66A
  8
SU
 10
316.96027887206299
 20
599.93377769097651
 30
0.0
 11
319.20155240554362
 21
599.93377769097651
 31
0.0
  0
LINE
  5
1E66B
  8
SU
 10
316.8402788720627
 20
599.73377769097658
 30
0.0
 11
319.3215524055438
 21
599.73377769097658
 31
0.0
  0
LINE
  5
1E66C
  8
SU
 10
316.72027887206281
 20
599.53377769097676
 30
0.0
 11
319.44155240554392
 21
599.53377769097676
 31
0.0
  0
LINE
  5
1E66D
  8
SU
 10
316.60027887206292
 20
599.3337776909766
 30
0.0
 11
319.56155240554369
 21
599.3337776909766
 31
0.0
  0
LINE
  5
1E66E
  8
SU
 10
316.4802788720628
 20
599.13377769097679
 30
0.0
 11
319.68155240554358
 21
599.13377769097679
 31
0.0
  0
LINE
  5
1E66F
  8
SU
 10
316.36027887206291
 20
598.9337776909764
 30
0.0
 11
319.8015524055437
 21
598.9337776909764
 31
0.0
  0
LINE
  5
1E670
  8
SU
 10
316.24027887206279
 20
598.73377769097658
 30
0.0
 11
319.92155240554359
 21
598.73377769097658
 31
0.0
  0
LINE
  5
1E671
  8
SU
 10
316.1202788720629
 20
598.53377769097676
 30
0.0
 11
320.04155240554383
 21
598.53377769097676
 31
0.0
  0
LINE
  5
1E672
  8
SU
 10
316.00027887206278
 20
598.3337776909766
 30
0.0
 11
320.16155240554372
 21
598.3337776909766
 31
0.0
  0
LINE
  5
1E673
  8
SU
 10
315.88027887206289
 20
598.13377769097679
 30
0.0
 11
320.28155240554378
 21
598.13377769097679
 31
0.0
  0
LINE
  5
1E674
  8
SU
 10
315.76027887206283
 20
597.93377769097651
 30
0.0
 11
320.40155240554373
 21
597.93377769097651
 31
0.0
  0
LINE
  5
1E675
  8
SU
 10
315.64027887206288
 20
597.73377769097669
 30
0.0
 11
320.52155240554379
 21
597.73377769097669
 31
0.0
  0
LINE
  5
1E676
  8
SU
 10
315.52027887206299
 20
597.53377769097688
 30
0.0
 11
320.64155240554368
 21
597.53377769097688
 31
0.0
  0
LINE
  5
1E677
  8
SU
 10
315.40027887206293
 20
597.33377769097649
 30
0.0
 11
320.7615524055438
 21
597.33377769097649
 31
0.0
  0
LINE
  5
1E678
  8
SU
 10
315.28027887206281
 20
597.13377769097667
 30
0.0
 11
320.88155240554369
 21
597.13377769097667
 31
0.0
  0
LINE
  5
1E679
  8
SU
 10
315.16027887206292
 20
596.93377769097651
 30
0.0
 11
321.0015524055438
 21
596.93377769097651
 31
0.0
  0
LINE
  5
1E67A
  8
SU
 10
315.0402788720628
 20
596.73377769097669
 30
0.0
 11
321.1215524055437
 21
596.73377769097669
 31
0.0
  0
LINE
  5
1E67B
  8
SU
 10
314.92027887206291
 20
596.53377769097688
 30
0.0
 11
321.24155240554359
 21
596.53377769097688
 31
0.0
  0
LINE
  5
1E67C
  8
SU
 10
314.80027887206268
 20
596.33377769097649
 30
0.0
 11
321.3615524055437
 21
596.33377769097649
 31
0.0
  0
LINE
  5
1E67D
  8
SU
 10
314.68027887206279
 20
596.13377769097667
 30
0.0
 11
321.48155240554382
 21
596.13377769097667
 31
0.0
  0
LINE
  5
1E67E
  8
SU
 10
314.5602788720629
 20
595.93377769097651
 30
0.0
 11
321.60155240554371
 21
595.93377769097651
 31
0.0
  0
LINE
  5
1E67F
  8
SU
 10
314.44027887206278
 20
595.73377769097658
 30
0.0
 11
321.7215524055436
 21
595.73377769097658
 31
0.0
  0
LINE
  5
1E680
  8
SU
 10
314.32027887206272
 20
595.53377769097676
 30
0.0
 11
321.84155240554372
 21
595.53377769097676
 31
0.0
  0
LINE
  5
1E681
  8
SU
 10
314.20027887206282
 20
595.3337776909766
 30
0.0
 11
321.96155240554378
 21
595.3337776909766
 31
0.0
  0
LINE
  5
1E682
  8
SU
 10
314.08027887206299
 20
595.13377769097679
 30
0.0
 11
322.08155240554368
 21
595.13377769097679
 31
0.0
  0
LINE
  5
1E683
  8
SU
 10
313.9602788720631
 20
594.9337776909764
 30
0.0
 11
322.20155240554362
 21
594.9337776909764
 31
0.0
  0
LINE
  5
1E684
  8
SU
 10
313.8402788720627
 20
594.73377769097658
 30
0.0
 11
322.32155240554368
 21
594.73377769097658
 31
0.0
  0
LINE
  5
1E685
  8
SU
 10
313.72027887206281
 20
594.53377769097676
 30
0.0
 11
322.44155240554392
 21
594.53377769097676
 31
0.0
  0
LINE
  5
1E686
  8
SU
 10
313.60027887206292
 20
594.3337776909766
 30
0.0
 11
322.56155240554381
 21
594.3337776909766
 31
0.0
  0
LINE
  5
1E687
  8
SU
 10
313.4802788720628
 20
594.13377769097679
 30
0.0
 11
322.6815524055437
 21
594.13377769097679
 31
0.0
  0
LINE
  5
1E688
  8
SU
 10
313.36027887206291
 20
593.93377769097651
 30
0.0
 11
322.80155240554382
 21
593.93377769097651
 31
0.0
  0
LINE
  5
1E689
  8
SU
 10
313.24027887206279
 20
593.73377769097669
 30
0.0
 11
322.92155240554371
 21
593.73377769097669
 31
0.0
  0
LINE
  5
1E68A
  8
SU
 10
313.1202788720629
 20
593.53377769097688
 30
0.0
 11
323.04155240554383
 21
593.53377769097688
 31
0.0
  0
LINE
  5
1E68B
  8
SU
 10
313.00027887206278
 20
593.33377769097649
 30
0.0
 11
323.1615524055436
 21
593.33377769097649
 31
0.0
  0
LINE
  5
1E68C
  8
SU
 10
312.88027887206289
 20
593.13377769097667
 30
0.0
 11
323.28155240554378
 21
593.13377769097667
 31
0.0
  0
LINE
  5
1E68D
  8
SU
 10
312.76027887206283
 20
592.93377769097651
 30
0.0
 11
323.40155240554373
 21
592.93377769097651
 31
0.0
  0
LINE
  5
1E68E
  8
SU
 10
312.64027887206288
 20
592.73377769097669
 30
0.0
 11
323.52155240554379
 21
592.73377769097669
 31
0.0
  0
LINE
  5
1E68F
  8
SU
 10
312.52027887206299
 20
592.53377769097688
 30
0.0
 11
323.64155240554368
 21
592.53377769097688
 31
0.0
  0
LINE
  5
1E690
  8
SU
 10
312.40027887206293
 20
592.33377769097649
 30
0.0
 11
323.7615524055438
 21
592.33377769097649
 31
0.0
  0
LINE
  5
1E691
  8
SU
 10
312.28027887206269
 20
592.13377769097667
 30
0.0
 11
323.88155240554369
 21
592.13377769097667
 31
0.0
  0
LINE
  5
1E692
  8
SU
 10
312.16027887206292
 20
591.93377769097651
 30
0.0
 11
324.0015524055438
 21
591.93377769097651
 31
0.0
  0
LINE
  5
1E693
  8
SU
 10
250.9395698463087
 20
579.30150553707472
 30
0.0
 11
301.08091563880271
 21
579.30150553707449
 31
0.0
  0
LINE
  5
1E694
  8
SU
 10
298.08091563880271
 20
579.30150553707449
 30
0.0
 11
298.08091563880271
 21
601.80150563554378
 31
0.0
  0
LINE
  5
1E698
  8
SU
 10
279.0809210549404
 20
601.80150563554378
 30
0.0
 11
321.08091563880322
 21
601.80150563554378
 31
0.0
  0
LINE
  5
1E699
  8
SU
 10
279.0809210549404
 20
251.80150563554429
 30
0.0
 11
321.08091563880311
 21
251.80150563554429
 31
0.0
  0
LINE
  5
1E69A
  8
SU
 10
318.08091563880322
 20
601.80150563554378
 30
0.0
 11
318.08091563880311
 21
251.80150563554429
 31
0.0
  0
LINE
  5
1E69C
  8
SU
 10
253.9388771817656
 20
269.8015056355444
 30
0.0
 11
301.08091563880311
 21
269.8015056355444
 31
0.0
  0
LINE
  5
1E69D
  8
SU
 10
298.08091563880299
 20
269.8015056355444
 30
0.0
 11
298.08091563880311
 21
572.301505635544
 31
0.0
  0
LINE
  5
1E6A0
  8
SU
 10
250.43887718160741
 20
602.801505635544
 30
0.0
 11
250.43887718160741
 21
624.80150563554434
 31
0.0
  0
LINE
  5
1E6A1
  8
SU
 10
222.43887718160829
 20
602.80150563554446
 30
0.0
 11
222.43887718160829
 21
624.80150563554434
 31
0.0
  0
LINE
  5
1E6A2
  8
SU
 10
250.43887718160741
 20
621.80150563554446
 30
0.0
 11
222.43887718160829
 21
621.80150563554446
 31
0.0
  0
TEXT
  5
1E6A6
  8
SU
 10
931.72772992014654
 20
289.45491207027061
 30
0.0
 40
7.0
  1
33
 50
90.0
 41
0.8299999999999999
  0
TEXT
  5
1E6A9
  8
SU
 10
739.58849188318504
 20
231.7882444036033
 30
0.0
 40
7.0
  1
3
 41
0.8299999999999999
  0
TEXT
  5
1E6AA
  8
SU
 10
615.52606325347722
 20
231.7882444036033
 30
0.0
 40
7.0
  1
DW
 41
0.8299999999999999
  0
TEXT
  5
1E6AD
  8
SU
 10
492.42439658681019
 20
231.7882444036035
 30
0.0
 40
7.0
  1
3
 41
0.8299999999999999
  0
TEXT
  5
1E6AF
  8
SU
 10
840.52606325347938
 20
231.7882444036033
 30
0.0
 40
7.0
  1
DW
 41
0.8299999999999999
  0
TEXT
  5
1E6B2
  8
SU
 10
971.09772992014655
 20
231.7882444036035
 30
0.0
 40
7.0
  1
3
 41
0.8299999999999999
  0
TEXT
  5
1E6B4
  8
SU
 10
729.78487277728789
 20
211.7882444036033
 30
0.0
 40
10.0
  1
W
 41
0.8299999999999999
  0
TEXT
  5
1E6B5
  8
SU
 10
766.72772992014507
 20
569.91585373983264
 30
0.0
 40
7.0
  1
33
 50
90.0
 41
0.8299999999999999
  0
TEXT
  5
1E6B8
  8
SU
 10
647.28487277728561
 20
492.24918607316528
 30
0.0
 40
10.0
  1
W
 41
0.8299999999999999
  0
TEXT
  5
1E6B9
  8
SU
 10
794.89939658681851
 20
512.24918607316533
 30
0.0
 40
7.0
  1
9
 41
0.8299999999999999
  0
TEXT
  5
1E6BC
  8
SU
 10
645.52605921611735
 20
512.24918607316533
 30
0.0
 40
7.0
  1
DW
 41
0.8299999999999999
  0
TEXT
  5
1E6BF
  8
SU
 10
503.8993965868022
 20
512.24918607316533
 30
0.0
 40
7.0
  1
9
 41
0.8299999999999999
  0
TEXT
  5
1E6C2
  8
SU
 10
230.90554384147819
 20
206.10150563554441
 30
0.0
 40
7.0
  1
40
 41
0.8299999999999999
  0
TEXT
  5
1E6C5
  8
SU
 10
230.90554384147819
 20
221.10150563554441
 30
0.0
 40
7.0
  1
23
 41
0.8299999999999999
  0
TEXT
  5
1E6C8
  8
SU
 10
296.78091563880321
 20
254.85317230221111
 30
0.0
 40
7.0
  1
18
 50
90.0
 41
0.8299999999999999
  0
TEXT
  5
1E6CA
  8
SU
 10
230.90554384835309
 20
548.6015056355443
 30
0.0
 40
7.0
  1
33
 41
0.8299999999999999
  0
TEXT
  5
1E6CD
  8
SU
 10
296.78091563880298
 20
573.03483915953461
 30
0.0
 40
7.0
  1
7
 50
90.0
 41
0.8299999999999999
  0
TEXT
  5
1E6CF
  8
SU
 10
296.78091563880258
 20
582.04146918070182
 30
0.0
 40
7.0
  1
22.5
 50
90.0
 41
0.8299999999999999
  0
TEXT
  5
1E6D2
  8
SU
 10
316.78091563880309
 20
422.45388658792513
 30
0.0
 40
10.0
  1
H
 50
90.0
 41
0.8299999999999999
  0
TEXT
  5
1E6D3
  8
SU
 10
296.78091563880298
 20
415.10317230221091
 30
0.0
 40
7.0
  1
DH
 50
90.0
 41
0.8299999999999999
  0
TEXT
  5
1E6D5
  8
SU
 10
230.9055438482745
 20
623.10150563554441
 30
0.0
 40
7.0
  1
28
 41
0.8299999999999999
  0
ARC
  5
1E6D8
  8
SU
 10
933.02772992014673
 20
278.48824540360408
 30
0.0
 40
0.6000000000000229
 50
90.0
 51
270.0
  0
ARC
  5
1E6D9
  8
SU
 10
933.02772992014673
 20
278.48824540360408
 30
0.0
 40
0.6000000000000229
 50
270.0
 51
90.0
  0
ARC
  5
1E6DA
  8
SU
 10
933.02772992014673
 20
311.48824540360368
 30
0.0
 40
0.6000000000000229
 50
270.0
 51
90.0
  0
ARC
  5
1E6DB
  8
SU
 10
933.02772992014673
 20
311.48824540360368
 30
0.0
 40
0.6000000000000229
 50
90.0
 51
270.0
  0
ARC
  5
1E6DC
  8
SU
 10
733.02772992014434
 20
230.48824440360329
 30
0.0
 40
0.6000000000000229
 50
180.0
 51
0.0
  0
ARC
  5
1E6DD
  8
SU
 10
733.02772992014434
 20
230.48824440360329
 30
0.0
 40
0.6000000000000229
 50
0.0
 51
180.0
  0
ARC
  5
1E6DE
  8
SU
 10
511.02772992014332
 20
230.48824440360329
 30
0.0
 40
0.6000000000000229
 50
0.0
 51
180.0
  0
ARC
  5
1E6DF
  8
SU
 10
511.02772992014332
 20
230.48824440360329
 30
0.0
 40
0.6000000000000229
 50
180.0
 51
0.0
  0
ARC
  5
1E6E0
  8
SU
 10
508.02772992014349
 20
230.48824440360349
 30
0.0
 40
0.6000000000000229
 50
0.0
 51
180.0
  0
ARC
  5
1E6E1
  8
SU
 10
508.02772992014349
 20
230.48824440360349
 30
0.0
 40
0.6000000000000229
 50
180.0
 51
0.0
  0
ARC
  5
1E6E2
  8
SU
 10
736.0277299201457
 20
230.48824440360329
 30
0.0
 40
0.6000000000000229
 50
0.0
 51
180.0
  0
ARC
  5
1E6E3
  8
SU
 10
736.0277299201457
 20
230.48824440360329
 30
0.0
 40
0.6000000000000229
 50
180.0
 51
0.0
  0
ARC
  5
1E6E4
  8
SU
 10
958.02772992014673
 20
230.48824440360329
 30
0.0
 40
0.6000000000000229
 50
180.0
 51
0.0
  0
ARC
  5
1E6E5
  8
SU
 10
958.02772992014673
 20
230.48824440360329
 30
0.0
 40
0.6000000000000229
 50
0.0
 51
180.0
  0
ARC
  5
1E6E6
  8
SU
 10
961.0277299201465
 20
230.48824440360349
 30
0.0
 40
0.6000000000000229
 50
180.0
 51
0.0
  0
ARC
  5
1E6E7
  8
SU
 10
961.0277299201465
 20
230.48824440360349
 30
0.0
 40
0.6000000000000229
 50
0.0
 51
180.0
  0
ARC
  5
1E6E8
  8
SU
 10
768.02772992014525
 20
558.94918707316606
 30
0.0
 40
0.6000000000000229
 50
90.0
 51
270.0
  0
ARC
  5
1E6E9
  8
SU
 10
768.02772992014525
 20
558.94918707316606
 30
0.0
 40
0.6000000000000229
 50
270.0
 51
90.0
  0
ARC
  5
1E6EA
  8
SU
 10
768.02772992014525
 20
591.94918707316583
 30
0.0
 40
0.6000000000000229
 50
270.0
 51
90.0
  0
ARC
  5
1E6EB
  8
SU
 10
768.02772992014525
 20
591.94918707316583
 30
0.0
 40
0.6000000000000229
 50
90.0
 51
270.0
  0
ARC
  5
1E6EC
  8
SU
 10
793.02772992014525
 20
510.94918607316538
 30
0.0
 40
0.6000000000000229
 50
0.0
 51
180.0
  0
ARC
  5
1E6ED
  8
SU
 10
793.02772992014525
 20
510.94918607316538
 30
0.0
 40
0.6000000000000229
 50
180.0
 51
0.0
  0
ARC
  5
1E6EE
  8
SU
 10
802.02772992015844
 20
510.94918607316538
 30
0.0
 40
0.6000000000000229
 50
180.0
 51
0.0
  0
ARC
  5
1E6EF
  8
SU
 10
802.02772992015844
 20
510.94918607316538
 30
0.0
 40
0.6000000000000229
 50
0.0
 51
180.0
  0
ARC
  5
1E6F4
  8
SU
 10
511.02772992014411
 20
510.94918607316538
 30
0.0
 40
0.6000000000000229
 50
180.0
 51
0.0
  0
ARC
  5
1E6F5
  8
SU
 10
511.02772992014411
 20
510.94918607316538
 30
0.0
 40
0.6000000000000229
 50
0.0
 51
180.0
  0
ARC
  5
1E6F6
  8
SU
 10
502.027729920127
 20
510.94918607316538
 30
0.0
 40
0.6000000000000229
 50
0.0
 51
180.0
  0
ARC
  5
1E6F7
  8
SU
 10
502.027729920127
 20
510.94918607316538
 30
0.0
 40
0.6000000000000229
 50
180.0
 51
0.0
  0
ARC
  5
1E6F8
  8
SU
 10
256.43887717481152
 20
204.80150563554429
 30
0.0
 40
0.5999999999999944
 50
180.0
 51
0.0
  0
ARC
  5
1E6F9
  8
SU
 10
256.43887717481152
 20
204.80150563554429
 30
0.0
 40
0.6000000000000229
 50
0.0
 51
180.0
  0
ARC
  5
1E6FA
  8
SU
 10
216.43887717481149
 20
204.80150563554429
 30
0.0
 40
0.5999999999999944
 50
0.0
 51
180.0
  0
ARC
  5
1E6FB
  8
SU
 10
216.43887717481149
 20
204.80150563554429
 30
0.0
 40
0.5999999999999944
 50
180.0
 51
0.0
  0
ARC
  5
1E6FC
  8
SU
 10
247.93887717481149
 20
219.8015056355444
 30
0.0
 40
0.5999999999999944
 50
180.0
 51
0.0
  0
ARC
  5
1E6FD
  8
SU
 10
247.93887717481149
 20
219.8015056355444
 30
0.0
 40
0.5999999999999944
 50
0.0
 51
180.0
  0
ARC
  5
1E6FE
  8
SU
 10
224.93887717481149
 20
219.8015056355444
 30
0.0
 40
0.5999999999999944
 50
0.0
 51
180.0
  0
ARC
  5
1E6FF
  8
SU
 10
224.93887717481149
 20
219.8015056355444
 30
0.0
 40
0.5999999999999944
 50
180.0
 51
0.0
  0
ARC
  5
1E700
  8
SU
 10
298.08091563880322
 20
251.80150563554429
 30
0.0
 40
0.5999999999999944
 50
90.0
 51
270.0
  0
ARC
  5
1E701
  8
SU
 10
298.08091563880322
 20
251.80150563554429
 30
0.0
 40
0.5999999999999944
 50
270.0
 51
90.0
  0
ARC
  5
1E702
  8
SU
 10
252.93887718160741
 20
547.30150563554434
 30
0.0
 40
0.5999999999999944
 50
180.0
 51
0.0
  0
ARC
  5
1E703
  8
SU
 10
252.93887718160741
 20
547.30150563554434
 30
0.0
 40
0.5999999999999944
 50
0.0
 51
180.0
  0
ARC
  5
1E704
  8
SU
 10
219.93887718176549
 20
547.30150563554434
 30
0.0
 40
0.5999999999999944
 50
0.0
 51
180.0
  0
ARC
  5
1E705
  8
SU
 10
219.93887718176549
 20
547.30150563554434
 30
0.0
 40
0.5999999999999944
 50
180.0
 51
0.0
  0
ARC
  5
1E706
  8
SU
 10
298.08091563880311
 20
572.3015061153277
 30
0.0
 40
0.6000000000000229
 50
90.0
 51
270.0
  0
ARC
  5
1E707
  8
SU
 10
298.08091563880311
 20
572.3015061153277
 30
0.0
 40
0.6000000000000229
 50
270.0
 51
90.0
  0
ARC
  5
1E708
  8
SU
 10
298.08091563880271
 20
601.80150563554378
 30
0.0
 40
0.6000000000000229
 50
270.0
 51
90.0
  0
ARC
  5
1E709
  8
SU
 10
298.08091563880271
 20
601.80150563554378
 30
0.0
 40
0.6000000000000229
 50
90.0
 51
270.0
  0
ARC
  5
1E70A
  8
SU
 10
298.08091563880271
 20
579.30150553707449
 30
0.0
 40
0.6000000000000229
 50
90.0
 51
270.0
  0
ARC
  5
1E70B
  8
SU
 10
298.08091563880271
 20
579.30150553707449
 30
0.0
 40
0.6000000000000229
 50
270.0
 51
90.0
  0
ARC
  5
1E70C
  8
SU
 10
298.08091563880299
 20
269.8015056355444
 30
0.0
 40
0.6000000000000229
 50
90.0
 51
270.0
  0
ARC
  5
1E70D
  8
SU
 10
298.08091563880299
 20
269.8015056355444
 30
0.0
 40
0.6000000000000229
 50
270.0
 51
90.0
  0
ARC
  5
1E70E
  8
SU
 10
222.43887718160829
 20
621.80150563554446
 30
0.0
 40
0.5999999999999944
 50
0.0
 51
180.0
  0
ARC
  5
1E70F
  8
SU
 10
222.43887718160829
 20
621.80150563554446
 30
0.0
 40
0.5999999999999944
 50
180.0
 51
0.0
  0
ARC
  5
1E710
  8
SU
 10
250.43887718160741
 20
621.80150563554446
 30
0.0
 40
0.5999999999999944
 50
180.0
 51
0.0
  0
ARC
  5
1E711
  8
SU
 10
250.43887718160741
 20
621.80150563554446
 30
0.0
 40
0.5999999999999944
 50
0.0
 51
180.0
  0
ENDSEC
  0
EOF
