  0
SECTION
  2
HEADER
  9
$ACADVER
  1
AC1009
  9
$INSBASE
 10
0.0
 20
0.0
 30
0.0
  9
$EXTMIN
 10
19.300000000000001
 20
16.25
 30
0.0
  9
$EXTMAX
 10
1165.5
 20
830.74999999999989
 30
0.0
  9
$LIMMIN
 10
0.0
 20
0.0
  9
$LIMMAX
 10
1189.0
 20
841.0
  9
$ORTHOMODE
 70
     1
  9
$REGENMODE
 70
     1
  9
$FILLMODE
 70
     1
  9
$QTEXTMODE
 70
     0
  9
$MIRRTEXT
 70
     0
  9
$DRAGMODE
 70
     2
  9
$LTSCALE
 40
1.0
  9
$OSMODE
 70
  3071
  9
$ATTMODE
 70
     1
  9
$TEXTSIZE
 40
12.5
  9
$TRACEWID
 40
1.0
  9
$TEXTSTYLE
  7
STANDARD
  9
$CLAYER
  8
0
  9
$CELTYPE
  6
BYLAYER
  9
$CECOLOR
 62
   256
  9
$DIMSCALE
 40
1.0
  9
$DIMASZ
 40
7.0
  9
$DIMEXO
 40
1.0
  9
$DIMDLI
 40
7.0
  9
$DIMRND
 40
0.0
  9
$DIMDLE
 40
0.0
  9
$DIMEXE
 40
3.0
  9
$DIMTP
 40
0.1
  9
$DIMTM
 40
0.1
  9
$DIMTXT
 40
7.0
  9
$DIMCEN
 40
0.0
  9
$DIMTSZ
 40
0.0
  9
$DIMTOL
 70
     0
  9
$DIMLIM
 70
     0
  9
$DIMTIH
 70
     0
  9
$DIMTOH
 70
     0
  9
$DIMSE1
 70
     0
  9
$DIMSE2
 70
     0
  9
$DIMTAD
 70
     1
  9
$DIMZIN
 70
     8
  9
$DIMBLK
  1
DOTSMALL
  9
$DIMASO
 70
     1
  9
$DIMSHO
 70
     1
  9
$DIMPOST
  1

  9
$DIMAPOST
  1
"
  9
$DIMALT
 70
     0
  9
$DIMALTD
 70
     2
  9
$DIMALTF
 40
0.0393701
  9
$DIMLFAC
 40
1.0
  9
$DIMTOFL
 70
     1
  9
$DIMTVP
 40
0.0
  9
$DIMTIX
 70
     0
  9
$DIMSOXD
 70
     0
  9
$DIMSAH
 70
     0
  9
$DIMBLK1
  1

  9
$DIMBLK2
  1

  9
$DIMSTYLE
  2
SANKYO
  9
$DIMCLRD
 70
   256
  9
$DIMCLRE
 70
   256
  9
$DIMCLRT
 70
   256
  9
$DIMTFAC
 40
0.71
  9
$DIMGAP
 40
1.3
  9
$LUNITS
 70
     2
  9
$LUPREC
 70
     4
  9
$SKETCHINC
 40
1.0
  9
$FILLETRAD
 40
0.0
  9
$AUNITS
 70
     0
  9
$AUPREC
 70
     0
  9
$MENU
  1
.
  9
$ELEVATION
 40
0.0
  9
$PELEVATION
 40
0.0
  9
$THICKNESS
 40
0.0
  9
$LIMCHECK
 70
     0
  9
$BLIPMODE
 70
     0
  9
$CHAMFERA
 40
10.0
  9
$CHAMFERB
 40
10.0
  9
$SKPOLY
 70
     0
  9
$TDCREATE
 40
2455110.561913426
  9
$TDUPDATE
 40
2459033.4905062732
  9
$TDINDWG
 40
2.0430535879999998
  9
$TDUSRTIMER
 40
2.0428579398000002
  9
$USRTIMER
 70
     1
  9
$ANGBASE
 50
0.0
  9
$ANGDIR
 70
     0
  9
$PDMODE
 70
     0
  9
$PDSIZE
 40
0.0
  9
$PLINEWID
 40
0.0
  9
$COORDS
 70
     2
  9
$SPLFRAME
 70
     0
  9
$SPLINETYPE
 70
     6
  9
$SPLINESEGS
 70
     8
  9
$ATTDIA
 70
     1
  9
$ATTREQ
 70
     1
  9
$HANDLING
 70
     1
  9
$HANDSEED
  5
27848
  9
$SURFTAB1
 70
     6
  9
$SURFTAB2
 70
     6
  9
$SURFTYPE
 70
     6
  9
$SURFU
 70
     6
  9
$SURFV
 70
     6
  9
$UCSNAME
  2

  9
$UCSORG
 10
0.0
 20
0.0
 30
0.0
  9
$UCSXDIR
 10
1.0
 20
0.0
 30
0.0
  9
$UCSYDIR
 10
0.0
 20
1.0
 30
0.0
  9
$PUCSNAME
  2

  9
$PUCSORG
 10
0.0
 20
0.0
 30
0.0
  9
$PUCSXDIR
 10
1.0
 20
0.0
 30
0.0
  9
$PUCSYDIR
 10
0.0
 20
1.0
 30
0.0
  9
$USERI1
 70
     0
  9
$USERI2
 70
     0
  9
$USERI3
 70
     0
  9
$USERI4
 70
     0
  9
$USERI5
 70
     0
  9
$USERR1
 40
0.0
  9
$USERR2
 40
0.0
  9
$USERR3
 40
0.0
  9
$USERR4
 40
0.0
  9
$USERR5
 40
0.0
  9
$WORLDVIEW
 70
     1
  9
$SHADEDGE
 70
     3
  9
$SHADEDIF
 70
    70
  9
$TILEMODE
 70
     1
  9
$MAXACTVP
 70
    48
  9
$PLIMCHECK
 70
     0
  9
$PEXTMIN
 10
1.0000000000000000E+020
 20
1.0000000000000000E+020
 30
1.0000000000000000E+020
  9
$PEXTMAX
 10
-1.0000000000000000E+020
 20
-1.0000000000000000E+020
 30
-1.0000000000000000E+020
  9
$PLIMMIN
 10
0.0
 20
0.0
  9
$PLIMMAX
 10
420.0
 20
297.0
  9
$UNITMODE
 70
     0
  9
$VISRETAIN
 70
     1
  9
$PLINEGEN
 70
     0
  9
$PSLTSCALE
 70
     1
  0
ENDSEC
  0
SECTION
  2
TABLES
  0
TABLE
  2
VPORT
 70
     1
  0
VPORT
  2
*ACTIVE
 70
     0
 10
0.0
 20
0.0
 11
1.0
 21
1.0
 12
589.19805386613882
 22
424.555437608028
 13
0.0
 23
0.0
 14
2.5
 24
2.5
 15
10.0
 25
10.0
 16
0.0
 26
0.0
 36
1.0
 17
0.0
 27
0.0
 37
0.0
 40
821.03423279877313
 41
2.050913838120104
 42
50.0
 43
0.0
 44
0.0
 50
0.0
 51
0.0
 71
     0
 72
   100
 73
     1
 74
     1
 75
     0
 76
     0
 77
     0
 78
     0
  0
ENDTAB
  0
TABLE
  2
LTYPE
 70
    21
  0
LTYPE
  2
CONTINUOUS
 70
     0
  3
Solid line
 72
    65
 73
     0
 40
0.0
  0
LTYPE
  2
CENTER2
 70
     0
  3
Center (.5x) ___ _ ___ _ ___ _ ___ _ ___ _ ___
 72
    65
 73
     4
 40
28.574999999999999
 49
19.050000000000001
 49
-3.1749999999999989
 49
3.1749999999999989
 49
-3.1749999999999989
  0
LTYPE
  2
PHANTOM2
 70
     0
  3
Phantom (.5x) ___ _ _ ___ _ _ ___ _ _ ___ _ _
 72
    65
 73
     6
 40
31.75
 49
15.875
 49
-3.1749999999999989
 49
3.1749999999999989
 49
-3.1749999999999989
 49
3.1749999999999989
 49
-3.1749999999999989
  0
LTYPE
  2
HIDDEN
 70
     0
  3
Hidden __ __ __ __ __ __ __ __ __ __ __ __ __ _
 72
    65
 73
     2
 40
9.5249999999999986
 49
6.3499999999999988
 49
-3.1749999999999989
  0
LTYPE
  2
CENTER
 70
     0
  3
Center ____ _ ____ _ ____ _ ____ _ ____ _ ____
 72
    65
 73
     4
 40
50.799999999999997
 49
31.75
 49
-6.3499999999999988
 49
6.3499999999999988
 49
-6.3499999999999988
  0
LTYPE
  2
ACISOWELD
 70
     0
  3
_ _ _ _ _
 72
    65
 73
     2
 40
2.0
 49
2.0
 49
-1.0
  0
LTYPE
  2
ACISOTGL
 70
     0
  3
_ _ _ _ _
 72
    65
 73
     2
 40
3.0
 49
2.0
 49
-1.0
  0
LTYPE
  2
ACISOTGB
 70
     0
  3
__ . . __ . .
 72
    65
 73
     6
 40
9.0
 49
4.0
 49
-1.0
 49
1.0
 49
-1.0
 49
1.0
 49
-1.0
  0
LTYPE
  2
DDM
 70
     0
  3
中点線
 72
    65
 73
     2
 40
3.0
 49
2.0
 49
-1.0
  0
LTYPE
  2
DD2
 70
     0
  3
二点鎖線
 72
    65
 73
     6
 40
12.0
 49
6.0
 49
-1.1999999999999991
 49
1.1999999999999991
 49
-1.1999999999999991
 49
1.1999999999999991
 49
-1.1999999999999991
  0
LTYPE
  2
AM_ISO02W050
 70
     0
  3
__ __ __ __ __ __ __ __ __ __ __ __ __ __ __
 72
    65
 73
     2
 40
7.5
 49
6.0
 49
-1.5
  0
LTYPE
  2
AMCONSTR
 70
     0
  3
_______________________
 72
    65
 73
     2
 40
9999.0
 49
9999.0
 49
0.0
  0
LTYPE
  2
AMZIGZAG
 70
     0
  3
/\/-/\/-/\/-/\/-/\/-/\/
 72
    65
 73
     2
 40
11.0001
 49
0.0001
 49
-11.0
  0
LTYPE
  2
AM_ISO08W050
 70
     0
  3
____ . ____ . ____ . ____ . ____ . ____ . ____
 72
    65
 73
     4
 40
18.0
 49
12.0
 49
-1.5
 49
3.0
 49
-1.5
  0
LTYPE
  2
AM_ISO09W050
 70
     0
  3
_____ . . _____ . . _____ . . ____ .. ____
 72
    65
 73
     6
 40
22.5
 49
12.0
 49
-1.5
 49
3.0
 49
-1.5
 49
3.0
 49
-1.5
  0
LTYPE
  2
AM_ISO08W050X2
 70
     0
  3
__ . __ . __ . __ . __ . __
 72
    65
 73
     4
 40
9.0
 49
6.0
 49
-0.75
 49
1.5
 49
-0.75
  0
LTYPE
  2
AM_ISO02W050X2
 70
     0
  3
 _ _ _ _ _ _ _ _ _ _ _ _
 72
    65
 73
     2
 40
3.75
 49
3.0
 49
-0.75
  0
LTYPE
  2
DASHED2
 70
     0
  3
Dashed (.5x) _ _ _ _ _ _ _ _ _ _ _ _ _ _ _ _ _
 72
    65
 73
     2
 40
9.5249999999999986
 49
6.3499999999999988
 49
-3.1749999999999989
  0
LTYPE
  2
HIDDEN2
 70
     0
  3
Hidden (.5x) _ _ _ _ _ _ _ _ _ _ _ _ _ _ _ _ _
 72
    65
 73
     2
 40
0.1875
 49
0.125
 49
-0.0625
  0
LTYPE
  2
ACANSTGB
 70
     0
  3
__ . . __ . .
 72
    65
 73
     6
 40
0.35433070866
 49
0.15748031496
 49
-0.03937007874
 49
0.03937007874
 49
-0.03937007874
 49
0.03937007874
 49
-0.03937007874
  0
LTYPE
  2
ACANSTGL
 70
     0
  3
_ _ _ _ _
 72
    65
 73
     2
 40
0.11811023622
 49
0.07874015748
 49
-0.03937007874
  0
ENDTAB
  0
TABLE
  2
LAYER
 70
    11
  0
LAYER
  2
0
 70
     0
 62
     7
  6
CONTINUOUS
  0
LAYER
  2
KI1
 70
     0
 62
     7
  6
CONTINUOUS
  0
LAYER
  2
SU
 70
     0
 62
     3
  6
CONTINUOUS
  0
LAYER
  2
MJ
 70
     0
 62
     2
  6
CONTINUOUS
  0
LAYER
  2
OS
 70
     0
 62
     2
  6
CONTINUOUS
  0
LAYER
  2
KI2
 70
     0
 62
     4
  6
CONTINUOUS
  0
LAYER
  2
PH
 70
     0
 62
     6
  6
PHANTOM2
  0
LAYER
  2
WK
 70
     4
 62
     7
  6
CONTINUOUS
  0
LAYER
  2
DEFPOINTS
 70
     1
 62
    -7
  6
CONTINUOUS
  0
LAYER
  2
TS
 70
     0
 62
     6
  6
DASHED2
  0
LAYER
  2
CL
 70
     0
 62
     4
  6
CENTER2
  0
ENDTAB
  0
TABLE
  2
STYLE
 70
     4
  0
STYLE
  2
STANDARD
 70
     0
 40
0.0
 41
0.8299999999999999
 50
0.0
 71
     0
 42
12.5
  3
romans.shx
  4
extfont.shx
  0
STYLE
  2
ACISOGDT
 70
     0
 40
0.0
 41
1.0
 50
0.0
 71
     0
 42
12.5
  3
amgdt.shx
  4

  0
STYLE
  2

 70
     1
 40
0.0
 41
1.0
 50
0.0
 71
     0
 42
2.5
  3
ltypeshp.shx
  4

  0
STYLE
  2
ACANSGDT
 70
     0
 40
0.0
 41
1.0
 50
0.0
 71
     0
 42
12.5
  3
amgdt.shx
  4

  0
ENDTAB
  0
TABLE
  2
VIEW
 70
     6
  0
VIEW
  2
AM_VIEW1
 70
     0
 40
297.5
 10
-194.33547008547001
 20
148.25
 41
457.32905982905982
 11
0.0
 21
0.0
 31
1.0
 12
0.0
 22
0.0
 32
0.0
 42
50.0
 43
0.0
 44
0.0
 50
0.0
 71
     0
  0
VIEW
  2
AM_VIEW2
 70
     0
 40
297.5
 10
189.33547008547001
 20
148.25
 41
457.32905982905982
 11
0.0
 21
0.0
 31
1.0
 12
0.0
 22
0.0
 32
0.0
 42
50.0
 43
0.0
 44
0.0
 50
0.0
 71
     0
  0
VIEW
  2
AM_VIEW3
 70
     0
 40
297.5
 10
-194.33547008547001
 20
-149.25
 41
457.32905982905982
 11
0.0
 21
0.0
 31
1.0
 12
0.0
 22
0.0
 32
0.0
 42
50.0
 43
0.0
 44
0.0
 50
0.0
 71
     0
  0
VIEW
  2
AM_VIEW4
 70
     0
 40
297.5
 10
189.33547008547001
 20
-149.25
 41
457.32905982905982
 11
0.0
 21
0.0
 31
1.0
 12
0.0
 22
0.0
 32
0.0
 42
50.0
 43
0.0
 44
0.0
 50
0.0
 71
     0
  0
VIEW
  2
AM_VIEW5
 70
     0
 40
297.5
 10
-2.5
 20
-0.5
 41
457.32905982905982
 11
0.0
 21
0.0
 31
1.0
 12
0.0
 22
0.0
 32
0.0
 42
50.0
 43
0.0
 44
0.0
 50
0.0
 71
     0
  0
VIEW
  2
AM_VIEW6
 70
     0
 40
594.99405000000002
 10
-2.5
 20
-0.5
 41
914.6489730769232
 11
0.0
 21
0.0
 31
1.0
 12
0.0
 22
0.0
 32
0.0
 42
50.0
 43
0.0
 44
0.0
 50
0.0
 71
     0
  0
ENDTAB
  0
TABLE
  2
UCS
 70
     0
  0
ENDTAB
  0
TABLE
  2
APPID
 70
    47
  0
APPID
  2
ACAD
 70
     0
  0
APPID
  2
MCAD_NO_VIS
 70
     0
  0
APPID
  2
ACAD_TEMP_GRAPHIC
 70
     0
  0
APPID
  2
ACATTRIBSERVICES
 70
     0
  0
APPID
  2
GENIUS_GENDIMSH_14
 70
     0
  0
APPID
  2
GENIUS_GENODEF_13
 70
     0
  0
APPID
  2
GENIUS_GENOENT_13
 70
     0
  0
APPID
  2
GENIUS_GENOBJ-N-TIT_13
 70
     0
  0
APPID
  2
GENIUS_GENOLIS_13
 70
     0
  0
APPID
  2
GENIUS_GENTITLE_13
 70
     0
  0
APPID
  2
GENIUS_GENOREF_13
 70
     0
  0
APPID
  2
GENIUS_GENSCREG_15
 70
     0
  0
APPID
  2
GENIUS_GENOBJ-N-SDF_13
 70
     0
  0
APPID
  2
GENIUS_GENOBJ-N-REV_13
 70
     0
  0
APPID
  2
GENIUS_GENOBJ-N-RSSYM_13
 70
     0
  0
APPID
  2
GENIUS_GENSYMENT_13
 70
     0
  0
APPID
  2
GENIUS_GENSCSYM_13
 70
     0
  0
APPID
  2
GENIUS_GENOBJ-N-CEN_13
 70
     0
  0
APPID
  2
GENIUS_GENOBJ-N-FIL_13
 70
     0
  0
APPID
  2
GENIUS_GENBH_13
 70
     0
  0
APPID
  2
GENIUS_GENOBJ-NBEHI-BHF_13
 70
     0
  0
APPID
  2
GENIUS_GENFIL_13
 70
     0
  0
APPID
  2
GENIUS_GENOBJ-N-CHA_13
 70
     0
  0
APPID
  2
GENIUS_GENOBJ-NBEHI-BHB_13
 70
     0
  0
APPID
  2
GENIUS_GENOBJ-N-CRS_13
 70
     0
  0
APPID
  2
GENIUS_GENDTOL_13
 70
     0
  0
APPID
  2
AD_DRAW
 70
     0
  0
APPID
  2
DESIGNERASSEMBLIES
 70
     0
  0
APPID
  2
ACADM_DIM_EDIT
 70
     0
  0
APPID
  2
AMDT_DM_ADJ
 70
     0
  0
APPID
  2
ACAD_PSEXT
 70
     0
  0
APPID
  2
ACAECLAYERSTANDARD
 70
     0
  0
APPID
  2
DCO15
 70
     0
  0
APPID
  2
GENIUS_GENOBJ-N-HTC_13
 70
     0
  0
APPID
  2
GENIUS_GENHATCH_13
 70
     0
  0
APPID
  2
ACAD_NAV_VCDISPLAY
 70
     0
  0
APPID
  2
ACAD_DSTYLE_DIMARC_LENGTH_
 70
     0
  0
APPID
  2
GENIUS_GENREC_14
 70
     0
  0
APPID
  2
GENIUS_GENOBJ-N-REC_13
 70
     0
  0
APPID
  2
GENIUS_GENCEN_19
 70
     0
  0
APPID
  2
ACAD_EXEMPT_FROM_CAD_STANDARDS
 70
     0
  0
APPID
  2
ACAD_DSTYLE_DIMJAG
 70
     0
  0
APPID
  2
ACAD_DSTYLE_DIMBREAK
 70
     0
  0
APPID
  2
ACAD_DSTYLE_DIMINSPECT
 70
     0
  0
APPID
  2
ACADANNOMONITORALERTICONDI
 70
     0
  0
APPID
  2
CONTENTBLOCKICON
 70
     0
  0
APPID
  2
ACAD_MLEADERVER
 70
     0
  0
ENDTAB
  0
TABLE
  2
DIMSTYLE
 70
    15
  0
DIMSTYLE
  2
SANKYO
 70
     0
  3

  4
"
  5
DOTSMALL
  6

  7

 40
1.0
 41
7.0
 42
1.0
 43
7.0
 44
3.0
 45
0.0
 46
0.0
 47
0.1
 48
0.1
140
7.0
141
0.0
142
0.0
143
0.0393701
144
1.0
145
0.0
146
0.71
147
1.3
 71
     0
 72
     0
 73
     0
 74
     0
 75
     0
 76
     0
 77
     1
 78
     8
170
     0
171
     2
172
     1
173
     0
174
     0
175
     0
176
   256
177
   256
178
   256
  0
DIMSTYLE
  2
AM_ISO
 70
     0
  3

  4
"
  5

  6

  7

 40
1.0
 41
3.5
 42
1.0
 43
10.0
 44
1.0
 45
0.0
 46
0.0
 47
0.1
 48
0.1
140
3.5
141
0.0
142
0.0
143
0.0393701
144
1.0
145
0.0
146
0.71
147
1.5
 71
     0
 72
     0
 73
     0
 74
     0
 75
     0
 76
     0
 77
     1
 78
     8
170
     0
171
     2
172
     1
173
     0
174
     0
175
     0
176
   256
177
   256
178
     2
  0
DIMSTYLE
  2
AM_ISO$3
 70
     0
  3

  4
"
  5

  6

  7

 40
1.0
 41
3.5
 42
1.0
 43
10.0
 44
1.0
 45
0.0
 46
0.0
 47
0.1
 48
0.1
140
3.5
141
0.0
142
0.0
143
0.0393701
144
1.0
145
0.0
146
0.71
147
1.5
 71
     0
 72
     0
 73
     0
 74
     1
 75
     0
 76
     0
 77
     1
 78
     8
170
     0
171
     2
172
     0
173
     0
174
     0
175
     0
176
   256
177
   256
178
     2
  0
DIMSTYLE
  2
AM_ISO$4
 70
     0
  3

  4
"
  5

  6

  7

 40
1.0
 41
3.5
 42
1.0
 43
10.0
 44
1.0
 45
0.0
 46
0.0
 47
0.1
 48
0.1
140
3.5
141
0.0
142
0.0
143
0.0393701
144
1.0
145
0.0
146
0.71
147
1.5
 71
     0
 72
     0
 73
     0
 74
     1
 75
     0
 76
     0
 77
     1
 78
     8
170
     0
171
     2
172
     0
173
     0
174
     0
175
     0
176
   256
177
   256
178
     2
  0
DIMSTYLE
  2
AM_ISO$6
 70
     0
  3

  4
"
  5

  6

  7

 40
1.0
 41
3.5
 42
1.0
 43
10.0
 44
1.0
 45
0.0
 46
0.0
 47
0.1
 48
0.1
140
3.5
141
0.0
142
0.0
143
0.0393701
144
1.0
145
0.0
146
0.71
147
1.5
 71
     0
 72
     0
 73
     0
 74
     0
 75
     0
 76
     0
 77
     0
 78
     8
170
     0
171
     2
172
     1
173
     0
174
     0
175
     0
176
   256
177
   256
178
     2
  0
DIMSTYLE
  2
AM_ISO$7
 70
     0
  3

  4
"
  5

  6

  7

 40
1.0
 41
3.5
 42
1.0
 43
10.0
 44
1.0
 45
0.0
 46
0.0
 47
0.1
 48
0.1
140
3.5
141
0.0
142
0.0
143
0.0393701
144
1.0
145
0.0
146
0.71
147
1.5
 71
     0
 72
     0
 73
     0
 74
     0
 75
     0
 76
     0
 77
     1
 78
     8
170
     0
171
     2
172
     1
173
     0
174
     0
175
     0
176
   256
177
   256
178
     2
  0
DIMSTYLE
  2
AM_ISO$SF
 70
     0
  3

  4
"
  5

  6

  7

 40
1.0
 41
3.5
 42
1.0
 43
10.0
 44
1.0
 45
0.0
 46
0.0
 47
0.1
 48
0.1
140
3.5
141
0.0
142
0.0
143
0.0393701
144
1.0
145
0.0
146
0.71
147
1.5
 71
     0
 72
     0
 73
     0
 74
     0
 75
     1
 76
     1
 77
     1
 78
     8
170
     0
171
     2
172
     1
173
     0
174
     0
175
     0
176
   256
177
   256
178
     2
  0
DIMSTYLE
  2
AM_ISO$SH
 70
     0
  3

  4
"
  5

  6
GENAXEH
  7

 40
1.0
 41
3.5
 42
1.0
 43
10.0
 44
1.0
 45
0.0
 46
0.0
 47
0.1
 48
0.1
140
3.5
141
0.0
142
0.0
143
0.0393701
144
2.0
145
0.0
146
0.71
147
1.5
 71
     0
 72
     0
 73
     0
 74
     0
 75
     1
 76
     1
 77
     1
 78
     8
170
     0
171
     2
172
     1
173
     1
174
     0
175
     0
176
   256
177
   256
178
     2
  0
DIMSTYLE
  2
SANKYO$0
 70
     0
  3

  4
"
  5
DOTSMALL
  6

  7

 40
1.0
 41
7.0
 42
1.0
 43
7.0
 44
3.0
 45
0.0
 46
0.0
 47
0.1
 48
0.1
140
7.0
141
0.0
142
0.0
143
0.0393701
144
1.0
145
0.0
146
0.71
147
1.3
 71
     0
 72
     0
 73
     0
 74
     0
 75
     0
 76
     0
 77
     1
 78
     8
170
     0
171
     2
172
     1
173
     0
174
     0
175
     0
176
   256
177
   256
178
   256
  0
DIMSTYLE
  2
AM_ANSI
 70
     0
  3

  4
mm
  5

  6

  7

 40
1.0
 41
0.12
 42
0.05
 43
0.5
 44
0.1
 45
0.0
 46
0.0
 47
0.1
 48
0.1
140
0.12
141
0.0
142
0.0
143
25.399999999999999
144
1.0
145
0.0
146
0.71
147
0.06
 71
     0
 72
     0
 73
     1
 74
     1
 75
     0
 76
     0
 77
     0
 78
     7
170
     0
171
     2
172
     0
173
     0
174
     0
175
     0
176
   256
177
   256
178
     2
  0
DIMSTYLE
  2
AM_ANSI$3
 70
     0
  3

  4
mm
  5

  6

  7

 40
1.0
 41
0.12
 42
0.05
 43
0.5
 44
0.1
 45
0.0
 46
0.0
 47
0.1
 48
0.1
140
0.12
141
0.0
142
0.0
143
25.399999999999999
144
1.0
145
0.0
146
0.71
147
0.06
 71
     0
 72
     0
 73
     1
 74
     1
 75
     0
 76
     0
 77
     0
 78
     7
170
     0
171
     2
172
     0
173
     0
174
     0
175
     0
176
   256
177
   256
178
     2
  0
DIMSTYLE
  2
AM_ANSI$4
 70
     0
  3

  4
mm
  5

  6

  7

 40
1.0
 41
0.12
 42
0.05
 43
0.5
 44
0.1
 45
0.0
 46
0.0
 47
0.1
 48
0.1
140
0.12
141
0.0
142
0.0
143
25.399999999999999
144
1.0
145
0.0
146
0.71
147
0.06
 71
     0
 72
     0
 73
     1
 74
     1
 75
     0
 76
     0
 77
     0
 78
     7
170
     0
171
     2
172
     0
173
     0
174
     0
175
     0
176
   256
177
   256
178
     2
  0
DIMSTYLE
  2
AM_ANSI$7
 70
     0
  3

  4
mm
  5

  6

  7

 40
1.0
 41
0.12
 42
0.05
 43
0.5
 44
0.1
 45
0.0
 46
0.0
 47
0.1
 48
0.1
140
0.12
141
0.0
142
0.0
143
25.399999999999999
144
1.0
145
0.0
146
0.71
147
0.06
 71
     0
 72
     0
 73
     1
 74
     1
 75
     0
 76
     0
 77
     0
 78
     7
170
     0
171
     2
172
     0
173
     0
174
     0
175
     0
176
   256
177
   256
178
     2
  0
DIMSTYLE
  2
AM_ANSI$SF
 70
     0
  3

  4
mm
  5

  6

  7

 40
1.0
 41
0.12
 42
0.05
 43
0.5
 44
0.1
 45
0.0
 46
0.0
 47
0.1
 48
0.1
140
0.12
141
0.0
142
0.0
143
25.399999999999999
144
1.0
145
0.0
146
0.71
147
0.06
 71
     0
 72
     0
 73
     1
 74
     1
 75
     1
 76
     1
 77
     0
 78
     7
170
     0
171
     2
172
     0
173
     0
174
     0
175
     0
176
   256
177
   256
178
     2
  0
DIMSTYLE
  2
AM_ANSI$SH
 70
     0
  3

  4
mm
  5

  6
GENAXEH
  7

 40
1.0
 41
0.12
 42
0.05
 43
0.5
 44
0.1
 45
0.0
 46
0.0
 47
0.1
 48
0.1
140
0.12
141
0.0
142
0.0
143
25.399999999999999
144
1.0
145
0.0
146
0.71
147
0.06
 71
     0
 72
     0
 73
     1
 74
     1
 75
     1
 76
     1
 77
     0
 78
     7
170
     0
171
     2
172
     0
173
     1
174
     0
175
     0
176
   256
177
   256
178
     2
  0
ENDTAB
  0
ENDSEC
  0
SECTION
  2
BLOCKS
  0
BLOCK
  8
0
  2
$MODEL_SPACE
 70
     0
 10
0.0
 20
0.0
 30
0.0
  3
$MODEL_SPACE
  1

  0
ENDBLK
  5
1A
  8
0
  0
BLOCK
 67
     1
  8
0
  2
$PAPER_SPACE
 70
     0
 10
0.0
 20
0.0
 30
0.0
  3
$PAPER_SPACE
  1

  0
ENDBLK
  5
17
 67
     1
  8
0
  0
BLOCK
  8
0
  2
_OPEN
 70
     0
 10
0.0
 20
0.0
 30
0.0
  3
_OPEN
  1

  0
LINE
  5
30B
  8
0
  6
BYBLOCK
 62
     0
 10
-1.0
 20
0.1666666666666666
 30
0.0
 11
0.0
 21
0.0
 31
0.0
  0
LINE
  5
30C
  8
0
  6
BYBLOCK
 62
     0
 10
-1.0
 20
-0.1666666666666666
 30
0.0
 11
0.0
 21
0.0
 31
0.0
  0
LINE
  5
30D
  8
0
  6
BYBLOCK
 62
     0
 10
0.0
 20
0.0
 30
0.0
 11
-1.0
 21
0.0
 31
0.0
  0
ENDBLK
  5
30F
  8
0
  0
BLOCK
  8
0
  2
_DOTSMALL
 70
     0
 10
0.0
 20
0.0
 30
0.0
  3
_DOTSMALL
  1

  0
POLYLINE
  5
A331
  8
0
  6
BYBLOCK
 62
     0
 66
     1
 10
0.0
 20
0.0
 30
0.0
 70
     1
 40
0.5
 41
0.5
  0
VERTEX
  5
2782D
  8
0
  6
BYBLOCK
 62
     0
 10
-0.0625
 20
0.0
 30
0.0
 42
1.0
  0
VERTEX
  5
2782E
  8
0
  6
BYBLOCK
 62
     0
 10
0.0625
 20
0.0
 30
0.0
 42
1.0
  0
SEQEND
  5
2782F
  8
0
  6
BYBLOCK
 62
     0
  0
ENDBLK
  5
A333
  8
0
  0
BLOCK
  8
0
  2
GENAXEH
 70
     0
 10
0.0
 20
0.0
 30
0.0
  3
GENAXEH
  1

  0
LINE
  5
18179
  8
0
 10
-1.0
 20
0.0
 30
0.0
 11
1.0
 21
0.0
 31
0.0
  0
ENDBLK
  5
1817B
  8
0
  0
ENDSEC
  0
SECTION
  2
ENTITIES
  0
LINE
  5
9B1A
  8
WK
 10
23.5
 20
16.25
 30
0.0
 11
1165.5
 21
16.25
 31
0.0
  0
LINE
  5
9B1C
  8
WK
 10
23.5
 20
824.75
 30
0.0
 11
23.5
 21
16.25
 31
0.0
  0
TEXT
  5
9BE2
  8
WK
 10
22.5
 20
16.25
 30
0.0
 40
3.2000000000000002
  1
A0
 50
90.0
 41
0.8299999999999999
  0
LINE
  5
9C31
  8
WK
 10
1085.5
 20
34.25
 30
0.0
 11
1085.5
 21
16.25
 31
0.0
  0
LINE
  5
9C32
  8
WK
 10
890.49999999999989
 20
34.25
 30
0.0
 11
890.49999999999989
 21
16.25
 31
0.0
  0
LINE
  5
9C34
  8
WK
 10
1045.5
 20
34.25
 30
0.0
 11
1045.5
 21
16.25
 31
0.0
  0
LINE
  5
9C35
  8
WK
 10
1065.5
 20
34.25
 30
0.0
 11
1065.5
 21
16.25
 31
0.0
  0
LINE
  5
9C37
  8
WK
 10
1005.5
 20
34.25
 30
0.0
 11
1005.5
 21
16.25
 31
0.0
  0
LINE
  5
9C38
  8
WK
 10
985.5
 20
34.25
 30
0.0
 11
985.5
 21
16.25
 31
0.0
  0
LINE
  5
9C3A
  8
WK
 10
890.49999999999989
 20
34.25
 30
0.0
 11
1165.5
 21
34.25
 31
0.0
  0
LINE
  5
9C3B
  8
WK
 10
899.5
 20
26.25
 30
0.0
 11
972.49999999999989
 21
26.25
 31
0.0
  0
LINE
  5
9C3E
  8
WK
 10
1005.5
 20
22.25
 30
0.0
 11
1045.5
 21
22.25
 31
0.0
  0
LINE
  5
9C3F
  8
WK
 10
1005.5
 20
28.25
 30
0.0
 11
1045.5
 21
28.25
 31
0.0
  0
LINE
  5
9C46
  8
WK
 10
1151.8094750193111
 20
25.25
 30
0.0
 11
1163.8094750193111
 21
25.25
 31
0.0
  0
CIRCLE
  5
9C47
  8
WK
 10
1157.8094750193111
 20
25.25
 30
0.0
 40
6.0
  0
TEXT
  5
9C56
  8
WK
 10
992.52780952380954
 20
20.649999643948512
 30
0.0
 40
3.2000000000000002
  1
1:1
 41
0.8299999999999999
 72
     4
 11
995.5
 21
22.249999643948509
 31
0.0
  0
TEXT
  5
9C57
  8
WK
 10
1087.8031333333331
 20
30.150000000000009
 30
0.0
 40
3.2000000000000002
  1
図番
 41
0.8299999999999999
  0
TEXT
  5
9C58
  8
WK
 10
1067.9290000000001
 20
30.150000000000009
 30
0.0
 40
3.2000000000000002
  1
検図
 41
0.8299999999999999
  0
TEXT
  5
9C59
  8
WK
 10
1047.9290000000001
 20
30.150000000000009
 30
0.0
 40
3.2000000000000002
  1
作図
 41
0.8299999999999999
  0
TEXT
  5
9C5A
  8
WK
 10
1006.5535725057121
 20
29.149999999999999
 30
0.0
 40
3.2000000000000002
  1
作成
 41
0.8299999999999999
  0
TEXT
  5
9C5B
  8
WK
 10
1006.5535725057121
 20
23.149999999999999
 30
0.0
 40
3.2000000000000002
  1
制定
 41
0.8299999999999999
  0
TEXT
  5
9C5C
  8
WK
 10
1006.5535725057121
 20
17.149999999999999
 30
0.0
 40
3.2000000000000002
  1
廃止
 41
0.8299999999999999
  0
TEXT
  5
9C5D
  8
WK
 10
986.42899999999997
 20
30.149999999999999
 30
0.0
 40
3.2000000000000002
  1
尺度
 41
0.8299999999999999
  0
TEXT
  5
9C5E
  8
WK
 10
973.49999999999989
 20
18.25
 30
0.0
 40
4.0
  1
基準図
 41
0.8
  0
TEXT
  5
9C77
  8
WK
 10
892.30313333333345
 20
30.150000000000009
 30
0.0
 40
3.2000000000000002
  1
図名
 41
0.8299999999999999
  0
LINE
  5
9E0D
  8
WK
 10
23.5
 20
824.75
 30
0.0
 11
1165.5
 21
824.75
 31
0.0
  0
LINE
  5
9E18
  8
WK
 10
1165.5
 20
824.75
 30
0.0
 11
1165.5
 21
16.25
 31
0.0
  0
TEXT
  5
12887
  8
WK
 10
1130.0726417273511
 20
826.75
 30
0.0
 40
4.0
  1
大栄建材株式会社
 41
0.9
 72
     2
 11
1163.672641727351
 21
826.75
 31
0.0
  0
TEXT
  5
13021
  8
MJ
 10
1005.587466534463
 20
42.25
 30
0.0
 40
7.0
  1
cl11a009
 41
0.8299999999999999
  0
TEXT
  5
13022
  8
MJ
 10
1005.587466534463
 20
69.25
 30
0.0
 40
7.0
  1
クレーヴァ35　Ｙレール引戸
 41
0.8299999999999999
  0
TEXT
  5
13023
  8
MJ
 10
1005.587466534463
 20
60.25
 30
0.0
 40
7.0
  1
Ｌ型コーナー引戸 2枚引違い+3枚引戸
 41
0.8299999999999999
  0
TEXT
  5
13024
  8
MJ
 10
1005.587466534463
 20
78.25
 30
0.0
 40
7.0
  1
スーパースクリーン　クレーヴァ
 41
0.8299999999999999
  0
TEXT
  5
13025
  8
MJ
 10
1005.587466534463
 20
51.25
 30
0.0
 40
7.0
  1
たて横断面
 41
0.8299999999999999
  0
LINE
  5
217DF
  8
OS
 10
393.87789582150123
 20
92.47466685852055
 30
0.0
 11
613.87789582150106
 21
92.47466685852055
 31
0.0
  0
LINE
  5
217E0
  8
KI1
 10
408.37789582150191
 20
112.2688954925795
 30
0.0
 11
403.8778958215018
 21
104.4746668585194
 31
0.0
  0
LINE
  5
217E1
  8
KI1
 10
399.37789582150191
 20
112.2688954925795
 30
0.0
 11
408.37789582150191
 21
112.2688954925795
 31
0.0
  0
LINE
  5
217E2
  8
OS
 10
393.87789582150123
 20
94.474666858520536
 30
0.0
 11
613.87789582150106
 21
94.474666858520536
 31
0.0
  0
LINE
  5
217E3
  8
OS
 10
393.87789582150123
 20
98.474666858520536
 30
0.0
 11
613.87789582150106
 21
98.474666858520536
 31
0.0
  0
LINE
  5
217E4
  8
OS
 10
393.87789582150123
 20
102.47466685852049
 30
0.0
 11
613.87789582150106
 21
102.47466685852049
 31
0.0
  0
LINE
  5
217E5
  8
KI1
 10
403.8778958215018
 20
104.4746668585194
 30
0.0
 11
399.37789582150191
 21
112.2688954925795
 31
0.0
  0
LINE
  5
217E6
  8
OS
 10
393.87789582150123
 20
96.47466685852055
 30
0.0
 11
613.87789582150106
 21
96.474666858520095
 31
0.0
  0
LINE
  5
217E7
  8
OS
 10
393.87789582150123
 20
100.47466685852049
 30
0.0
 11
613.87789582150106
 21
100.47466685852049
 31
0.0
  0
LINE
  5
217E8
  8
OS
 10
393.87789582150123
 20
104.47466685852049
 30
0.0
 11
613.87789582150106
 21
104.47466685852049
 31
0.0
  0
LINE
  5
217E9
  8
OS
 10
432.87783127205228
 20
164.47466685852049
 30
0.0
 11
469.37789582150123
 21
164.47466685852049
 31
0.0
  0
LINE
  5
217ED
  8
KI1
 10
505.37789582150111
 20
363.4746676418934
 30
0.0
 11
538.37788703981926
 21
363.4746676418934
 31
0.0
  0
LINE
  5
217EE
  8
KI2
 10
517.87788703997785
 20
381.17466764189322
 30
0.0
 11
525.87788703997785
 21
381.17466764189322
 31
0.0
  0
LINE
  5
217EF
  8
KI2
 10
515.97788703997787
 20
377.36466764189322
 30
0.0
 11
527.77788703997783
 21
377.36466764189322
 31
0.0
  0
LINE
  5
217F0
  8
KI2
 10
515.97788703997787
 20
379.36466764189322
 30
0.0
 11
527.77788703997783
 21
379.36466764189322
 31
0.0
  0
LINE
  5
217F1
  8
KI2
 10
517.87788703997785
 20
381.17466764189322
 30
0.0
 11
517.87788703997785
 21
379.36466764189322
 31
0.0
  0
LINE
  5
217F2
  8
KI2
 10
515.97788703997787
 20
379.36466764189322
 30
0.0
 11
515.97788703997787
 21
377.36466764189322
 31
0.0
  0
LINE
  5
217F3
  8
KI2
 10
524.87788703997785
 20
377.36466764189322
 30
0.0
 11
524.87788703997785
 21
363.4746676418934
 31
0.0
  0
LINE
  5
217F4
  8
KI2
 10
518.87788703997785
 20
377.36466764189322
 30
0.0
 11
518.87788703997785
 21
363.4746676418934
 31
0.0
  0
LINE
  5
217F5
  8
KI2
 10
518.87788703997785
 20
374.85466764189317
 30
0.0
 11
524.87788703997785
 21
374.85466764189317
 31
0.0
  0
LINE
  5
217F6
  8
KI2
 10
520.15788703997782
 20
389.57466764189309
 30
0.0
 11
523.59788703997788
 21
389.57466764189309
 31
0.0
  0
LINE
  5
217F7
  8
KI2
 10
524.09788703997788
 20
389.07466764189309
 30
0.0
 11
519.65788703997782
 21
389.07466764189309
 31
0.0
  0
LINE
  5
217F8
  8
KI2
 10
519.65788703997782
 20
389.07466764189309
 30
0.0
 11
519.65788703997782
 21
381.17466764189322
 31
0.0
  0
LINE
  5
217F9
  8
KI2
 10
520.15788703997782
 20
389.57466764189309
 30
0.0
 11
519.65788703997782
 21
389.07466764189309
 31
0.0
  0
LINE
  5
217FA
  8
KI2
 10
524.09788703997788
 20
389.07466764189309
 30
0.0
 11
524.09788703997788
 21
381.17466764189322
 31
0.0
  0
LINE
  5
217FB
  8
KI2
 10
524.09788703997788
 20
389.07466764189309
 30
0.0
 11
523.59788703997788
 21
389.57466764189309
 31
0.0
  0
LINE
  5
217FC
  8
KI2
 10
525.87788703997785
 20
381.17466764189322
 30
0.0
 11
525.87788703997785
 21
379.36466764189322
 31
0.0
  0
LINE
  5
217FD
  8
KI2
 10
527.77788703997783
 20
379.36466764189322
 30
0.0
 11
527.77788703997783
 21
377.36466764189322
 31
0.0
  0
LINE
  5
2180C
  8
KI1
 10
505.37789582150111
 20
363.4746676418934
 30
0.0
 11
505.37789582150111
 21
113.4746668585199
 31
0.0
  0
LINE
  5
2180D
  8
KI1
 10
538.37789582150106
 20
363.4746676418934
 30
0.0
 11
538.37789582150106
 21
113.4746668585199
 31
0.0
  0
LINE
  5
2180E
  8
KI1
 10
469.37789582150123
 20
363.4746676418934
 30
0.0
 11
502.37788703981931
 21
363.4746676418934
 31
0.0
  0
LINE
  5
2180F
  8
KI2
 10
481.87788703997779
 20
381.17466764189322
 30
0.0
 11
489.87788703997779
 21
381.17466764189322
 31
0.0
  0
LINE
  5
21810
  8
KI2
 10
479.97788703997782
 20
377.36466764189322
 30
0.0
 11
491.77788703997783
 21
377.36466764189322
 31
0.0
  0
LINE
  5
21811
  8
KI2
 10
479.97788703997782
 20
379.36466764189322
 30
0.0
 11
491.77788703997783
 21
379.36466764189322
 31
0.0
  0
LINE
  5
21812
  8
KI2
 10
481.87788703997779
 20
381.17466764189322
 30
0.0
 11
481.87788703997779
 21
379.36466764189322
 31
0.0
  0
LINE
  5
21813
  8
KI2
 10
479.97788703997782
 20
379.36466764189322
 30
0.0
 11
479.97788703997782
 21
377.36466764189322
 31
0.0
  0
LINE
  5
21814
  8
KI2
 10
488.87788703997779
 20
377.36466764189322
 30
0.0
 11
488.87788703997779
 21
363.4746676418934
 31
0.0
  0
LINE
  5
21815
  8
KI2
 10
482.87788703997779
 20
377.36466764189322
 30
0.0
 11
482.87788703997779
 21
363.4746676418934
 31
0.0
  0
LINE
  5
21816
  8
KI2
 10
482.87788703997779
 20
374.85466764189317
 30
0.0
 11
488.87788703997779
 21
374.85466764189317
 31
0.0
  0
LINE
  5
21817
  8
KI2
 10
484.15788703997782
 20
389.57466764189309
 30
0.0
 11
487.59788703997782
 21
389.57466764189309
 31
0.0
  0
LINE
  5
21818
  8
KI2
 10
488.09788703997782
 20
389.07466764189309
 30
0.0
 11
483.65788703997782
 21
389.07466764189309
 31
0.0
  0
LINE
  5
21819
  8
KI2
 10
483.65788703997782
 20
389.07466764189309
 30
0.0
 11
483.65788703997782
 21
381.17466764189322
 31
0.0
  0
LINE
  5
2181A
  8
KI2
 10
484.15788703997782
 20
389.57466764189309
 30
0.0
 11
483.65788703997782
 21
389.07466764189309
 31
0.0
  0
LINE
  5
2181B
  8
KI2
 10
488.09788703997782
 20
389.07466764189309
 30
0.0
 11
488.09788703997782
 21
381.17466764189322
 31
0.0
  0
LINE
  5
2181C
  8
KI2
 10
488.09788703997782
 20
389.07466764189309
 30
0.0
 11
487.59788703997782
 21
389.57466764189309
 31
0.0
  0
LINE
  5
2181D
  8
KI2
 10
489.87788703997779
 20
381.17466764189322
 30
0.0
 11
489.87788703997779
 21
379.36466764189322
 31
0.0
  0
LINE
  5
2181E
  8
KI2
 10
491.77788703997783
 20
379.36466764189322
 30
0.0
 11
491.77788703997783
 21
377.36466764189322
 31
0.0
  0
LINE
  5
2182B
  8
KI1
 10
469.37789582150123
 20
363.4746676418934
 30
0.0
 11
469.37789582150123
 21
113.4746668585199
 31
0.0
  0
LINE
  5
2182C
  8
KI1
 10
502.37789582150111
 20
363.4746676418934
 30
0.0
 11
502.37789582150111
 21
113.4746668585199
 31
0.0
  0
LINE
  5
2182D
  8
KI1
 10
513.92783183982328
 20
374.12466588315738
 30
0.0
 11
507.77783183982331
 21
374.12466561142281
 31
0.0
  0
LINE
  5
2182E
  8
KI1
 10
515.07783189063537
 20
372.97466593396962
 30
0.0
 11
498.69783189063548
 21
372.97466521022739
 31
0.0
  0
LINE
  5
2182F
  8
KI1
 10
507.62783075067517
 20
398.77466560479508
 30
0.0
 11
516.37783075067523
 21
398.77466599140939
 31
0.0
  0
LINE
  5
21830
  8
KI1
 10
508.27783080148748
 20
397.62466563351489
 30
0.0
 11
535.47783080148724
 21
397.62466683533341
 31
0.0
  0
LINE
  5
21831
  8
KI1
 10
506.6278318398231
 20
374.12466556061048
 30
0.0
 11
499.8978318398232
 21
374.12466526324891
 31
0.0
  0
ARC
  5
21832
  8
KI1
 10
499.29783178459269
 20
375.37466523673822
 30
0.0
 40
0.5999999999999996
 50
0.0000025315855514
 51
180.00000253158549
  0
LINE
  5
21833
  8
KI1
 10
498.69783178459272
 20
375.37466521022742
 30
0.0
 11
498.69783189063548
 21
372.97466521022739
 31
0.0
  0
LINE
  5
21834
  8
KI1
 10
499.89783178459248
 20
375.3746652632488
 30
0.0
 11
499.8978318398232
 21
374.12466526324891
 31
0.0
  0
ARC
  5
21835
  8
KI1
 10
507.12783069765379
 20
399.97466558270281
 30
0.0
 40
0.5
 50
0.0000025315855514
 51
180.00000253158549
  0
LINE
  5
21836
  8
KI1
 10
506.6278318398231
 20
374.12466556061048
 30
0.0
 11
506.62783069765379
 21
399.97466556061062
 31
0.0
  0
LINE
  5
21837
  8
KI1
 10
507.62783069765379
 20
399.97466560479512
 30
0.0
 11
507.62783075067517
 21
398.77466560479508
 31
0.0
  0
LINE
  5
21838
  8
KI1
 10
507.77783183982331
 20
374.12466561142281
 30
0.0
 11
507.77783082357968
 21
397.1246656114227
 31
0.0
  0
ARC
  5
21839
  8
KI1
 10
508.27783082357968
 20
397.12466563351501
 30
0.0
 40
0.4999999999999999
 50
90.000002531585565
 51
180.00000253158549
  0
LINE
  5
2183A
  8
KI1
 10
541.42783189063539
 20
372.97466709823129
 30
0.0
 11
528.6778318906355
 21
372.97466653487879
 31
0.0
  0
LINE
  5
2183B
  8
KI1
 10
542.22783184645084
 20
373.97466713357881
 30
0.0
 11
537.12783184645082
 21
373.97466690823791
 31
0.0
  0
LINE
  5
2183C
  8
KI1
 10
526.42783184645089
 20
373.97466643546358
 30
0.0
 11
528.37783184645093
 21
373.97466652162342
 31
0.0
  0
LINE
  5
2183D
  8
KI1
 10
526.42909565662535
 20
381.4246664355195
 30
0.0
 11
528.37783151727638
 21
381.42466652162341
 31
0.0
  0
ARC
  5
2183E
  8
KI1
 10
526.62909568534519
 20
380.7746664443564
 30
0.0
 40
0.5
 50
180.00000253158549
 51
270.00000253158549
  0
LINE
  5
2183F
  8
KI1
 10
526.42783172715281
 20
376.67466643546362
 30
0.0
 11
526.62783172715274
 21
376.67466644430039
 31
0.0
  0
ARC
  5
21840
  8
KI1
 10
526.87783069765385
 20
399.97466645534672
 30
0.0
 40
0.5
 50
0.0000025315855514
 51
180.00000253158549
  0
LINE
  5
21841
  8
KI1
 10
517.12909570743739
 20
380.27466602460362
 30
0.0
 11
515.57783156808853
 21
380.27466595606171
 31
0.0
  0
LINE
  5
21842
  8
KI1
 10
517.32783184645086
 20
373.97466603338461
 30
0.0
 11
515.37783184645093
 21
373.97466594722488
 31
0.0
  0
LINE
  5
21843
  8
KI1
 10
517.32909565662533
 20
381.42466603344047
 30
0.0
 11
515.37783151727638
 21
381.42466594722492
 31
0.0
  0
LINE
  5
21844
  8
KI1
 10
516.47783177133726
 20
375.67466599582781
 30
0.0
 11
517.12783172715274
 21
376.67466602454772
 31
0.0
  0
ARC
  5
21845
  8
KI1
 10
516.87783069765385
 20
399.97466601350169
 30
0.0
 40
0.5
 50
0.0000025315855514
 51
180.00000253158549
  0
LINE
  5
21846
  8
KI1
 10
516.37783069765385
 20
399.97466599140938
 30
0.0
 11
516.37783075067523
 21
398.77466599140939
 31
0.0
  0
ARC
  5
21847
  8
KI1
 10
514.80283148524256
 20
382.14966592181889
 30
0.0
 40
0.5749999999999959
 50
0.0000025315855514
 51
180.00000253158549
  0
ARC
  5
21848
  8
KI1
 10
515.07783187738005
 20
373.27466593396957
 30
0.0
 40
0.2999999999999999
 50
270.00000253158549
 51
0.0000025315855514
  0
LINE
  5
21849
  8
KI1
 10
514.22783182656792
 20
374.42466589641282
 30
0.0
 11
514.22783148524263
 21
382.14966589641278
 31
0.0
  0
ARC
  5
2184A
  8
KI1
 10
513.92783182656785
 20
374.4246658831575
 30
0.0
 40
0.2999999999999999
 50
270.00000253158549
 51
0.0000025315855514
  0
LINE
  5
2184B
  8
KI1
 10
515.57783156808853
 20
380.27466595606171
 30
0.0
 11
515.37783163436529
 21
378.77466594722478
 31
0.0
  0
LINE
  5
2184C
  8
KI1
 10
515.37783178901088
 20
375.27466594722478
 30
0.0
 11
515.37783163436529
 21
378.77466594722478
 31
0.0
  0
LINE
  5
2184D
  8
KI1
 10
516.47783178901091
 20
375.27466599582777
 30
0.0
 11
515.37783178901088
 21
375.27466594722478
 31
0.0
  0
LINE
  5
2184E
  8
KI1
 10
516.47783178901091
 20
375.27466599582777
 30
0.0
 11
516.47783177133726
 21
375.67466599582781
 31
0.0
  0
LINE
  5
2184F
  8
KI1
 10
515.3778314852425
 20
382.149665947225
 30
0.0
 11
515.37783151727638
 21
381.42466594722492
 31
0.0
  0
LINE
  5
21850
  8
KI1
 10
515.37783187738
 20
373.274665947225
 30
0.0
 11
515.37783184645093
 21
373.97466594722488
 31
0.0
  0
LINE
  5
21851
  8
KI1
 10
517.37783069765385
 20
399.97466603559388
 30
0.0
 11
517.37783075067523
 21
398.77466603559401
 31
0.0
  0
ARC
  5
21852
  8
KI1
 10
517.32783183319555
 20
374.27466603338462
 30
0.0
 40
0.2999999999999999
 50
270.00000253158549
 51
0.0000025315855514
  0
ARC
  5
21853
  8
KI1
 10
517.32909566988064
 20
381.12466603344041
 30
0.0
 40
0.2999999999999999
 50
0.0000025315855514
 51
90.000002531585565
  0
LINE
  5
21854
  8
KI1
 10
517.6290956698806
 20
381.12466604669589
 30
0.0
 11
517.62909568534519
 21
380.77466604669581
 31
0.0
  0
LINE
  5
21855
  8
KI1
 10
517.62783174040806
 20
376.37466604664002
 30
0.0
 11
517.6278318331955
 21
374.27466604663988
 31
0.0
  0
ARC
  5
21856
  8
KI1
 10
517.3278317404081
 20
376.37466603338459
 30
0.0
 40
0.2999999999999999
 50
0.0000025315855514
 51
90.000002531585565
  0
LINE
  5
21857
  8
KI1
 10
517.32783172715267
 20
376.6746660333846
 30
0.0
 11
517.12783172715274
 21
376.67466602454772
 31
0.0
  0
ARC
  5
21858
  8
KI1
 10
517.12909568534519
 20
380.7746660246035
 30
0.0
 40
0.5
 50
270.00000253158549
 51
0.0000025315855514
  0
LINE
  5
21859
  8
KI1
 10
526.37783075067523
 20
398.77466643325448
 30
0.0
 11
517.37783075067523
 21
398.77466603559401
 31
0.0
  0
LINE
  5
2185A
  8
KI1
 10
526.37783069765385
 20
399.97466643325453
 30
0.0
 11
526.37783075067523
 21
398.77466643325448
 31
0.0
  0
ARC
  5
2185B
  8
KI1
 10
526.42783183319546
 20
374.27466643546359
 30
0.0
 40
0.2999999999999999
 50
180.00000253158549
 51
270.00000253158549
  0
ARC
  5
2185C
  8
KI1
 10
526.42909566988067
 20
381.12466643551949
 30
0.0
 40
0.2999999999999999
 50
90.000002531585565
 51
180.00000253158549
  0
LINE
  5
2185D
  8
KI1
 10
526.1290956698806
 20
381.12466642226411
 30
0.0
 11
526.12909568534519
 21
380.77466642226409
 31
0.0
  0
LINE
  5
2185E
  8
KI1
 10
526.12783174040806
 20
376.37466642220818
 30
0.0
 11
526.1278318331955
 21
374.27466642220821
 31
0.0
  0
ARC
  5
2185F
  8
KI1
 10
526.42783174040812
 20
376.37466643546361
 30
0.0
 40
0.2999999999999999
 50
90.000002531585565
 51
180.00000253158549
  0
LINE
  5
21860
  8
KI1
 10
529.82783183982315
 20
374.12466658569099
 30
0.0
 11
535.97783183982324
 21
374.12466685742572
 31
0.0
  0
LINE
  5
21861
  8
KI1
 10
536.12783075067523
 20
398.77466686405342
 30
0.0
 11
527.37783075067523
 21
398.77466647743898
 31
0.0
  0
ARC
  5
21862
  8
KI1
 10
529.82783182656794
 20
374.42466658569111
 30
0.0
 40
0.2999999999999999
 50
180.00000253158549
 51
270.00000253158549
  0
LINE
  5
21863
  8
KI1
 10
527.37783069765385
 20
399.97466647743897
 30
0.0
 11
527.37783075067523
 21
398.77466647743898
 31
0.0
  0
LINE
  5
21864
  8
KI1
 10
526.62909570743739
 20
380.2746664443564
 30
0.0
 11
528.17783156808855
 21
380.27466651278638
 31
0.0
  0
LINE
  5
21865
  8
KI1
 10
527.27783178901109
 20
375.27466647302037
 30
0.0
 11
528.37783178901088
 21
375.27466652162337
 31
0.0
  0
LINE
  5
21866
  8
KI1
 10
527.27783178901109
 20
375.27466647302037
 30
0.0
 11
527.27783177133733
 21
375.67466647302052
 31
0.0
  0
LINE
  5
21867
  8
KI1
 10
527.27783177133733
 20
375.67466647302052
 30
0.0
 11
526.62783172715274
 21
376.67466644430039
 31
0.0
  0
LINE
  5
21868
  8
KI1
 10
528.17783156808855
 20
380.27466651278638
 30
0.0
 11
528.37783163436529
 21
378.77466652162337
 31
0.0
  0
LINE
  5
21869
  8
KI1
 10
528.37783178901088
 20
375.27466652162337
 30
0.0
 11
528.37783163436529
 21
378.77466652162337
 31
0.0
  0
LINE
  5
2186A
  8
KI1
 10
529.52783182656799
 20
374.42466657243568
 30
0.0
 11
529.5278314852427
 21
382.14966657243571
 31
0.0
  0
LINE
  5
2186B
  8
KI1
 10
528.3778314852425
 20
382.1496665216236
 30
0.0
 11
528.37783151727638
 21
381.42466652162341
 31
0.0
  0
ARC
  5
2186C
  8
KI1
 10
528.95283148524265
 20
382.1496665470296
 30
0.0
 40
0.5749999999999959
 50
0.0000025315855514
 51
180.00000253158549
  0
LINE
  5
2186D
  8
KI1
 10
528.37783187738
 20
373.27466652162349
 30
0.0
 11
528.37783184645093
 21
373.97466652162342
 31
0.0
  0
ARC
  5
2186E
  8
KI1
 10
528.67783187738007
 20
373.27466653487892
 30
0.0
 40
0.2999999999999999
 50
180.00000253158549
 51
270.00000253158549
  0
ARC
  5
2186F
  8
KI1
 10
536.62783069765374
 20
399.9746668861456
 30
0.0
 40
0.5
 50
0.0000025315855514
 51
180.00000253158549
  0
LINE
  5
21870
  8
KI1
 10
536.12783069765385
 20
399.9746668640534
 30
0.0
 11
536.12783075067523
 21
398.77466686405342
 31
0.0
  0
LINE
  5
21871
  8
KI1
 10
535.97783183982324
 20
374.12466685742572
 30
0.0
 11
535.97783082357955
 21
397.12466685742572
 31
0.0
  0
ARC
  5
21872
  8
KI1
 10
535.47783082357955
 20
397.12466683533341
 30
0.0
 40
0.4999999999999999
 50
0.0000025315855514
 51
90.000002531585565
  0
LINE
  5
21873
  8
KI1
 10
537.12783184645082
 20
373.97466690823791
 30
0.0
 11
537.12783069765374
 21
399.97466690823791
 31
0.0
  0
ARC
  5
21874
  8
KI1
 10
542.22783186854315
 20
373.47466713357892
 30
0.0
 40
0.5
 50
0.0000025315855514
 51
90.000002531585565
  0
ARC
  5
21875
  8
KI1
 10
541.42783190389082
 20
372.6746670982314
 30
0.0
 40
0.2999999999999999
 50
0.0000025315855514
 51
90.000002531585565
  0
LINE
  5
21876
  8
KI1
 10
541.72783190389066
 20
372.67466711148671
 30
0.0
 11
541.72783244294169
 21
360.47466711148672
 31
0.0
  0
LINE
  5
21877
  8
KI1
 10
542.72783186854315
 20
373.47466715567111
 30
0.0
 11
542.72783244294158
 21
360.47466715567123
 31
0.0
  0
ARC
  5
21878
  8
KI1
 10
542.22783244294169
 20
360.47466713357892
 30
0.0
 40
0.5
 50
180.00000253158549
 51
0.0000025315855514
  0
LINE
  5
2187A
  8
OS
 10
470.62783127205239
 20
400.47466486470472
 30
0.0
 11
393.87789582150123
 21
400.47466486470472
 31
0.0
  0
LINE
  5
2187B
  8
OS
 10
470.62783127205239
 20
409.97466486470461
 30
0.0
 11
393.87789582150123
 21
409.97466486470461
 31
0.0
  0
LINE
  5
2187C
  8
OS
 10
556.37783127205239
 20
484.97466486470472
 30
0.0
 11
556.37783127205239
 21
409.97466486470461
 31
0.0
  0
LINE
  5
2187D
  8
OS
 10
451.37783127205239
 20
484.97466486470472
 30
0.0
 11
451.37783127205239
 21
409.97466486470461
 31
0.0
  0
LINE
  5
2187E
  8
OS
 10
613.87789582150106
 20
407.97466486470472
 30
0.0
 11
537.12783127205239
 21
407.97466486470472
 31
0.0
  0
LINE
  5
2187F
  8
OS
 10
470.62783127205239
 20
407.97466486470472
 30
0.0
 11
393.87789582150123
 21
407.97466486470472
 31
0.0
  0
LINE
  5
21880
  8
OS
 10
613.87789582150106
 20
402.47466486470472
 30
0.0
 11
537.12783127205239
 21
402.47466486470472
 31
0.0
  0
LINE
  5
21881
  8
OS
 10
470.62783127205239
 20
402.47466486470472
 30
0.0
 11
393.87789582150123
 21
402.47466486470472
 31
0.0
  0
LINE
  5
21882
  8
OS
 10
406.37794702845031
 20
454.97466486470472
 30
0.0
 11
406.37794702845031
 21
409.97466486470461
 31
0.0
  0
LINE
  5
21883
  8
OS
 10
406.37794702845031
 20
454.97466486470472
 30
0.0
 11
451.37783127205239
 21
454.97466486470472
 31
0.0
  0
LINE
  5
21884
  8
OS
 10
406.37794702845031
 20
409.97466486470461
 30
0.0
 11
451.37783127205239
 21
454.97466486470472
 31
0.0
  0
LINE
  5
21885
  8
OS
 10
601.37623002930525
 20
454.97714059674752
 30
0.0
 11
601.37737268693354
 21
409.97714061125492
 31
0.0
  0
LINE
  5
21886
  8
OS
 10
601.37623002930525
 20
454.97714059674752
 30
0.0
 11
556.37634580021086
 21
454.97599794205883
 31
0.0
  0
LINE
  5
21887
  8
OS
 10
556.37783127205239
 20
409.97466486470461
 30
0.0
 11
601.37623002930525
 21
454.97714059674752
 31
0.0
  0
LINE
  5
21888
  8
OS
 10
613.87789582150106
 20
400.47466486470472
 30
0.0
 11
537.12783127205239
 21
400.47466486470472
 31
0.0
  0
LINE
  5
21889
  8
OS
 10
613.87789582150106
 20
409.97466486470461
 30
0.0
 11
537.12783127205239
 21
409.97466486470461
 31
0.0
  0
LINE
  5
2188B
  8
KI1
 10
470.62783127205239
 20
400.47466486470472
 30
0.0
 11
537.12783127205239
 21
409.97466486470461
 31
0.0
  0
LINE
  5
2188C
  8
OS
 10
438.87783127205239
 20
400.47466486470472
 30
0.0
 11
438.87783127205239
 21
329.97466526678261
 31
0.0
  0
LINE
  5
2188D
  8
OS
 10
438.87783127205239
 20
311.97466526678181
 30
0.0
 11
438.87783127205239
 21
164.47466685852049
 31
0.0
  0
LINE
  5
2188E
  8
TS
 10
438.87783127205239
 20
164.47466685852049
 30
0.0
 11
438.87783127205239
 21
104.47466685852049
 31
0.0
  0
LINE
  5
2188F
  8
OS
 10
432.87783127205228
 20
164.47466685852049
 30
0.0
 11
432.87783127205228
 21
104.47466685852049
 31
0.0
  0
LINE
  5
21890
  8
OS
 10
568.87783127205239
 20
400.47466486470472
 30
0.0
 11
568.87783127205239
 21
329.97466526678261
 31
0.0
  0
LINE
  5
21891
  8
OS
 10
568.87783127205239
 20
311.97466526678181
 30
0.0
 11
568.87783127205239
 21
164.47466685852049
 31
0.0
  0
LINE
  5
21895
  8
OS
 10
574.87783127205228
 20
164.47466685852049
 30
0.0
 11
538.37776672260361
 21
164.47466685852049
 31
0.0
  0
LINE
  5
21896
  8
TS
 10
568.87783127205239
 20
164.47466685852049
 30
0.0
 11
568.87783127205239
 21
104.47466685852049
 31
0.0
  0
LINE
  5
21897
  8
OS
 10
574.87783127205228
 20
164.47466685852049
 30
0.0
 11
574.87783127205228
 21
104.47466685852049
 31
0.0
  0
LINE
  5
21898
  8
SU
 10
429.97831221921399
 20
142.9967811755505
 30
0.0
 11
432.87783127205228
 21
139.47466685852049
 31
0.0
210
0.0
220
0.0
230
-1.0
  0
LINE
  5
21899
  8
SU
 10
431.27735032489068
 20
143.7467811755505
 30
0.0
 11
432.87783127205228
 21
139.47466685852049
 31
0.0
210
0.0
220
0.0
230
-1.0
  0
LINE
  5
2189A
  8
SU
 10
432.87783127205228
 20
139.47466685852049
 30
0.0
 11
430.62783127205228
 21
143.3717811755505
 31
0.0
210
0.0
220
0.0
230
-1.0
  0
LINE
  5
2189B
  8
SU
 10
430.62783127205228
 20
143.3717811755505
 30
0.0
 11
420.77210756030331
 21
160.44239538966119
 31
0.0
210
0.0
220
0.0
230
-1.0
1001
ACAD
1000
DSTYLE
1002
{
1070
    41
1040
1.5
1070
    77
1070
     0
1070
   371
1070
    13
1002
}
  0
LINE
  5
2189C
  8
SU
 10
420.77210756030331
 20
160.44239538966119
 30
0.0
 11
399.41044487400342
 21
160.44239538966119
 31
0.0
210
0.0
220
0.0
230
-1.0
1001
ACAD
1000
DSTYLE
1002
{
1070
    41
1040
1.5
1070
    77
1070
     0
1070
   371
1070
    13
1002
}
  0
TEXT
  5
2189D
  8
SU
 10
401.91892880285758
 20
162.85211281994719
 30
0.0
 40
7.9999999999999956
  1
巾木
 41
0.9
  0
LINE
  5
2189E
  8
OS
 10
526.37755245005155
 20
484.97466486470461
 30
0.0
 11
451.37783127205239
 21
409.97466486470461
 31
0.0
  0
LINE
  5
218A1
  8
OS
 10
502.37789582150111
 20
164.47466685852049
 30
0.0
 11
505.37789582150111
 21
164.47466685852049
 31
0.0
  0
LINE
  5
218AA
  8
KI1
 10
157.35878694559639
 20
363.47466564917249
 30
0.0
 11
190.35877816391459
 21
363.47466564917249
 31
0.0
  0
LINE
  5
218AB
  8
KI2
 10
169.8587781640731
 20
381.17466564917231
 30
0.0
 11
177.8587781640731
 21
381.17466564917231
 31
0.0
  0
LINE
  5
218AC
  8
KI2
 10
167.9587781640731
 20
377.36466564917231
 30
0.0
 11
179.75877816407311
 21
377.36466564917231
 31
0.0
  0
LINE
  5
218AD
  8
KI2
 10
167.9587781640731
 20
379.36466564917231
 30
0.0
 11
179.75877816407311
 21
379.36466564917231
 31
0.0
  0
LINE
  5
218AE
  8
KI2
 10
169.8587781640731
 20
381.17466564917231
 30
0.0
 11
169.8587781640731
 21
379.36466564917231
 31
0.0
  0
LINE
  5
218AF
  8
KI2
 10
167.9587781640731
 20
379.36466564917231
 30
0.0
 11
167.9587781640731
 21
377.36466564917231
 31
0.0
  0
LINE
  5
218B0
  8
KI2
 10
176.8587781640731
 20
377.36466564917231
 30
0.0
 11
176.8587781640731
 21
363.47466564917249
 31
0.0
  0
LINE
  5
218B1
  8
KI2
 10
170.8587781640731
 20
377.36466564917231
 30
0.0
 11
170.8587781640731
 21
363.47466564917249
 31
0.0
  0
LINE
  5
218B2
  8
KI2
 10
170.8587781640731
 20
374.85466564917232
 30
0.0
 11
176.8587781640731
 21
374.85466564917232
 31
0.0
  0
LINE
  5
218B3
  8
KI2
 10
172.1387781640731
 20
389.57466564917229
 30
0.0
 11
175.5787781640731
 21
389.57466564917229
 31
0.0
  0
LINE
  5
218B4
  8
KI2
 10
176.0787781640731
 20
389.07466564917229
 30
0.0
 11
171.6387781640731
 21
389.07466564917229
 31
0.0
  0
LINE
  5
218B5
  8
KI2
 10
171.6387781640731
 20
389.07466564917229
 30
0.0
 11
171.6387781640731
 21
381.17466564917231
 31
0.0
  0
LINE
  5
218B6
  8
KI2
 10
172.1387781640731
 20
389.57466564917229
 30
0.0
 11
171.6387781640731
 21
389.07466564917229
 31
0.0
  0
LINE
  5
218B7
  8
KI2
 10
176.0787781640731
 20
389.07466564917229
 30
0.0
 11
176.0787781640731
 21
381.17466564917231
 31
0.0
  0
LINE
  5
218B8
  8
KI2
 10
176.0787781640731
 20
389.07466564917229
 30
0.0
 11
175.5787781640731
 21
389.57466564917229
 31
0.0
  0
LINE
  5
218B9
  8
KI2
 10
177.8587781640731
 20
381.17466564917231
 30
0.0
 11
177.8587781640731
 21
379.36466564917231
 31
0.0
  0
LINE
  5
218BA
  8
KI2
 10
179.75877816407311
 20
379.36466564917231
 30
0.0
 11
179.75877816407311
 21
377.36466564917231
 31
0.0
  0
LINE
  5
218C9
  8
KI1
 10
157.35878694559639
 20
363.47466564917249
 30
0.0
 11
157.35878694559639
 21
113.4746648657994
 31
0.0
  0
LINE
  5
218CA
  8
KI1
 10
190.35878694559639
 20
363.47466564917249
 30
0.0
 11
190.35878694559639
 21
113.4746648657994
 31
0.0
  0
LINE
  5
218CB
  8
KI1
 10
121.35878694559641
 20
363.47466564917249
 30
0.0
 11
154.35877816391459
 21
363.47466564917249
 31
0.0
  0
LINE
  5
218CC
  8
KI2
 10
133.8587781640731
 20
381.17466564917231
 30
0.0
 11
141.8587781640731
 21
381.17466564917231
 31
0.0
  0
LINE
  5
218CD
  8
KI2
 10
131.9587781640731
 20
377.36466564917231
 30
0.0
 11
143.75877816407311
 21
377.36466564917231
 31
0.0
  0
LINE
  5
218CE
  8
KI2
 10
131.9587781640731
 20
379.36466564917231
 30
0.0
 11
143.75877816407311
 21
379.36466564917231
 31
0.0
  0
LINE
  5
218CF
  8
KI2
 10
133.8587781640731
 20
381.17466564917231
 30
0.0
 11
133.8587781640731
 21
379.36466564917231
 31
0.0
  0
LINE
  5
218D0
  8
KI2
 10
131.9587781640731
 20
379.36466564917231
 30
0.0
 11
131.9587781640731
 21
377.36466564917231
 31
0.0
  0
LINE
  5
218D1
  8
KI2
 10
140.8587781640731
 20
377.36466564917231
 30
0.0
 11
140.8587781640731
 21
363.47466564917249
 31
0.0
  0
LINE
  5
218D2
  8
KI2
 10
134.8587781640731
 20
377.36466564917231
 30
0.0
 11
134.8587781640731
 21
363.47466564917249
 31
0.0
  0
LINE
  5
218D3
  8
KI2
 10
134.8587781640731
 20
374.85466564917232
 30
0.0
 11
140.8587781640731
 21
374.85466564917232
 31
0.0
  0
LINE
  5
218D4
  8
KI2
 10
136.1387781640731
 20
389.57466564917229
 30
0.0
 11
139.5787781640731
 21
389.57466564917229
 31
0.0
  0
LINE
  5
218D5
  8
KI2
 10
140.0787781640731
 20
389.07466564917229
 30
0.0
 11
135.6387781640731
 21
389.07466564917229
 31
0.0
  0
LINE
  5
218D6
  8
KI2
 10
135.6387781640731
 20
389.07466564917229
 30
0.0
 11
135.6387781640731
 21
381.17466564917231
 31
0.0
  0
LINE
  5
218D7
  8
KI2
 10
136.1387781640731
 20
389.57466564917229
 30
0.0
 11
135.6387781640731
 21
389.07466564917229
 31
0.0
  0
LINE
  5
218D8
  8
KI2
 10
140.0787781640731
 20
389.07466564917229
 30
0.0
 11
140.0787781640731
 21
381.17466564917231
 31
0.0
  0
LINE
  5
218D9
  8
KI2
 10
140.0787781640731
 20
389.07466564917229
 30
0.0
 11
139.5787781640731
 21
389.57466564917229
 31
0.0
  0
LINE
  5
218DA
  8
KI2
 10
141.8587781640731
 20
381.17466564917231
 30
0.0
 11
141.8587781640731
 21
379.36466564917231
 31
0.0
  0
LINE
  5
218DB
  8
KI2
 10
143.75877816407311
 20
379.36466564917231
 30
0.0
 11
143.75877816407311
 21
377.36466564917231
 31
0.0
  0
LINE
  5
218E8
  8
KI1
 10
121.35878694559641
 20
363.47466564917249
 30
0.0
 11
121.35878694559641
 21
113.4746648657994
 31
0.0
  0
LINE
  5
218E9
  8
KI1
 10
154.35878694559639
 20
363.47466564917249
 30
0.0
 11
154.35878694559639
 21
113.4746648657994
 31
0.0
  0
LINE
  5
218EB
  8
KI1
 10
193.35878694559639
 20
363.47466564917249
 30
0.0
 11
226.35877816391459
 21
363.47466564917249
 31
0.0
  0
LINE
  5
218EC
  8
KI2
 10
205.8587781640731
 20
381.17466564917231
 30
0.0
 11
213.8587781640731
 21
381.17466564917231
 31
0.0
  0
LINE
  5
218ED
  8
KI2
 10
203.9587781640731
 20
377.36466564917231
 30
0.0
 11
215.75877816407311
 21
377.36466564917231
 31
0.0
  0
LINE
  5
218EE
  8
KI2
 10
203.9587781640731
 20
379.36466564917231
 30
0.0
 11
215.75877816407311
 21
379.36466564917231
 31
0.0
  0
LINE
  5
218EF
  8
KI2
 10
205.8587781640731
 20
381.17466564917231
 30
0.0
 11
205.8587781640731
 21
379.36466564917231
 31
0.0
  0
LINE
  5
218F0
  8
KI2
 10
203.9587781640731
 20
379.36466564917231
 30
0.0
 11
203.9587781640731
 21
377.36466564917231
 31
0.0
  0
LINE
  5
218F1
  8
KI2
 10
212.8587781640731
 20
377.36466564917231
 30
0.0
 11
212.8587781640731
 21
363.47466564917249
 31
0.0
  0
LINE
  5
218F2
  8
KI2
 10
206.8587781640731
 20
377.36466564917231
 30
0.0
 11
206.8587781640731
 21
363.47466564917249
 31
0.0
  0
LINE
  5
218F3
  8
KI2
 10
206.8587781640731
 20
374.85466564917232
 30
0.0
 11
212.8587781640731
 21
374.85466564917232
 31
0.0
  0
LINE
  5
218F4
  8
KI2
 10
208.1387781640731
 20
389.57466564917229
 30
0.0
 11
211.5787781640731
 21
389.57466564917229
 31
0.0
  0
LINE
  5
218F5
  8
KI2
 10
212.0787781640731
 20
389.07466564917229
 30
0.0
 11
207.6387781640731
 21
389.07466564917229
 31
0.0
  0
LINE
  5
218F6
  8
KI2
 10
207.6387781640731
 20
389.07466564917229
 30
0.0
 11
207.6387781640731
 21
381.17466564917231
 31
0.0
  0
LINE
  5
218F7
  8
KI2
 10
208.1387781640731
 20
389.57466564917229
 30
0.0
 11
207.6387781640731
 21
389.07466564917229
 31
0.0
  0
LINE
  5
218F8
  8
KI2
 10
212.0787781640731
 20
389.07466564917229
 30
0.0
 11
212.0787781640731
 21
381.17466564917231
 31
0.0
  0
LINE
  5
218F9
  8
KI2
 10
212.0787781640731
 20
389.07466564917229
 30
0.0
 11
211.5787781640731
 21
389.57466564917229
 31
0.0
  0
LINE
  5
218FA
  8
KI2
 10
213.8587781640731
 20
381.17466564917231
 30
0.0
 11
213.8587781640731
 21
379.36466564917231
 31
0.0
  0
LINE
  5
218FB
  8
KI2
 10
215.75877816407311
 20
379.36466564917231
 30
0.0
 11
215.75877816407311
 21
377.36466564917231
 31
0.0
  0
LINE
  5
21908
  8
KI1
 10
193.35878694559639
 20
363.47466564917249
 30
0.0
 11
193.35878694559639
 21
113.4746648657994
 31
0.0
  0
LINE
  5
21909
  8
KI1
 10
226.35878694559639
 20
363.47466564917249
 30
0.0
 11
226.3587869455271
 21
113.4746648657994
 31
0.0
  0
LINE
  5
2190B
  8
KI1
 10
188.10877937898999
 20
398.77466486470468
 30
0.0
 11
179.35877937898999
 21
398.77466486470468
 31
0.0
  0
ARC
  5
2190C
  8
KI1
 10
185.9587793789899
 20
373.47466486470472
 30
0.0
 40
0.5
 50
270.0
 51
0.0
  0
LINE
  5
2190D
  8
KI1
 10
187.9587793789899
 20
376.47466486470472
 30
0.0
 11
186.4587793789899
 21
376.47466486470472
 31
0.0
  0
LINE
  5
2190E
  8
KI1
 10
185.8087793789899
 20
377.62466486470458
 30
0.0
 11
187.9587793789899
 21
377.62466486470458
 31
0.0
  0
LINE
  5
2190F
  8
KI1
 10
159.60877937898999
 20
398.77466486470468
 30
0.0
 11
168.35877937898999
 21
398.77466486470468
 31
0.0
  0
LINE
  5
21910
  8
KI1
 10
161.90877937898989
 20
377.62466486470458
 30
0.0
 11
159.75877937898991
 21
377.62466486470458
 31
0.0
  0
LINE
  5
21911
  8
KI1
 10
159.75877937898991
 20
376.47466486470472
 30
0.0
 11
161.25877937899
 21
376.47466486470472
 31
0.0
  0
LINE
  5
21912
  8
KI1
 10
160.25877937899
 20
397.62466486470458
 30
0.0
 11
187.4587793789899
 21
397.62466486470458
 31
0.0
  0
ARC
  5
21913
  8
KI1
 10
159.10877937898999
 20
399.97466486470472
 30
0.0
 40
0.5
 50
0.0
 51
180.0
  0
ARC
  5
21914
  8
KI1
 10
159.1837793789899
 20
374.70466486470468
 30
0.0
 40
0.575000000000003
 50
180.0
 51
0.0
  0
LINE
  5
21915
  8
KI1
 10
158.60877937898999
 20
374.70466486470468
 30
0.0
 11
158.60877937898999
 21
399.97466486470472
 31
0.0
  0
LINE
  5
21916
  8
KI1
 10
159.60877937898999
 20
399.97466486470472
 30
0.0
 11
159.60877937898999
 21
398.77466486470468
 31
0.0
  0
LINE
  5
21917
  8
KI1
 10
159.75877937898991
 20
377.62466486470458
 30
0.0
 11
159.75877937898991
 21
397.1246648647047
 31
0.0
  0
LINE
  5
21918
  8
KI1
 10
159.75877937898991
 20
374.70466486470468
 30
0.0
 11
159.75877937898991
 21
376.47466486470472
 31
0.0
  0
ARC
  5
21919
  8
KI1
 10
160.25877937899
 20
397.1246648647047
 30
0.0
 40
0.4999999999999999
 50
90.0
 51
180.0
  0
LINE
  5
2191A
  8
KI1
 10
169.35877937898999
 20
398.77466486470468
 30
0.0
 11
178.35877937898991
 21
398.77466486470468
 31
0.0
  0
ARC
  5
2191B
  8
KI1
 10
166.78377937898989
 20
382.14966486470468
 30
0.0
 40
0.5749999999999959
 50
0.0
 51
180.0
  0
LINE
  5
2191C
  8
KI1
 10
167.05877937899001
 20
372.97466486470472
 30
0.0
 11
161.75877937898991
 21
372.97466486470472
 31
0.0
  0
LINE
  5
2191D
  8
KI1
 10
165.90877937898989
 20
374.1246648647047
 30
0.0
 11
162.40877937898989
 21
374.1246648647047
 31
0.0
  0
ARC
  5
2191E
  8
KI1
 10
161.90877937898989
 20
377.12466486470458
 30
0.0
 40
0.5
 50
0.0
 51
90.0
  0
ARC
  5
2191F
  8
KI1
 10
161.75877937898991
 20
373.47466486470472
 30
0.0
 40
0.5
 50
180.0
 51
270.0
  0
LINE
  5
21920
  8
KI1
 10
161.25877937899
 20
373.47466486470472
 30
0.0
 11
161.25877937899
 21
376.47466486470472
 31
0.0
  0
LINE
  5
21921
  8
KI1
 10
162.40877937898989
 20
377.12466486470458
 30
0.0
 11
162.40877937898989
 21
374.1246648647047
 31
0.0
  0
LINE
  5
21922
  8
KI1
 10
166.2087793789899
 20
374.42466486470471
 30
0.0
 11
166.2087793789899
 21
382.14966486470468
 31
0.0
  0
ARC
  5
21923
  8
KI1
 10
165.90877937898989
 20
374.42466486470471
 30
0.0
 40
0.2999999999999999
 50
270.0
 51
0.0
  0
LINE
  5
21924
  8
KI1
 10
169.1100435183389
 20
380.2746648647045
 30
0.0
 11
167.55877937899001
 21
380.2746648647045
 31
0.0
  0
LINE
  5
21925
  8
KI1
 10
169.30877937899001
 20
373.97466486470461
 30
0.0
 11
167.35877937898999
 21
373.97466486470461
 31
0.0
  0
LINE
  5
21926
  8
KI1
 10
169.31004351833889
 20
381.42466486470448
 30
0.0
 11
167.35877937898999
 21
381.42466486470448
 31
0.0
  0
LINE
  5
21927
  8
KI1
 10
168.4587793789899
 20
375.67466486470448
 30
0.0
 11
169.10877937898999
 21
376.67466486470448
 31
0.0
  0
ARC
  5
21928
  8
KI1
 10
168.85877937898999
 20
399.97466486470472
 30
0.0
 40
0.5
 50
0.0
 51
180.0
  0
LINE
  5
21929
  8
KI1
 10
167.35877937898999
 20
378.7746648647045
 30
0.0
 11
167.55877937899001
 21
380.2746648647045
 31
0.0
  0
LINE
  5
2192A
  8
KI1
 10
167.35877937898999
 20
375.2746648647045
 30
0.0
 11
167.35877937898999
 21
378.7746648647045
 31
0.0
  0
LINE
  5
2192B
  8
KI1
 10
168.4587793789899
 20
375.2746648647045
 30
0.0
 11
167.35877937898999
 21
375.2746648647045
 31
0.0
  0
LINE
  5
2192C
  8
KI1
 10
168.4587793789899
 20
375.2746648647045
 30
0.0
 11
168.4587793789899
 21
375.67466486470448
 31
0.0
  0
LINE
  5
2192D
  8
KI1
 10
167.35877937898999
 20
382.14966486470468
 30
0.0
 11
167.35877937898999
 21
381.42466486470448
 31
0.0
  0
LINE
  5
2192E
  8
KI1
 10
168.35877937898999
 20
399.97466486470472
 30
0.0
 11
168.35877937898999
 21
398.77466486470468
 31
0.0
  0
ARC
  5
2192F
  8
KI1
 10
167.05877937899001
 20
373.27466486470468
 30
0.0
 40
0.2999999999999999
 50
270.0
 51
0.0
  0
LINE
  5
21930
  8
KI1
 10
167.35877937898999
 20
373.27466486470468
 30
0.0
 11
167.35877937898999
 21
373.97466486470461
 31
0.0
  0
ARC
  5
21931
  8
KI1
 10
169.30877937899001
 20
374.2746648647045
 30
0.0
 40
0.2999999999999999
 50
270.0
 51
0.0
  0
ARC
  5
21932
  8
KI1
 10
169.31004351833889
 20
381.12466486470453
 30
0.0
 40
0.2999999999999999
 50
0.0
 51
90.0
  0
LINE
  5
21933
  8
KI1
 10
169.6100435183389
 20
381.12466486470453
 30
0.0
 11
169.6100435183389
 21
380.7746648647045
 31
0.0
  0
LINE
  5
21934
  8
KI1
 10
169.60877937898999
 20
376.37466486470453
 30
0.0
 11
169.60877937898999
 21
374.2746648647045
 31
0.0
  0
ARC
  5
21935
  8
KI1
 10
169.30877937899001
 20
376.37466486470453
 30
0.0
 40
0.2999999999999999
 50
0.0
 51
90.0
  0
LINE
  5
21936
  8
KI1
 10
169.30877937899001
 20
376.67466486470448
 30
0.0
 11
169.10877937898999
 21
376.67466486470448
 31
0.0
  0
ARC
  5
21937
  8
KI1
 10
169.1100435183389
 20
380.7746648647045
 30
0.0
 40
0.5
 50
270.0
 51
0.0
  0
LINE
  5
21938
  8
KI1
 10
169.35877937898999
 20
399.97466486470472
 30
0.0
 11
169.35877937898999
 21
398.77466486470468
 31
0.0
  0
LINE
  5
21939
  8
KI1
 10
178.6100435183389
 20
380.2746648647045
 30
0.0
 11
180.15877937898989
 21
380.2746648647045
 31
0.0
  0
LINE
  5
2193A
  8
KI1
 10
178.40877937898989
 20
373.97466486470461
 30
0.0
 11
180.35877937898999
 21
373.97466486470461
 31
0.0
  0
LINE
  5
2193B
  8
KI1
 10
179.25877937898991
 20
375.2746648647045
 30
0.0
 11
180.35877937898999
 21
375.2746648647045
 31
0.0
  0
LINE
  5
2193C
  8
KI1
 10
178.4100435183388
 20
381.42466486470448
 30
0.0
 11
180.35877937898999
 21
381.42466486470448
 31
0.0
  0
ARC
  5
2193D
  8
KI1
 10
178.6100435183389
 20
380.7746648647045
 30
0.0
 40
0.5
 50
180.0
 51
270.0
  0
LINE
  5
2193E
  8
KI1
 10
178.40877937898989
 20
376.67466486470448
 30
0.0
 11
178.60877937898999
 21
376.67466486470448
 31
0.0
  0
ARC
  5
2193F
  8
KI1
 10
178.85877937898999
 20
399.97466486470472
 30
0.0
 40
0.5
 50
0.0
 51
180.0
  0
ARC
  5
21940
  8
KI1
 10
178.40877937898989
 20
374.2746648647045
 30
0.0
 40
0.2999999999999999
 50
180.0
 51
270.0
  0
ARC
  5
21941
  8
KI1
 10
178.4100435183388
 20
381.12466486470453
 30
0.0
 40
0.2999999999999999
 50
90.0
 51
180.0
  0
LINE
  5
21942
  8
KI1
 10
178.1100435183389
 20
381.12466486470453
 30
0.0
 11
178.1100435183389
 21
380.7746648647045
 31
0.0
  0
LINE
  5
21943
  8
KI1
 10
178.10877937898999
 20
376.37466486470453
 30
0.0
 11
178.10877937898999
 21
374.2746648647045
 31
0.0
  0
ARC
  5
21944
  8
KI1
 10
178.40877937898989
 20
376.37466486470453
 30
0.0
 40
0.2999999999999999
 50
90.0
 51
180.0
  0
LINE
  5
21945
  8
KI1
 10
178.35877937898999
 20
399.97466486470472
 30
0.0
 11
178.35877937898999
 21
398.77466486470468
 31
0.0
  0
LINE
  5
21946
  8
KI1
 10
179.25877937898991
 20
375.2746648647045
 30
0.0
 11
179.25877937898991
 21
375.67466486470448
 31
0.0
  0
LINE
  5
21947
  8
KI1
 10
179.25877937898991
 20
375.67466486470448
 30
0.0
 11
178.60877937898999
 21
376.67466486470448
 31
0.0
  0
LINE
  5
21948
  8
KI1
 10
179.35877937898999
 20
399.97466486470472
 30
0.0
 11
179.35877937898999
 21
398.77466486470468
 31
0.0
  0
LINE
  5
21949
  8
KI1
 10
180.65877937898989
 20
372.97466486470472
 30
0.0
 11
185.9587793789899
 21
372.97466486470472
 31
0.0
  0
LINE
  5
2194A
  8
KI1
 10
181.8087793789899
 20
374.1246648647047
 30
0.0
 11
185.3087793789899
 21
374.1246648647047
 31
0.0
  0
ARC
  5
2194B
  8
KI1
 10
181.8087793789899
 20
374.42466486470471
 30
0.0
 40
0.2999999999999999
 50
180.0
 51
270.0
  0
LINE
  5
2194C
  8
KI1
 10
180.15877937898989
 20
380.2746648647045
 30
0.0
 11
180.35877937898999
 21
378.7746648647045
 31
0.0
  0
LINE
  5
2194D
  8
KI1
 10
180.35877937898999
 20
375.2746648647045
 30
0.0
 11
180.35877937898999
 21
378.7746648647045
 31
0.0
  0
LINE
  5
2194E
  8
KI1
 10
181.50877937898991
 20
374.42466486470471
 30
0.0
 11
181.50877937898991
 21
382.14966486470468
 31
0.0
  0
LINE
  5
2194F
  8
KI1
 10
180.35877937898999
 20
382.14966486470468
 30
0.0
 11
180.35877937898999
 21
381.42466486470448
 31
0.0
  0
ARC
  5
21950
  8
KI1
 10
180.9337793789899
 20
382.14966486470468
 30
0.0
 40
0.5749999999999959
 50
0.0
 51
180.0
  0
LINE
  5
21951
  8
KI1
 10
180.35877937898999
 20
373.27466486470468
 30
0.0
 11
180.35877937898999
 21
373.97466486470461
 31
0.0
  0
ARC
  5
21952
  8
KI1
 10
180.65877937898989
 20
373.27466486470468
 30
0.0
 40
0.2999999999999999
 50
180.0
 51
270.0
  0
LINE
  5
21953
  8
KI1
 10
186.4587793789899
 20
373.47466486470472
 30
0.0
 11
186.4587793789899
 21
376.47466486470472
 31
0.0
  0
ARC
  5
21954
  8
KI1
 10
188.60877937898999
 20
399.97466486470472
 30
0.0
 40
0.5
 50
0.0
 51
180.0
  0
ARC
  5
21955
  8
KI1
 10
188.53377937898989
 20
374.70466486470468
 30
0.0
 40
0.575000000000003
 50
180.0
 51
0.0
  0
LINE
  5
21956
  8
KI1
 10
188.10877937898999
 20
399.97466486470472
 30
0.0
 11
188.10877937898999
 21
398.77466486470468
 31
0.0
  0
LINE
  5
21957
  8
KI1
 10
187.9587793789899
 20
377.62466486470458
 30
0.0
 11
187.9587793789899
 21
397.1246648647047
 31
0.0
  0
LINE
  5
21958
  8
KI1
 10
187.9587793789899
 20
374.70466486470468
 30
0.0
 11
187.9587793789899
 21
376.47466486470472
 31
0.0
  0
ARC
  5
21959
  8
KI1
 10
187.4587793789899
 20
397.1246648647047
 30
0.0
 40
0.4999999999999999
 50
0.0
 51
90.0
  0
LINE
  5
2195A
  8
KI1
 10
189.10877937898999
 20
374.70466486470468
 30
0.0
 11
189.10877937898999
 21
399.97466486470472
 31
0.0
  0
ARC
  5
2195B
  8
KI1
 10
185.80877937899001
 20
377.12466486470458
 30
0.0
 40
0.5
 50
90.0
 51
180.0
  0
LINE
  5
2195C
  8
KI1
 10
185.30877937899001
 20
377.12466486470458
 30
0.0
 11
185.30877937899001
 21
374.1246648647047
 31
0.0
  0
LINE
  5
2195D
  8
KI1
 10
201.90877937899009
 20
374.1246648647047
 30
0.0
 11
195.75877937899011
 21
374.1246648647047
 31
0.0
  0
LINE
  5
2195E
  8
KI1
 10
203.0587793789901
 20
372.97466486470472
 30
0.0
 11
186.67877937898999
 21
372.97466486470472
 31
0.0
  0
LINE
  5
2195F
  8
KI1
 10
195.60877937898999
 20
398.77466486470468
 30
0.0
 11
204.35877937898999
 21
398.77466486470468
 31
0.0
  0
LINE
  5
21960
  8
KI1
 10
196.25877937899
 20
397.62466486470458
 30
0.0
 11
223.45877937898999
 21
397.62466486470458
 31
0.0
  0
LINE
  5
21961
  8
KI1
 10
194.60877937898999
 20
374.1246648647047
 30
0.0
 11
187.87877937899
 21
374.1246648647047
 31
0.0
  0
ARC
  5
21962
  8
KI1
 10
187.27877937899001
 20
375.37466486470458
 30
0.0
 40
0.5999999999999996
 50
0.0
 51
180.0
  0
LINE
  5
21963
  8
KI1
 10
186.67877937898999
 20
375.37466486470458
 30
0.0
 11
186.67877937898999
 21
372.97466486470472
 31
0.0
  0
LINE
  5
21964
  8
KI1
 10
187.87877937899
 20
375.37466486470458
 30
0.0
 11
187.87877937899
 21
374.1246648647047
 31
0.0
  0
ARC
  5
21965
  8
KI1
 10
195.10877937898999
 20
399.97466486470472
 30
0.0
 40
0.5
 50
0.0
 51
180.0
  0
LINE
  5
21966
  8
KI1
 10
194.60877937898999
 20
374.1246648647047
 30
0.0
 11
194.60877937898999
 21
399.97466486470472
 31
0.0
  0
LINE
  5
21967
  8
KI1
 10
195.60877937898999
 20
399.97466486470472
 30
0.0
 11
195.60877937898999
 21
398.77466486470468
 31
0.0
  0
LINE
  5
21968
  8
KI1
 10
195.75877937899011
 20
374.1246648647047
 30
0.0
 11
195.75877937899011
 21
397.1246648647047
 31
0.0
  0
ARC
  5
21969
  8
KI1
 10
196.25877937899
 20
397.1246648647047
 30
0.0
 40
0.4999999999999999
 50
90.0
 51
180.0
  0
LINE
  5
2196A
  8
KI1
 10
229.40877937899009
 20
372.97466486470472
 30
0.0
 11
216.65877937899009
 21
372.97466486470472
 31
0.0
  0
LINE
  5
2196B
  8
KI1
 10
230.20877937898999
 20
373.97466486470461
 30
0.0
 11
225.10877937898999
 21
373.97466486470461
 31
0.0
  0
LINE
  5
2196C
  8
KI1
 10
214.40877937899009
 20
373.97466486470461
 30
0.0
 11
216.35877937898999
 21
373.97466486470461
 31
0.0
  0
LINE
  5
2196D
  8
KI1
 10
214.41004351833899
 20
381.4246648647046
 30
0.0
 11
216.35877937898999
 21
381.4246648647046
 31
0.0
  0
ARC
  5
2196E
  8
KI1
 10
214.6100435183389
 20
380.7746648647045
 30
0.0
 40
0.5
 50
180.0
 51
270.0
  0
LINE
  5
2196F
  8
KI1
 10
214.40877937899009
 20
376.67466486470448
 30
0.0
 11
214.60877937898999
 21
376.67466486470448
 31
0.0
  0
ARC
  5
21970
  8
KI1
 10
214.85877937898999
 20
399.97466486470472
 30
0.0
 40
0.5
 50
0.0
 51
180.0
  0
LINE
  5
21971
  8
KI1
 10
205.1100435183389
 20
380.2746648647045
 30
0.0
 11
203.55877937899001
 21
380.2746648647045
 31
0.0
  0
LINE
  5
21972
  8
KI1
 10
205.3087793789901
 20
373.97466486470461
 30
0.0
 11
203.35877937898999
 21
373.97466486470461
 31
0.0
  0
LINE
  5
21973
  8
KI1
 10
205.31004351833889
 20
381.4246648647046
 30
0.0
 11
203.35877937898999
 21
381.4246648647046
 31
0.0
  0
LINE
  5
21974
  8
KI1
 10
204.45877937898999
 20
375.67466486470448
 30
0.0
 11
205.10877937898999
 21
376.67466486470448
 31
0.0
  0
ARC
  5
21975
  8
KI1
 10
204.85877937898999
 20
399.97466486470472
 30
0.0
 40
0.5
 50
0.0
 51
180.0
  0
LINE
  5
21976
  8
KI1
 10
204.35877937898999
 20
399.97466486470472
 30
0.0
 11
204.35877937898999
 21
398.77466486470468
 31
0.0
  0
ARC
  5
21977
  8
KI1
 10
202.78377937899009
 20
382.14966486470468
 30
0.0
 40
0.5749999999999959
 50
0.0
 51
180.0
  0
ARC
  5
21978
  8
KI1
 10
203.0587793789901
 20
373.27466486470468
 30
0.0
 40
0.2999999999999999
 50
270.0
 51
0.0
  0
LINE
  5
21979
  8
KI1
 10
202.20877937898999
 20
374.42466486470471
 30
0.0
 11
202.20877937898999
 21
382.14966486470468
 31
0.0
  0
ARC
  5
2197A
  8
KI1
 10
201.90877937899009
 20
374.42466486470471
 30
0.0
 40
0.2999999999999999
 50
270.0
 51
0.0
  0
LINE
  5
2197B
  8
KI1
 10
203.55877937899001
 20
380.2746648647045
 30
0.0
 11
203.35877937898999
 21
378.7746648647045
 31
0.0
  0
LINE
  5
2197C
  8
KI1
 10
203.35877937898999
 20
375.2746648647045
 30
0.0
 11
203.35877937898999
 21
378.7746648647045
 31
0.0
  0
LINE
  5
2197D
  8
KI1
 10
204.45877937898999
 20
375.2746648647045
 30
0.0
 11
203.35877937898999
 21
375.2746648647045
 31
0.0
  0
LINE
  5
2197E
  8
KI1
 10
204.45877937898999
 20
375.2746648647045
 30
0.0
 11
204.45877937898999
 21
375.67466486470448
 31
0.0
  0
LINE
  5
2197F
  8
KI1
 10
203.35877937898999
 20
382.14966486470468
 30
0.0
 11
203.35877937898999
 21
381.4246648647046
 31
0.0
  0
LINE
  5
21980
  8
KI1
 10
203.35877937898999
 20
373.27466486470468
 30
0.0
 11
203.35877937898999
 21
373.97466486470461
 31
0.0
  0
LINE
  5
21981
  8
KI1
 10
205.35877937898999
 20
399.97466486470472
 30
0.0
 11
205.35877937898999
 21
398.77466486470468
 31
0.0
  0
ARC
  5
21982
  8
KI1
 10
205.3087793789901
 20
374.2746648647045
 30
0.0
 40
0.2999999999999999
 50
270.0
 51
0.0
  0
ARC
  5
21983
  8
KI1
 10
205.31004351833889
 20
381.12466486470453
 30
0.0
 40
0.2999999999999999
 50
0.0
 51
90.0
  0
LINE
  5
21984
  8
KI1
 10
205.6100435183389
 20
381.12466486470453
 30
0.0
 11
205.6100435183389
 21
380.7746648647045
 31
0.0
  0
LINE
  5
21985
  8
KI1
 10
205.60877937898999
 20
376.37466486470453
 30
0.0
 11
205.60877937898999
 21
374.2746648647045
 31
0.0
  0
ARC
  5
21986
  8
KI1
 10
205.3087793789901
 20
376.37466486470453
 30
0.0
 40
0.2999999999999999
 50
0.0
 51
90.0
  0
LINE
  5
21987
  8
KI1
 10
205.3087793789901
 20
376.67466486470448
 30
0.0
 11
205.10877937898999
 21
376.67466486470448
 31
0.0
  0
ARC
  5
21988
  8
KI1
 10
205.1100435183389
 20
380.7746648647045
 30
0.0
 40
0.5
 50
270.0
 51
0.0
  0
LINE
  5
21989
  8
KI1
 10
214.35877937898999
 20
398.77466486470468
 30
0.0
 11
205.35877937898999
 21
398.77466486470468
 31
0.0
  0
LINE
  5
2198A
  8
KI1
 10
214.35877937898999
 20
399.97466486470472
 30
0.0
 11
214.35877937898999
 21
398.77466486470468
 31
0.0
  0
ARC
  5
2198B
  8
KI1
 10
214.40877937899009
 20
374.2746648647045
 30
0.0
 40
0.2999999999999999
 50
180.0
 51
270.0
  0
ARC
  5
2198C
  8
KI1
 10
214.41004351833899
 20
381.12466486470453
 30
0.0
 40
0.2999999999999999
 50
90.0
 51
180.0
  0
LINE
  5
2198D
  8
KI1
 10
214.1100435183389
 20
381.12466486470453
 30
0.0
 11
214.1100435183389
 21
380.7746648647045
 31
0.0
  0
LINE
  5
2198E
  8
KI1
 10
214.10877937898999
 20
376.37466486470453
 30
0.0
 11
214.10877937898999
 21
374.2746648647045
 31
0.0
  0
ARC
  5
2198F
  8
KI1
 10
214.40877937899009
 20
376.37466486470453
 30
0.0
 40
0.2999999999999999
 50
90.0
 51
180.0
  0
LINE
  5
21990
  8
KI1
 10
217.8087793789901
 20
374.1246648647047
 30
0.0
 11
223.95877937898999
 21
374.1246648647047
 31
0.0
  0
LINE
  5
21991
  8
KI1
 10
224.10877937898999
 20
398.77466486470468
 30
0.0
 11
215.35877937898999
 21
398.77466486470468
 31
0.0
  0
ARC
  5
21992
  8
KI1
 10
217.8087793789901
 20
374.42466486470471
 30
0.0
 40
0.2999999999999999
 50
180.0
 51
270.0
  0
LINE
  5
21993
  8
KI1
 10
215.35877937898999
 20
399.97466486470472
 30
0.0
 11
215.35877937898999
 21
398.77466486470468
 31
0.0
  0
LINE
  5
21994
  8
KI1
 10
214.6100435183389
 20
380.2746648647045
 30
0.0
 11
216.15877937899009
 21
380.2746648647045
 31
0.0
  0
LINE
  5
21995
  8
KI1
 10
215.25877937899011
 20
375.2746648647045
 30
0.0
 11
216.35877937898999
 21
375.2746648647045
 31
0.0
  0
LINE
  5
21996
  8
KI1
 10
215.25877937899011
 20
375.2746648647045
 30
0.0
 11
215.25877937899011
 21
375.67466486470448
 31
0.0
  0
LINE
  5
21997
  8
KI1
 10
215.25877937899011
 20
375.67466486470448
 30
0.0
 11
214.60877937898999
 21
376.67466486470448
 31
0.0
  0
LINE
  5
21998
  8
KI1
 10
216.15877937899009
 20
380.2746648647045
 30
0.0
 11
216.35877937898999
 21
378.7746648647045
 31
0.0
  0
LINE
  5
21999
  8
KI1
 10
216.35877937898999
 20
375.2746648647045
 30
0.0
 11
216.35877937898999
 21
378.7746648647045
 31
0.0
  0
LINE
  5
2199A
  8
KI1
 10
217.50877937899011
 20
374.42466486470471
 30
0.0
 11
217.50877937899011
 21
382.14966486470468
 31
0.0
  0
LINE
  5
2199B
  8
KI1
 10
216.35877937898999
 20
382.14966486470468
 30
0.0
 11
216.35877937898999
 21
381.4246648647046
 31
0.0
  0
ARC
  5
2199C
  8
KI1
 10
216.93377937899001
 20
382.14966486470468
 30
0.0
 40
0.5749999999999959
 50
0.0
 51
180.0
  0
LINE
  5
2199D
  8
KI1
 10
216.35877937898999
 20
373.27466486470468
 30
0.0
 11
216.35877937898999
 21
373.97466486470461
 31
0.0
  0
ARC
  5
2199E
  8
KI1
 10
216.65877937899009
 20
373.27466486470468
 30
0.0
 40
0.2999999999999999
 50
180.0
 51
270.0
  0
ARC
  5
2199F
  8
KI1
 10
224.60877937898999
 20
399.97466486470472
 30
0.0
 40
0.5
 50
0.0
 51
180.0
  0
LINE
  5
219A0
  8
KI1
 10
224.10877937898999
 20
399.97466486470472
 30
0.0
 11
224.10877937898999
 21
398.77466486470468
 31
0.0
  0
LINE
  5
219A1
  8
KI1
 10
223.95877937898999
 20
374.1246648647047
 30
0.0
 11
223.95877937898999
 21
397.1246648647047
 31
0.0
  0
ARC
  5
219A2
  8
KI1
 10
223.45877937898999
 20
397.1246648647047
 30
0.0
 40
0.4999999999999999
 50
0.0
 51
90.0
  0
LINE
  5
219A3
  8
KI1
 10
225.10877937898999
 20
373.97466486470461
 30
0.0
 11
225.10877937898999
 21
399.97466486470472
 31
0.0
  0
ARC
  5
219A4
  8
KI1
 10
230.20877937898999
 20
373.47466486470472
 30
0.0
 40
0.5
 50
0.0
 51
90.0
  0
ARC
  5
219A5
  8
KI1
 10
229.40877937899009
 20
372.67466486470471
 30
0.0
 40
0.2999999999999999
 50
0.0
 51
90.0
  0
LINE
  5
219A6
  8
KI1
 10
229.70877937898999
 20
372.67466486470471
 30
0.0
 11
229.70877937898999
 21
360.47466486470472
 31
0.0
  0
LINE
  5
219A7
  8
KI1
 10
230.70877937898999
 20
373.47466486470472
 30
0.0
 11
230.70877937898999
 21
360.47466486470472
 31
0.0
  0
ARC
  5
219A8
  8
KI1
 10
230.20877937898999
 20
360.47466486470472
 30
0.0
 40
0.5
 50
180.0
 51
0.0
  0
LINE
  5
219A9
  8
OS
 10
90.858779378989993
 20
164.47466685852049
 30
0.0
 11
121.35878694559641
 21
164.47466685852049
 31
0.0
  0
LINE
  5
219AB
  8
OS
 10
122.60877937898999
 20
400.47466486470472
 30
0.0
 11
53.858843928438773
 21
400.47466486470472
 31
0.0
  0
LINE
  5
219AC
  8
OS
 10
122.60877937898999
 20
409.97466486470461
 30
0.0
 11
53.858843928438773
 21
409.97466486470461
 31
0.0
  0
LINE
  5
219AD
  8
OS
 10
226.35877937898999
 20
484.97466486470461
 30
0.0
 11
226.35877937898999
 21
409.97466486470461
 31
0.0
  0
LINE
  5
219AE
  8
OS
 10
121.35877937898999
 20
484.97466486470461
 30
0.0
 11
121.35877937898999
 21
409.97466486470461
 31
0.0
  0
LINE
  5
219AF
  8
OS
 10
293.85884392843877
 20
407.97466486470461
 30
0.0
 11
225.10877937898999
 21
407.97466486470461
 31
0.0
  0
LINE
  5
219B0
  8
OS
 10
122.60877937898999
 20
407.97466486470461
 30
0.0
 11
53.858843928438773
 21
407.97466486470461
 31
0.0
  0
LINE
  5
219B1
  8
OS
 10
293.85884392843877
 20
402.47466486470461
 30
0.0
 11
225.10877937898999
 21
402.47466486470461
 31
0.0
  0
LINE
  5
219B2
  8
OS
 10
122.60877937898999
 20
402.47466486470461
 30
0.0
 11
53.858843928438773
 21
402.47466486470461
 31
0.0
  0
LINE
  5
219B3
  8
OS
 10
76.358895135387911
 20
454.97466486470472
 30
0.0
 11
76.358895135387911
 21
409.97466486470461
 31
0.0
  0
LINE
  5
219B4
  8
OS
 10
76.358895135387911
 20
454.97466486470472
 30
0.0
 11
121.35877937898999
 21
454.97466486470472
 31
0.0
  0
LINE
  5
219B5
  8
OS
 10
76.358895135387911
 20
409.97466486470461
 30
0.0
 11
121.35877937898999
 21
454.97466486470472
 31
0.0
  0
LINE
  5
219B6
  8
OS
 10
271.35717813624302
 20
454.97714059674757
 30
0.0
 11
271.35832079387109
 21
409.97714061125498
 31
0.0
  0
LINE
  5
219B7
  8
OS
 10
271.35717813624302
 20
454.97714059674757
 30
0.0
 11
226.3572939071484
 21
454.97599794205888
 31
0.0
  0
LINE
  5
219B8
  8
OS
 10
226.35877937898999
 20
409.97466486470461
 30
0.0
 11
271.35717813624302
 21
454.97714059674757
 31
0.0
  0
LINE
  5
219B9
  8
OS
 10
293.85884392843877
 20
400.47466486470472
 30
0.0
 11
225.10877937898999
 21
400.47466486470472
 31
0.0
  0
LINE
  5
219BA
  8
OS
 10
293.85884392843877
 20
409.97466486470461
 30
0.0
 11
225.10877937898999
 21
409.97466486470461
 31
0.0
  0
LINE
  5
219BC
  8
OS
 10
122.60877937898999
 20
400.47466486470472
 30
0.0
 11
225.10877937898999
 21
409.97466486470461
 31
0.0
  0
LINE
  5
219BD
  8
OS
 10
96.858779378989993
 20
400.47466486470472
 30
0.0
 11
96.858779378989993
 21
329.97466526678261
 31
0.0
  0
LINE
  5
219BE
  8
OS
 10
96.858779378989993
 20
311.97466526678261
 30
0.0
 11
96.858779378989993
 21
164.47466685852049
 31
0.0
  0
LINE
  5
219BF
  8
TS
 10
96.858779378989993
 20
164.47466685852049
 30
0.0
 11
96.858779378989993
 21
104.47466685852049
 31
0.0
  0
LINE
  5
219C0
  8
OS
 10
90.858779378989993
 20
164.47466685852049
 30
0.0
 11
90.858779378989993
 21
104.47466685852049
 31
0.0
  0
LINE
  5
219C1
  8
OS
 10
250.85877937898999
 20
400.47466486470472
 30
0.0
 11
250.85877937898999
 21
329.97466526678261
 31
0.0
  0
LINE
  5
219C2
  8
OS
 10
250.85877937898999
 20
311.97466526678261
 30
0.0
 11
250.85877937898999
 21
164.47466685852049
 31
0.0
  0
LINE
  5
219C3
  8
OS
 10
256.85877937898999
 20
164.47466685852049
 30
0.0
 11
226.35878694559639
 21
164.47466685852049
 31
0.0
  0
LINE
  5
219C4
  8
TS
 10
250.85877937898999
 20
164.47466685852049
 30
0.0
 11
250.85877937898999
 21
104.47466685852049
 31
0.0
  0
LINE
  5
219C5
  8
OS
 10
256.85877937898999
 20
164.47466685852049
 30
0.0
 11
256.85877937898999
 21
104.47466685852049
 31
0.0
  0
LINE
  5
219C6
  8
SU
 10
87.959260326151664
 20
142.9967811755505
 30
0.0
 11
90.858779378989993
 21
139.47466685852049
 31
0.0
210
0.0
220
0.0
230
-1.0
  0
LINE
  5
219C7
  8
SU
 10
89.258298431828322
 20
143.7467811755505
 30
0.0
 11
90.858779378989993
 21
139.47466685852049
 31
0.0
210
0.0
220
0.0
230
-1.0
  0
LINE
  5
219C8
  8
SU
 10
90.858779378989993
 20
139.47466685852049
 30
0.0
 11
88.608779378989993
 21
143.3717811755505
 31
0.0
210
0.0
220
0.0
230
-1.0
  0
LINE
  5
219C9
  8
SU
 10
88.608779378989993
 20
143.3717811755505
 30
0.0
 11
78.753055667240915
 21
160.44239538966119
 31
0.0
210
0.0
220
0.0
230
-1.0
1001
ACAD
1000
DSTYLE
1002
{
1070
    41
1040
1.5
1070
    77
1070
     0
1070
   371
1070
    13
1002
}
  0
LINE
  5
219CA
  8
SU
 10
78.753055667240915
 20
160.44239538966119
 30
0.0
 11
57.391392980940957
 21
160.44239538966119
 31
0.0
210
0.0
220
0.0
230
-1.0
1001
ACAD
1000
DSTYLE
1002
{
1070
    41
1040
1.5
1070
    77
1070
     0
1070
   371
1070
    13
1002
}
  0
TEXT
  5
219CB
  8
SU
 10
59.899876909795239
 20
162.85211281994719
 30
0.0
 40
7.9999999999999956
  1
巾木
 41
0.9
  0
LINE
  5
219CF
  8
OS
 10
196.3585005569891
 20
484.97466486470461
 30
0.0
 11
121.35877937898999
 21
409.97466486470461
 31
0.0
  0
LINE
  5
219D2
  8
OS
 10
154.35878694559639
 20
164.47466685852049
 30
0.0
 11
157.35878694559639
 21
164.47466685852049
 31
0.0
  0
LINE
  5
219D3
  8
OS
 10
190.35878694559639
 20
164.47466685852049
 30
0.0
 11
193.35878694559639
 21
164.47466685852049
 31
0.0
  0
LINE
  5
21B8D
  8
KI1
 10
145.8087793789899
 20
374.1246648647047
 30
0.0
 11
151.9587793789899
 21
374.1246648647047
 31
0.0
  0
LINE
  5
21B8E
  8
KI1
 10
144.65877937898989
 20
372.97466486470472
 30
0.0
 11
161.03877937898989
 21
372.97466486470472
 31
0.0
  0
LINE
  5
21B8F
  8
KI1
 10
152.10877937898999
 20
398.77466486470468
 30
0.0
 11
143.35877937898999
 21
398.77466486470468
 31
0.0
  0
LINE
  5
21B90
  8
KI1
 10
151.4587793789899
 20
397.62466486470458
 30
0.0
 11
124.2587793789899
 21
397.62466486470458
 31
0.0
  0
LINE
  5
21B91
  8
KI1
 10
153.10877937898999
 20
374.1246648647047
 30
0.0
 11
159.83877937899001
 21
374.1246648647047
 31
0.0
  0
ARC
  5
21B92
  8
KI1
 10
160.43877937898989
 20
375.37466486470458
 30
0.0
 40
0.5999999999999996
 50
0.0
 51
180.0
  0
LINE
  5
21B93
  8
KI1
 10
161.03877937898989
 20
375.37466486470458
 30
0.0
 11
161.03877937898989
 21
372.97466486470472
 31
0.0
  0
LINE
  5
21B94
  8
KI1
 10
159.83877937899001
 20
375.37466486470458
 30
0.0
 11
159.83877937899001
 21
374.1246648647047
 31
0.0
  0
ARC
  5
21B95
  8
KI1
 10
152.60877937898999
 20
399.97466486470472
 30
0.0
 40
0.5
 50
0.0
 51
180.0
  0
LINE
  5
21B96
  8
KI1
 10
153.10877937898999
 20
374.1246648647047
 30
0.0
 11
153.10877937898999
 21
399.97466486470472
 31
0.0
  0
LINE
  5
21B97
  8
KI1
 10
152.10877937898999
 20
399.97466486470472
 30
0.0
 11
152.10877937898999
 21
398.77466486470468
 31
0.0
  0
LINE
  5
21B98
  8
KI1
 10
151.9587793789899
 20
374.1246648647047
 30
0.0
 11
151.9587793789899
 21
397.1246648647047
 31
0.0
  0
ARC
  5
21B99
  8
KI1
 10
151.4587793789899
 20
397.1246648647047
 30
0.0
 40
0.4999999999999999
 50
0.0
 51
90.0
  0
LINE
  5
21B9A
  8
KI1
 10
118.3087793789899
 20
372.97466486470472
 30
0.0
 11
131.0587793789899
 21
372.97466486470472
 31
0.0
  0
LINE
  5
21B9B
  8
KI1
 10
117.50877937899
 20
373.97466486470461
 30
0.0
 11
122.60877937898999
 21
373.97466486470461
 31
0.0
  0
LINE
  5
21B9C
  8
KI1
 10
133.3087793789899
 20
373.97466486470461
 30
0.0
 11
131.35877937898999
 21
373.97466486470461
 31
0.0
  0
LINE
  5
21B9D
  8
KI1
 10
133.30751523964099
 20
381.4246648647046
 30
0.0
 11
131.35877937898999
 21
381.4246648647046
 31
0.0
  0
ARC
  5
21B9E
  8
KI1
 10
133.10751523964109
 20
380.7746648647045
 30
0.0
 40
0.5
 50
270.0
 51
0.0
  0
LINE
  5
21B9F
  8
KI1
 10
133.3087793789899
 20
376.67466486470448
 30
0.0
 11
133.10877937898999
 21
376.67466486470448
 31
0.0
  0
ARC
  5
21BA0
  8
KI1
 10
132.85877937898999
 20
399.97466486470472
 30
0.0
 40
0.5
 50
0.0
 51
180.0
  0
LINE
  5
21BA1
  8
KI1
 10
142.60751523964109
 20
380.2746648647045
 30
0.0
 11
144.15877937898989
 21
380.2746648647045
 31
0.0
  0
LINE
  5
21BA2
  8
KI1
 10
142.40877937898989
 20
373.97466486470461
 30
0.0
 11
144.35877937898999
 21
373.97466486470461
 31
0.0
  0
LINE
  5
21BA3
  8
KI1
 10
142.40751523964099
 20
381.4246648647046
 30
0.0
 11
144.35877937898999
 21
381.4246648647046
 31
0.0
  0
LINE
  5
21BA4
  8
KI1
 10
143.25877937898991
 20
375.67466486470448
 30
0.0
 11
142.60877937898999
 21
376.67466486470448
 31
0.0
  0
ARC
  5
21BA5
  8
KI1
 10
142.85877937898999
 20
399.97466486470472
 30
0.0
 40
0.5
 50
0.0
 51
180.0
  0
LINE
  5
21BA6
  8
KI1
 10
143.35877937898999
 20
399.97466486470472
 30
0.0
 11
143.35877937898999
 21
398.77466486470468
 31
0.0
  0
ARC
  5
21BA7
  8
KI1
 10
144.9337793789899
 20
382.14966486470468
 30
0.0
 40
0.5749999999999959
 50
0.0
 51
180.0
  0
ARC
  5
21BA8
  8
KI1
 10
144.65877937898989
 20
373.27466486470468
 30
0.0
 40
0.2999999999999999
 50
180.0
 51
270.0
  0
LINE
  5
21BA9
  8
KI1
 10
145.50877937899
 20
374.42466486470471
 30
0.0
 11
145.50877937899
 21
382.14966486470468
 31
0.0
  0
ARC
  5
21BAA
  8
KI1
 10
145.8087793789899
 20
374.42466486470471
 30
0.0
 40
0.2999999999999999
 50
180.0
 51
270.0
  0
LINE
  5
21BAB
  8
KI1
 10
144.15877937898989
 20
380.2746648647045
 30
0.0
 11
144.35877937898999
 21
378.7746648647045
 31
0.0
  0
LINE
  5
21BAC
  8
KI1
 10
144.35877937898999
 20
375.2746648647045
 30
0.0
 11
144.35877937898999
 21
378.7746648647045
 31
0.0
  0
LINE
  5
21BAD
  8
KI1
 10
143.25877937898991
 20
375.2746648647045
 30
0.0
 11
144.35877937898999
 21
375.2746648647045
 31
0.0
  0
LINE
  5
21BAE
  8
KI1
 10
143.25877937898991
 20
375.2746648647045
 30
0.0
 11
143.25877937898991
 21
375.67466486470448
 31
0.0
  0
LINE
  5
21BAF
  8
KI1
 10
144.35877937898999
 20
382.14966486470468
 30
0.0
 11
144.35877937898999
 21
381.4246648647046
 31
0.0
  0
LINE
  5
21BB0
  8
KI1
 10
144.35877937898999
 20
373.27466486470468
 30
0.0
 11
144.35877937898999
 21
373.97466486470461
 31
0.0
  0
LINE
  5
21BB1
  8
KI1
 10
142.35877937898999
 20
399.97466486470472
 30
0.0
 11
142.35877937898999
 21
398.77466486470468
 31
0.0
  0
ARC
  5
21BB2
  8
KI1
 10
142.40877937898989
 20
374.2746648647045
 30
0.0
 40
0.2999999999999999
 50
180.0
 51
270.0
  0
ARC
  5
21BB3
  8
KI1
 10
142.40751523964099
 20
381.12466486470453
 30
0.0
 40
0.2999999999999999
 50
90.0
 51
180.0
  0
LINE
  5
21BB4
  8
KI1
 10
142.10751523964109
 20
381.12466486470453
 30
0.0
 11
142.10751523964109
 21
380.7746648647045
 31
0.0
  0
LINE
  5
21BB5
  8
KI1
 10
142.10877937898999
 20
376.37466486470453
 30
0.0
 11
142.10877937898999
 21
374.2746648647045
 31
0.0
  0
ARC
  5
21BB6
  8
KI1
 10
142.40877937898989
 20
376.37466486470453
 30
0.0
 40
0.2999999999999999
 50
90.0
 51
180.0
  0
LINE
  5
21BB7
  8
KI1
 10
142.40877937898989
 20
376.67466486470448
 30
0.0
 11
142.60877937898999
 21
376.67466486470448
 31
0.0
  0
ARC
  5
21BB8
  8
KI1
 10
142.60751523964109
 20
380.7746648647045
 30
0.0
 40
0.5
 50
180.0
 51
270.0
  0
LINE
  5
21BB9
  8
KI1
 10
133.35877937898999
 20
398.77466486470468
 30
0.0
 11
142.35877937898999
 21
398.77466486470468
 31
0.0
  0
LINE
  5
21BBA
  8
KI1
 10
133.35877937898999
 20
399.97466486470472
 30
0.0
 11
133.35877937898999
 21
398.77466486470468
 31
0.0
  0
ARC
  5
21BBB
  8
KI1
 10
133.3087793789899
 20
374.2746648647045
 30
0.0
 40
0.2999999999999999
 50
270.0
 51
0.0
  0
ARC
  5
21BBC
  8
KI1
 10
133.30751523964099
 20
381.12466486470453
 30
0.0
 40
0.2999999999999999
 50
0.0
 51
90.0
  0
LINE
  5
21BBD
  8
KI1
 10
133.60751523964109
 20
381.12466486470453
 30
0.0
 11
133.60751523964109
 21
380.7746648647045
 31
0.0
  0
LINE
  5
21BBE
  8
KI1
 10
133.60877937898999
 20
376.37466486470453
 30
0.0
 11
133.60877937898999
 21
374.2746648647045
 31
0.0
  0
ARC
  5
21BBF
  8
KI1
 10
133.3087793789899
 20
376.37466486470453
 30
0.0
 40
0.2999999999999999
 50
0.0
 51
90.0
  0
LINE
  5
21BC0
  8
KI1
 10
129.90877937898989
 20
374.1246648647047
 30
0.0
 11
123.75877937899
 21
374.1246648647047
 31
0.0
  0
LINE
  5
21BC1
  8
KI1
 10
123.60877937898999
 20
398.77466486470468
 30
0.0
 11
132.35877937898999
 21
398.77466486470468
 31
0.0
  0
ARC
  5
21BC2
  8
KI1
 10
129.90877937898989
 20
374.42466486470471
 30
0.0
 40
0.2999999999999999
 50
270.0
 51
0.0
  0
LINE
  5
21BC3
  8
KI1
 10
132.35877937898999
 20
399.97466486470472
 30
0.0
 11
132.35877937898999
 21
398.77466486470468
 31
0.0
  0
LINE
  5
21BC4
  8
KI1
 10
133.10751523964109
 20
380.2746648647045
 30
0.0
 11
131.5587793789899
 21
380.2746648647045
 31
0.0
  0
LINE
  5
21BC5
  8
KI1
 10
132.4587793789899
 20
375.2746648647045
 30
0.0
 11
131.35877937898999
 21
375.2746648647045
 31
0.0
  0
LINE
  5
21BC6
  8
KI1
 10
132.4587793789899
 20
375.2746648647045
 30
0.0
 11
132.4587793789899
 21
375.67466486470448
 31
0.0
  0
LINE
  5
21BC7
  8
KI1
 10
132.4587793789899
 20
375.67466486470448
 30
0.0
 11
133.10877937898999
 21
376.67466486470448
 31
0.0
  0
LINE
  5
21BC8
  8
KI1
 10
131.5587793789899
 20
380.2746648647045
 30
0.0
 11
131.35877937898999
 21
378.7746648647045
 31
0.0
  0
LINE
  5
21BC9
  8
KI1
 10
131.35877937898999
 20
375.2746648647045
 30
0.0
 11
131.35877937898999
 21
378.7746648647045
 31
0.0
  0
LINE
  5
21BCA
  8
KI1
 10
130.2087793789899
 20
374.42466486470471
 30
0.0
 11
130.2087793789899
 21
382.14966486470468
 31
0.0
  0
LINE
  5
21BCB
  8
KI1
 10
131.35877937898999
 20
382.14966486470468
 30
0.0
 11
131.35877937898999
 21
381.4246648647046
 31
0.0
  0
ARC
  5
21BCC
  8
KI1
 10
130.78377937898989
 20
382.14966486470468
 30
0.0
 40
0.5749999999999959
 50
0.0
 51
180.0
  0
LINE
  5
21BCD
  8
KI1
 10
131.35877937898999
 20
373.27466486470468
 30
0.0
 11
131.35877937898999
 21
373.97466486470461
 31
0.0
  0
ARC
  5
21BCE
  8
KI1
 10
131.0587793789899
 20
373.27466486470468
 30
0.0
 40
0.2999999999999999
 50
270.0
 51
0.0
  0
ARC
  5
21BCF
  8
KI1
 10
123.10877937898999
 20
399.97466486470472
 30
0.0
 40
0.5
 50
0.0
 51
180.0
  0
LINE
  5
21BD0
  8
KI1
 10
123.60877937898999
 20
399.97466486470472
 30
0.0
 11
123.60877937898999
 21
398.77466486470468
 31
0.0
  0
LINE
  5
21BD1
  8
KI1
 10
123.75877937899
 20
374.1246648647047
 30
0.0
 11
123.75877937899
 21
397.1246648647047
 31
0.0
  0
ARC
  5
21BD2
  8
KI1
 10
124.2587793789899
 20
397.1246648647047
 30
0.0
 40
0.4999999999999999
 50
90.0
 51
180.0
  0
LINE
  5
21BD3
  8
KI1
 10
122.60877937898999
 20
373.97466486470461
 30
0.0
 11
122.60877937898999
 21
399.97466486470472
 31
0.0
  0
ARC
  5
21BD4
  8
KI1
 10
117.50877937899
 20
373.47466486470472
 30
0.0
 40
0.5
 50
90.0
 51
180.0
  0
ARC
  5
21BD5
  8
KI1
 10
118.3087793789899
 20
372.67466486470471
 30
0.0
 40
0.2999999999999999
 50
90.0
 51
180.0
  0
LINE
  5
21BD6
  8
KI1
 10
118.0087793789899
 20
372.67466486470471
 30
0.0
 11
118.0087793789899
 21
360.47466486470472
 31
0.0
  0
LINE
  5
21BD7
  8
KI1
 10
117.0087793789899
 20
373.47466486470472
 30
0.0
 11
117.0087793789899
 21
360.47466486470472
 31
0.0
  0
ARC
  5
21BD8
  8
KI1
 10
117.50877937899
 20
360.47466486470472
 30
0.0
 40
0.5
 50
180.0
 51
0.0
  0
LINE
  5
21BD9
  8
KI1
 10
500.12783075067529
 20
398.77466527341142
 30
0.0
 11
491.37783075067529
 21
398.77466488679698
 31
0.0
  0
LINE
  5
21BDA
  8
KI1
 10
492.6778318906355
 20
372.97466494423691
 30
0.0
 11
497.9778318906354
 21
372.97466517841468
 31
0.0
  0
LINE
  5
21BDB
  8
KI1
 10
493.8278318398232
 20
374.1246649950491
 30
0.0
 11
497.3278318398232
 21
374.12466514969481
 31
0.0
  0
LINE
  5
21BDC
  8
KI1
 10
499.47783080148741
 20
397.62466524469141
 30
0.0
 11
472.27783080148748
 21
397.62466404287301
 31
0.0
  0
ARC
  5
21BDD
  8
KI1
 10
500.62783069765391
 20
399.97466529550371
 30
0.0
 40
0.5
 50
0.0000025315855514
 51
180.00000253158549
  0
ARC
  5
21BDE
  8
KI1
 10
500.55283181419622
 20
374.70466529218987
 30
0.0
 40
0.575000000000003
 50
180.00000253158549
 51
0.0000025315855514
  0
LINE
  5
21BDF
  8
KI1
 10
501.12783181419633
 20
374.70466531759592
 30
0.0
 11
501.12783069765391
 21
399.97466531759591
 31
0.0
  0
ARC
  5
21BE0
  8
KI1
 10
497.8278317072697
 20
377.124665171787
 30
0.0
 40
0.5
 50
90.000002531585565
 51
180.00000253158549
  0
LINE
  5
21BE1
  8
KI1
 10
500.12783069765391
 20
399.9746652734114
 30
0.0
 11
500.12783075067529
 21
398.77466527341142
 31
0.0
  0
LINE
  5
21BE2
  8
KI1
 10
497.8278316851775
 20
377.624665171787
 30
0.0
 11
499.97783168517748
 21
377.62466526678372
 31
0.0
  0
LINE
  5
21BE3
  8
KI1
 10
499.97783173598958
 20
376.4746652667838
 30
0.0
 11
498.47783173598958
 21
376.47466520050699
 31
0.0
  0
LINE
  5
21BE4
  8
KI1
 10
499.97783168517748
 20
377.62466526678372
 30
0.0
 11
499.97783082357961
 21
397.12466526678372
 31
0.0
  0
LINE
  5
21BE5
  8
KI1
 10
499.97783181419618
 20
374.70466526678382
 30
0.0
 11
499.97783173598958
 21
376.4746652667838
 31
0.0
  0
ARC
  5
21BE6
  8
KI1
 10
499.47783082357972
 20
397.12466524469141
 30
0.0
 40
0.4999999999999999
 50
0.0000025315855514
 51
90.000002531585565
  0
ARC
  5
21BE7
  8
KI1
 10
497.97783186854321
 20
373.47466517841468
 30
0.0
 40
0.5
 50
270.00000253158549
 51
0.0000025315855514
  0
LINE
  5
21BE8
  8
KI1
 10
498.47783186854321
 20
373.47466520050699
 30
0.0
 11
498.47783173598958
 21
376.47466520050699
 31
0.0
  0
LINE
  5
21BE9
  8
KI1
 10
497.3278317072697
 20
377.12466514969481
 30
0.0
 11
497.3278318398232
 21
374.12466514969481
 31
0.0
  0
LINE
  5
21BEA
  8
KI1
 10
465.52783184645091
 20
373.97466374462761
 30
0.0
 11
470.62783184645099
 21
373.9746639699685
 31
0.0
  0
LINE
  5
21BEB
  8
KI1
 10
466.32783189063542
 20
372.97466377997517
 30
0.0
 11
479.07783189063548
 21
372.97466434332762
 31
0.0
  0
LINE
  5
21BEC
  8
KI1
 10
481.32783184645098
 20
373.97466444274261
 30
0.0
 11
479.37783184645099
 21
373.97466435658288
 31
0.0
  0
LINE
  5
21BED
  8
KI1
 10
481.32656737792752
 20
381.42466444268678
 30
0.0
 11
479.37783151727638
 21
381.42466435658281
 31
0.0
  0
ARC
  5
21BEE
  8
KI1
 10
481.1265674066475
 20
380.77466443384981
 30
0.0
 40
0.5
 50
270.00000253158549
 51
0.0000025315855514
  0
LINE
  5
21BEF
  8
KI1
 10
481.32783172715273
 20
376.6746644427426
 30
0.0
 11
481.1278317271528
 21
376.67466443390572
 31
0.0
  0
ARC
  5
21BF0
  8
KI1
 10
480.87783069765391
 20
399.97466442285969
 30
0.0
 40
0.5
 50
0.0000025315855514
 51
180.00000253158549
  0
LINE
  5
21BF1
  8
KI1
 10
490.37783075067529
 20
398.77466484261248
 30
0.0
 11
481.37783075067529
 21
398.7746644449519
 31
0.0
  0
LINE
  5
21BF2
  8
KI1
 10
490.62656742873969
 20
380.27466485360259
 30
0.0
 11
492.17783156808861
 21
380.2746649221445
 31
0.0
  0
LINE
  5
21BF3
  8
KI1
 10
490.427831846451
 20
373.97466484482158
 30
0.0
 11
492.37783184645099
 21
373.97466493098142
 31
0.0
  0
LINE
  5
21BF4
  8
KI1
 10
490.42656737792748
 20
381.4246648447658
 30
0.0
 11
492.37783151727638
 21
381.42466493098141
 31
0.0
  0
LINE
  5
21BF5
  8
KI1
 10
491.27783177133728
 20
375.67466488237841
 30
0.0
 11
490.6278317271528
 21
376.67466485365838
 31
0.0
  0
ARC
  5
21BF6
  8
KI1
 10
490.87783069765402
 20
399.97466486470472
 30
0.0
 40
0.5
 50
0.0000025315855514
 51
180.00000253158549
  0
LINE
  5
21BF7
  8
KI1
 10
491.37783069765391
 20
399.97466488679697
 30
0.0
 11
491.37783075067529
 21
398.77466488679698
 31
0.0
  0
ARC
  5
21BF8
  8
KI1
 10
492.9528314852426
 20
382.1496649563876
 30
0.0
 40
0.5749999999999959
 50
0.0000025315855514
 51
180.00000253158549
  0
ARC
  5
21BF9
  8
KI1
 10
492.67783187738007
 20
373.27466494423692
 30
0.0
 40
0.3
 50
180.00000253158549
 51
270.00000253158549
  0
LINE
  5
21BFA
  8
KI1
 10
493.52783182656788
 20
374.4246649817938
 30
0.0
 11
493.5278314852427
 21
382.14966498179371
 31
0.0
  0
ARC
  5
21BFB
  8
KI1
 10
493.82783182656789
 20
374.42466499504911
 30
0.0
 40
0.3
 50
180.00000253158549
 51
270.00000253158549
  0
LINE
  5
21BFC
  8
KI1
 10
492.17783156808861
 20
380.2746649221445
 30
0.0
 11
492.37783163436529
 21
378.77466493098137
 31
0.0
  0
LINE
  5
21BFD
  8
KI1
 10
492.37783178901111
 20
375.27466493098137
 30
0.0
 11
492.37783163436529
 21
378.77466493098137
 31
0.0
  0
LINE
  5
21BFE
  8
KI1
 10
491.27783178901109
 20
375.27466488237837
 30
0.0
 11
492.37783178901111
 21
375.27466493098137
 31
0.0
  0
LINE
  5
21BFF
  8
KI1
 10
491.27783177133728
 20
375.67466488237841
 30
0.0
 11
491.27783178901109
 21
375.27466488237837
 31
0.0
  0
LINE
  5
21C00
  8
KI1
 10
492.37783148524272
 20
382.1496649309816
 30
0.0
 11
492.37783151727638
 21
381.42466493098141
 31
0.0
  0
LINE
  5
21C01
  8
KI1
 10
492.37783187738012
 20
373.27466493098149
 30
0.0
 11
492.37783184645099
 21
373.97466493098142
 31
0.0
  0
LINE
  5
21C02
  8
KI1
 10
490.37783069765402
 20
399.97466484261253
 30
0.0
 11
490.37783075067529
 21
398.77466484261248
 31
0.0
  0
ARC
  5
21C03
  8
KI1
 10
490.42783183319563
 20
374.27466484482159
 30
0.0
 40
0.3
 50
180.00000253158549
 51
270.00000253158549
  0
ARC
  5
21C04
  8
KI1
 10
490.42656739118291
 20
381.12466484476568
 30
0.0
 40
0.3
 50
90.000002531585565
 51
180.00000253158549
  0
LINE
  5
21C05
  8
KI1
 10
490.12656739118279
 20
381.1246648315103
 30
0.0
 11
490.1265674066475
 21
380.77466483151028
 31
0.0
  0
LINE
  5
21C06
  8
KI1
 10
490.12783174040823
 20
376.37466483156618
 30
0.0
 11
490.12783183319561
 21
374.27466483156621
 31
0.0
  0
ARC
  5
21C07
  8
KI1
 10
490.42783174040818
 20
376.37466484482161
 30
0.0
 40
0.3
 50
90.000002531585565
 51
180.00000253158549
  0
LINE
  5
21C08
  8
KI1
 10
490.42783172715269
 20
376.67466484482151
 30
0.0
 11
490.6278317271528
 21
376.67466485365838
 31
0.0
  0
ARC
  5
21C09
  8
KI1
 10
490.62656740664738
 20
380.77466485360259
 30
0.0
 40
0.5
 50
180.00000253158549
 51
270.00000253158549
  0
LINE
  5
21C0A
  8
KI1
 10
481.37783069765391
 20
399.97466444495188
 30
0.0
 11
481.37783075067529
 21
398.7746644449519
 31
0.0
  0
ARC
  5
21C0B
  8
KI1
 10
481.32783183319549
 20
374.27466444274251
 30
0.0
 40
0.3
 50
270.00000253158549
 51
0.0000025315855514
  0
ARC
  5
21C0C
  8
KI1
 10
481.32656739118278
 20
381.12466444268682
 30
0.0
 40
0.3
 50
0.0000025315855514
 51
90.000002531585565
  0
LINE
  5
21C0D
  8
KI1
 10
481.6265673911829
 20
381.12466445594208
 30
0.0
 11
481.6265674066475
 21
380.77466445594212
 31
0.0
  0
LINE
  5
21C0E
  8
KI1
 10
481.62783174040823
 20
376.37466445599802
 30
0.0
 11
481.62783183319561
 21
374.27466445599788
 31
0.0
  0
ARC
  5
21C0F
  8
KI1
 10
481.32783174040821
 20
376.37466444274258
 30
0.0
 40
0.3
 50
0.0000025315855514
 51
90.000002531585565
  0
LINE
  5
21C10
  8
KI1
 10
477.92783183982328
 20
374.12466429251538
 30
0.0
 11
471.77783183982342
 21
374.1246640207807
 31
0.0
  0
LINE
  5
21C11
  8
KI1
 10
471.62783075067529
 20
398.77466401415307
 30
0.0
 11
480.37783075067529
 21
398.77466440076751
 31
0.0
  0
ARC
  5
21C12
  8
KI1
 10
477.92783182656802
 20
374.4246642925155
 30
0.0
 40
0.3
 50
270.00000253158549
 51
0.0000025315855514
  0
LINE
  5
21C13
  8
KI1
 10
480.37783069765391
 20
399.97466440076738
 30
0.0
 11
480.37783075067529
 21
398.77466440076751
 31
0.0
  0
LINE
  5
21C14
  8
KI1
 10
481.12656742873969
 20
380.27466443384981
 30
0.0
 11
479.57783156808858
 21
380.27466436541971
 31
0.0
  0
LINE
  5
21C15
  8
KI1
 10
480.47783178901102
 20
375.27466440518577
 30
0.0
 11
479.37783178901122
 21
375.27466435658278
 31
0.0
  0
LINE
  5
21C16
  8
KI1
 10
480.47783177133721
 20
375.67466440518581
 30
0.0
 11
480.47783178901102
 21
375.27466440518577
 31
0.0
  0
LINE
  5
21C17
  8
KI1
 10
480.47783177133721
 20
375.67466440518581
 30
0.0
 11
481.1278317271528
 21
376.67466443390572
 31
0.0
  0
LINE
  5
21C18
  8
KI1
 10
479.57783156808858
 20
380.27466436541971
 30
0.0
 11
479.37783163436541
 21
378.77466435658278
 31
0.0
  0
LINE
  5
21C19
  8
KI1
 10
479.37783178901122
 20
375.27466435658278
 30
0.0
 11
479.37783163436541
 21
378.77466435658278
 31
0.0
  0
LINE
  5
21C1A
  8
KI1
 10
478.22783182656792
 20
374.42466430577082
 30
0.0
 11
478.22783148524258
 21
382.14966430577078
 31
0.0
  0
LINE
  5
21C1B
  8
KI1
 10
479.37783148524272
 20
382.149664356583
 30
0.0
 11
479.37783151727638
 21
381.42466435658281
 31
0.0
  0
ARC
  5
21C1C
  8
KI1
 10
478.80283148524262
 20
382.14966433117689
 30
0.0
 40
0.5749999999999959
 50
0.0000025315855514
 51
180.00000253158549
  0
LINE
  5
21C1D
  8
KI1
 10
479.37783187738012
 20
373.274664356583
 30
0.0
 11
479.37783184645099
 21
373.97466435658288
 31
0.0
  0
ARC
  5
21C1E
  8
KI1
 10
479.07783187738011
 20
373.27466434332769
 30
0.0
 40
0.3
 50
270.00000253158549
 51
0.0000025315855514
  0
ARC
  5
21C1F
  8
KI1
 10
471.12783069765391
 20
399.97466399206081
 30
0.0
 40
0.5
 50
0.0000025315855514
 51
180.00000253158549
  0
LINE
  5
21C20
  8
KI1
 10
471.62783069765402
 20
399.97466401415312
 30
0.0
 11
471.62783075067529
 21
398.77466401415307
 31
0.0
  0
LINE
  5
21C21
  8
KI1
 10
471.77783183982342
 20
374.1246640207807
 30
0.0
 11
471.77783082357968
 21
397.1246640207807
 31
0.0
  0
ARC
  5
21C22
  8
KI1
 10
472.27783082357968
 20
397.12466404287289
 30
0.0
 40
0.4999999999999999
 50
90.000002531585565
 51
180.00000253158549
  0
LINE
  5
21C23
  8
KI1
 10
470.62783184645099
 20
373.9746639699685
 30
0.0
 11
470.62783069765391
 21
399.97466396996862
 31
0.0
  0
ARC
  5
21C24
  8
KI1
 10
465.52783186854322
 20
373.47466374462761
 30
0.0
 40
0.5
 50
90.000002531585565
 51
180.00000253158549
  0
LINE
  5
21C25
  8
KI1
 10
465.02783186854322
 20
373.47466372253541
 30
0.0
 11
465.02783244294181
 21
360.47466372253541
 31
0.0
  0
ARC
  5
21C26
  8
KI1
 10
466.3278319038908
 20
372.67466377997522
 30
0.0
 40
0.3
 50
90.000002531585565
 51
180.00000253158549
  0
LINE
  5
21C27
  8
KI1
 10
466.02783190389079
 20
372.6746637667199
 30
0.0
 11
466.02783244294181
 21
360.47466376671991
 31
0.0
  0
ARC
  5
21C28
  8
KI1
 10
465.52783244294181
 20
360.47466374462761
 30
0.0
 40
0.5
 50
180.00000253158549
 51
0.0000025315855514
  0
TEXT
  5
21C29
  8
OS
 10
398.24575296435899
 20
116.50096685321751
 30
0.0
 40
7.5
  1
FL
 41
0.8299999999999999
 72
     1
 11
403.8778958215018
 21
116.50096685321751
 31
0.0
 73
     1
  0
TEXT
  5
21C2A
  8
MJ
 10
153.60480329375909
 20
55.974664865799753
 30
0.0
 40
7.0
  1
直貼りレール
 41
0.8299999999999999
 72
     4
 11
173.35880329375911
 21
59.474664865799753
 31
0.0
  0
TEXT
  5
21C2B
  8
MJ
 10
483.67603002798052
 20
55.93495055404793
 30
0.0
 40
7.0
  1
直貼りレール
 41
0.8299999999999999
 72
     4
 11
503.43003002798048
 21
59.43495055404793
 31
0.0
  0
LINE
  5
21C31
  8
OS
 10
53.858843928438773
 20
92.474664865799696
 30
0.0
 11
293.85884392843877
 21
92.474664865799696
 31
0.0
  0
LINE
  5
21C32
  8
KI1
 10
68.358843928439455
 20
112.26889349985871
 30
0.0
 11
63.858843928439448
 21
104.4746648657985
 31
0.0
  0
LINE
  5
21C33
  8
KI1
 10
59.358843928439448
 20
112.26889349985871
 30
0.0
 11
68.358843928439455
 21
112.26889349985871
 31
0.0
  0
LINE
  5
21C34
  8
OS
 10
53.858843928438773
 20
94.474664865799696
 30
0.0
 11
293.85884392843877
 21
94.474664865799696
 31
0.0
  0
LINE
  5
21C35
  8
OS
 10
53.858843928438773
 20
98.474664865799696
 30
0.0
 11
293.85884392843877
 21
98.474664865799696
 31
0.0
  0
LINE
  5
21C36
  8
OS
 10
53.858843928438773
 20
102.4746648657997
 30
0.0
 11
293.85884392843877
 21
102.4746648657997
 31
0.0
  0
LINE
  5
21C37
  8
KI1
 10
63.858843928439448
 20
104.4746648657985
 30
0.0
 11
59.358843928439448
 21
112.26889349985871
 31
0.0
  0
LINE
  5
21C38
  8
OS
 10
53.858843928438773
 20
96.474664865799696
 30
0.0
 11
293.85884392843877
 21
96.474664865799241
 31
0.0
  0
LINE
  5
21C39
  8
OS
 10
53.858843928438773
 20
100.4746648657997
 30
0.0
 11
293.85884392843877
 21
100.4746648657997
 31
0.0
  0
LINE
  5
21C3A
  8
OS
 10
53.858843928438773
 20
104.4746648657997
 30
0.0
 11
293.85884392843877
 21
104.4746648657997
 31
0.0
  0
TEXT
  5
21C3B
  8
OS
 10
58.226701071296603
 20
116.50096486049659
 30
0.0
 40
7.5
  1
FL
 41
0.8299999999999999
 72
     1
 11
63.858843928439448
 21
116.50096486049659
 31
0.0
 73
     1
  0
LINE
  5
24F64
  8
KI2
 10
170.3587869456648
 20
109.4794988064013
 30
0.0
 11
172.8587869456648
 21
107.9794988064013
 31
0.0
  0
LINE
  5
24F65
  8
KI2
 10
170.3587869456648
 20
111.9746648657995
 30
0.0
 11
170.3587869456648
 21
109.4794988064013
 31
0.0
  0
LINE
  5
24F66
  8
KI2
 10
174.8587869456648
 20
106.4794988064013
 30
0.0
 11
173.8587869456648
 21
106.4794988064013
 31
0.0
  0
LINE
  5
24F67
  8
KI2
 10
172.8587869456648
 20
106.4794988064013
 30
0.0
 11
173.8587869456648
 21
106.4794988064013
 31
0.0
  0
LINE
  5
24F68
  8
KI2
 10
177.3587869456648
 20
109.4794988064013
 30
0.0
 11
174.8587869456648
 21
107.9794988064013
 31
0.0
  0
LINE
  5
24F69
  8
KI2
 10
177.3587869456648
 20
111.9746648657995
 30
0.0
 11
177.3587869456648
 21
109.4794988064013
 31
0.0
  0
LINE
  5
24F6A
  8
KI2
 10
174.8587869456648
 20
111.9746648657995
 30
0.0
 11
174.8587869456648
 21
106.4794988064013
 31
0.0
  0
LINE
  5
24F6B
  8
KI2
 10
172.8587869456648
 20
111.9746648657995
 30
0.0
 11
172.8587869456648
 21
106.4794988064013
 31
0.0
  0
LINE
  5
24F6C
  8
KI2
 10
158.8587869456658
 20
111.9746648657995
 30
0.0
 11
188.8587869456658
 21
111.9746648657995
 31
0.0
  0
LINE
  5
24F6D
  8
KI1
 10
157.35878694566571
 20
113.4746648657994
 30
0.0
 11
190.35878694559639
 21
113.4746648657994
 31
0.0
  0
ARC
  5
24F6E
  8
KI2
 10
158.8587869456658
 20
113.4746648657994
 30
0.0
 40
1.5
 50
180.0
 51
270.0
  0
ARC
  5
24F6F
  8
KI2
 10
188.8587869456658
 20
113.4746648657994
 30
0.0
 40
1.5
 50
270.0
 51
0.0
  0
LINE
  5
24F70
  8
KI2
 10
133.3587869456648
 20
109.4794988064013
 30
0.0
 11
135.8587869456648
 21
107.9794988064013
 31
0.0
  0
LINE
  5
24F71
  8
KI2
 10
133.3587869456648
 20
111.9746648657995
 30
0.0
 11
133.3587869456648
 21
109.4794988064013
 31
0.0
  0
LINE
  5
24F72
  8
KI2
 10
137.8587869456648
 20
106.4794988064013
 30
0.0
 11
136.8587869456648
 21
106.4794988064013
 31
0.0
  0
LINE
  5
24F73
  8
KI2
 10
135.8587869456648
 20
106.4794988064013
 30
0.0
 11
136.8587869456648
 21
106.4794988064013
 31
0.0
  0
LINE
  5
24F74
  8
KI2
 10
140.3587869456648
 20
109.4794988064013
 30
0.0
 11
137.8587869456648
 21
107.9794988064013
 31
0.0
  0
LINE
  5
24F75
  8
KI2
 10
140.3587869456648
 20
111.9746648657995
 30
0.0
 11
140.3587869456648
 21
109.4794988064013
 31
0.0
  0
LINE
  5
24F76
  8
KI2
 10
137.8587869456648
 20
111.9746648657995
 30
0.0
 11
137.8587869456648
 21
106.4794988064013
 31
0.0
  0
LINE
  5
24F77
  8
KI2
 10
135.8587869456648
 20
111.9746648657995
 30
0.0
 11
135.8587869456648
 21
106.4794988064013
 31
0.0
  0
LINE
  5
24F78
  8
KI2
 10
122.8587869456657
 20
111.9746648657995
 30
0.0
 11
152.85878694566571
 21
111.9746648657995
 31
0.0
  0
LINE
  5
24F79
  8
KI1
 10
121.3587869456657
 20
113.4746648657994
 30
0.0
 11
154.35878694559639
 21
113.4746648657994
 31
0.0
  0
ARC
  5
24F7A
  8
KI2
 10
122.8587869456657
 20
113.4746648657994
 30
0.0
 40
1.5
 50
180.0
 51
270.0
  0
ARC
  5
24F7B
  8
KI2
 10
152.85878694566571
 20
113.4746648657994
 30
0.0
 40
1.5
 50
270.0
 51
0.0
  0
LINE
  5
24F7C
  8
KI2
 10
207.35878694566489
 20
109.4794988064013
 30
0.0
 11
209.85878694566489
 21
107.9794988064013
 31
0.0
  0
LINE
  5
24F7D
  8
KI2
 10
207.35878694566489
 20
111.9746648657995
 30
0.0
 11
207.35878694566489
 21
109.4794988064013
 31
0.0
  0
LINE
  5
24F7E
  8
KI2
 10
211.85878694566489
 20
106.4794988064013
 30
0.0
 11
210.8587869456648
 21
106.4794988064013
 31
0.0
  0
LINE
  5
24F7F
  8
KI2
 10
209.85878694566489
 20
106.4794988064013
 30
0.0
 11
210.8587869456648
 21
106.4794988064013
 31
0.0
  0
LINE
  5
24F80
  8
KI2
 10
214.35878694566489
 20
109.4794988064013
 30
0.0
 11
211.85878694566489
 21
107.9794988064013
 31
0.0
  0
LINE
  5
24F81
  8
KI2
 10
214.35878694566489
 20
111.9746648657995
 30
0.0
 11
214.35878694566489
 21
109.4794988064013
 31
0.0
  0
LINE
  5
24F82
  8
KI2
 10
211.85878694566489
 20
111.9746648657995
 30
0.0
 11
211.85878694566489
 21
106.4794988064013
 31
0.0
  0
LINE
  5
24F83
  8
KI2
 10
209.85878694566489
 20
111.9746648657995
 30
0.0
 11
209.85878694566489
 21
106.4794988064013
 31
0.0
  0
LINE
  5
24F84
  8
KI2
 10
194.85878694566571
 20
111.9746648657995
 30
0.0
 11
224.8587869456658
 21
111.9746648657995
 31
0.0
  0
LINE
  5
24F85
  8
KI1
 10
193.35878694566571
 20
113.4746648657994
 30
0.0
 11
226.35878694559639
 21
113.4746648657994
 31
0.0
  0
ARC
  5
24F86
  8
KI2
 10
194.85878694566571
 20
113.4746648657994
 30
0.0
 40
1.5
 50
180.0
 51
270.0
  0
ARC
  5
24F87
  8
KI2
 10
224.8587869456658
 20
113.4746648657994
 30
0.0
 40
1.5
 50
270.0
 51
0.0
  0
LINE
  5
24F88
  8
KI1
 10
215.1587869456649
 20
109.27466486579949
 30
0.0
 11
225.75878694566481
 21
109.27466486579949
 31
0.0
  0
LINE
  5
24F89
  8
KI1
 10
224.05878694566491
 20
108.0746648657996
 30
0.0
 11
216.07300050803809
 21
108.0746648657996
 31
0.0
  0
LINE
  5
24F8A
  8
KI1
 10
225.25878694542061
 20
105.6746648657996
 30
0.0
 11
220.5587869456651
 21
105.6746648657995
 31
0.0
  0
LINE
  5
24F8B
  8
KI1
 10
229.358786945665
 20
104.4746648657997
 30
0.0
 11
209.4087869456653
 21
104.4746648657997
 31
0.0
  0
LINE
  5
24F8C
  8
KI1
 10
132.55878694566519
 20
109.27466486579949
 30
0.0
 11
121.9587869456653
 21
109.27466486579949
 31
0.0
  0
LINE
  5
24F8D
  8
KI1
 10
123.6587869456652
 20
108.0746648657996
 30
0.0
 11
131.64457338329211
 21
108.0746648657996
 31
0.0
  0
LINE
  5
24F8E
  8
KI1
 10
118.3587869456649
 20
104.4746648657997
 30
0.0
 11
138.30878694566471
 21
104.4746648657997
 31
0.0
  0
LINE
  5
24F8F
  8
KI1
 10
127.75878694566489
 20
105.6746648657995
 30
0.0
 11
133.9087869456647
 21
105.6746648657997
 31
0.0
  0
LINE
  5
24F90
  8
KI1
 10
118.7267640241062
 20
106.43440229786211
 30
0.0
 11
121.9587869456653
 21
109.27466486579949
 31
0.0
  0
ARC
  5
24F91
  8
KI1
 10
123.3587869456655
 20
105.9746648657997
 30
0.0
 40
0.3
 50
198.99555066277679
 51
0.0
  0
LINE
  5
24F92
  8
KI1
 10
122.45878694590949
 20
105.6746648657997
 30
0.0
 11
127.158786945665
 21
105.6746648657995
 31
0.0
  0
LINE
  5
24F93
  8
KI1
 10
120.1345679079739
 20
105.6746648652821
 30
0.0
 11
121.0587869459097
 21
106.4868573533099
 31
0.0
  0
LINE
  5
24F94
  8
KI1
 10
121.5587869459094
 20
105.4746648657997
 30
0.0
 11
118.6587869456649
 21
105.4746648657997
 31
0.0
  0
ARC
  5
24F95
  8
KI1
 10
118.8587869456653
 20
106.284169318184
 30
0.0
 40
0.2
 50
131.30861401861651
 51
180.0
1001
GENIUS_GENODEF_13
1002
{
1000
HIER
1070
     0
1002
}
1002
{
1000
MANEDIT
1070
     0
1002
}
1002
{
1000
NOSEL
1070
     0
1002
}
1002
{
1000
BEHIND
1070
     0
1002
}
1002
{
1000
OTHER
1070
     0
1002
}
1002
{
1000
REACTOR
1002
}
1001
GENIUS_GENOBJ-N-FIL_13
1002
{
1000
OWNER
1000
GEN
1002
}
  0
ARC
  5
24F96
  8
KI1
 10
118.8587869456653
 20
105.8746648652821
 30
0.0
 40
0.2
 50
180.0
 51
270.0
1001
GENIUS_GENODEF_13
1002
{
1000
HIER
1070
     0
1002
}
1002
{
1000
MANEDIT
1070
     0
1002
}
1002
{
1000
NOSEL
1070
     0
1002
}
1002
{
1000
BEHIND
1070
     0
1002
}
1002
{
1000
OTHER
1070
     0
1002
}
1002
{
1000
REACTOR
1002
}
1001
GENIUS_GENOBJ-N-FIL_13
1002
{
1000
OWNER
1000
GEN
1002
}
  0
LINE
  5
24F97
  8
KI1
 10
118.6587869456652
 20
106.284169318184
 30
0.0
 11
118.6587869456652
 21
105.8746648652821
 31
0.0
  0
ARC
  5
24F98
  8
KI1
 10
118.6587869456649
 20
105.1746648657997
 30
0.0
 40
0.3
 50
90.0
 51
180.0
1001
GENIUS_GENOBJ-N-FIL_13
1002
{
1000
OWNER
1000
GEN
1002
}
1001
GENIUS_GENODEF_13
1002
{
1000
HIER
1070
     0
1002
}
1002
{
1000
MANEDIT
1070
     0
1002
}
1002
{
1000
NOSEL
1070
     0
1002
}
1002
{
1000
BEHIND
1070
     0
1002
}
1002
{
1000
OTHER
1070
     0
1002
}
1002
{
1000
REACTOR
1002
}
  0
LINE
  5
24F99
  8
KI1
 10
118.3587869456649
 20
104.4746648657997
 30
0.0
 11
118.3587869456648
 21
105.1746648657997
 31
0.0
  0
LINE
  5
24F9A
  8
KI1
 10
118.8587869456653
 20
105.6746648652821
 30
0.0
 11
120.1345679079739
 21
105.6746648652821
 31
0.0
  0
LINE
  5
24F9B
  8
KI1
 10
122.108158162066
 20
108.0746648657996
 30
0.0
 11
122.8587869456653
 21
108.0746648657996
 31
0.0
  0
LINE
  5
24F9C
  8
KI1
 10
122.7196941814686
 20
106.90951943980259
 30
0.0
 11
123.0751237891854
 21
105.8770164471962
 31
0.0
  0
LINE
  5
24F9D
  8
KI1
 10
122.8587869456655
 20
107.3746648657998
 30
0.0
 11
122.72417156105
 21
107.0515879427228
 31
0.0
  0
ARC
  5
24F9E
  8
KI1
 10
122.9087869456655
 20
106.9746648657997
 30
0.0
 40
0.2
 50
157.38013505196119
 51
199.00963394792939
  0
ARC
  5
24F9F
  8
KI1
 10
122.55878694566741
 20
107.408897787699
 30
0.0
 40
0.3
 50
284.03624347611827
 51
0.0
1001
GENIUS_GENODEF_13
1002
{
1000
HIER
1070
     0
1002
}
1002
{
1000
MANEDIT
1070
     0
1002
}
1002
{
1000
NOSEL
1070
     0
1002
}
1002
{
1000
BEHIND
1070
     0
1002
}
1002
{
1000
OTHER
1070
     0
1002
}
1002
{
1000
REACTOR
1002
}
1001
GENIUS_GENOBJ-N-FIL_13
1002
{
1000
OWNER
1000
GEN
1002
}
  0
ARC
  5
24FA1
  8
KI1
 10
122.55878694566741
 20
107.4746648658124
 30
0.0
 40
0.3
 50
0.0
 51
89.999999999947889
1001
GENIUS_GENODEF_13
1002
{
1000
HIER
1070
     0
1002
}
1002
{
1000
MANEDIT
1070
     0
1002
}
1002
{
1000
NOSEL
1070
     0
1002
}
1002
{
1000
BEHIND
1070
     0
1002
}
1002
{
1000
OTHER
1070
     0
1002
}
1002
{
1000
REACTOR
1002
}
1001
GENIUS_GENOBJ-N-FIL_13
1002
{
1000
OWNER
1000
GEN
1002
}
  0
LINE
  5
24FA2
  8
KI1
 10
122.45878694590949
 20
107.0746648657997
 30
0.0
 11
122.45878694590949
 21
105.6746648657997
 31
0.0
  0
LINE
  5
24FA3
  8
KI1
 10
122.25878694590951
 20
107.77466486579959
 30
0.0
 11
122.55878694566501
 21
107.77466486579959
 31
0.0
  0
LINE
  5
24FA4
  8
KI1
 10
122.6315476332198
 20
107.1178550376659
 30
0.0
 11
122.4587869459116
 21
107.07466486581249
 31
0.0
  0
LINE
  5
24FA5
  8
KI1
 10
121.0587869459097
 20
106.4868573533099
 30
0.0
 11
121.0587869459097
 21
107.152490160528
 31
0.0
  0
LINE
  5
24FA6
  8
KI1
 10
121.5587869459094
 20
105.4746648657997
 30
0.0
 11
121.5587869459094
 21
107.0746648657996
 31
0.0
  0
ARC
  5
24FA7
  8
KI1
 10
122.25878694590951
 20
107.0746648657996
 30
0.0
 40
0.7
 50
90.0
 51
180.0
1001
GENIUS_GENODEF_13
1002
{
1000
HIER
1070
     0
1002
}
1002
{
1000
MANEDIT
1070
     0
1002
}
1002
{
1000
NOSEL
1070
     0
1002
}
1002
{
1000
BEHIND
1070
     0
1002
}
1002
{
1000
OTHER
1070
     0
1002
}
1002
{
1000
REACTOR
1002
}
1001
GENIUS_GENOBJ-N-FIL_13
1002
{
1000
OWNER
1000
GEN
1002
}
  0
LINE
  5
24FA8
  8
KI1
 10
122.8587869456653
 20
107.3746648657998
 30
0.0
 11
122.8587869456653
 21
108.0746648657996
 31
0.0
  0
LINE
  5
24FA9
  8
KI1
 10
121.0587869459097
 20
107.152490160528
 30
0.0
 11
122.108158162066
 21
108.0746648657996
 31
0.0
  0
LINE
  5
24FAA
  8
KI1
 10
123.6587869456652
 20
108.0746648657996
 30
0.0
 11
123.6587869456654
 21
105.9746648657997
 31
0.0
  0
ARC
  5
24FAB
  8
KI1
 10
127.458786945665
 20
105.6746648657995
 30
0.0
 40
0.2999999999999972
 50
179.99999999999349
 51
0.0000000000065138
  0
ARC
  5
24FAC
  8
KI1
 10
175.30878694566491
 20
105.4746648657996
 30
0.0
 40
1.0
 50
270.0
 51
0.0
  0
LINE
  5
24FAD
  8
KI1
 10
177.458786945665
 20
109.4746648657997
 30
0.0
 11
175.10878694566509
 21
108.1178917332039
 31
0.0
  0
LINE
  5
24FAE
  8
KI1
 10
159.65878694566501
 20
108.07466486579951
 30
0.0
 11
151.05878694566499
 21
108.07466486579951
 31
0.0
  0
LINE
  5
24FAF
  8
KI1
 10
155.05878694566491
 20
105.6746648657997
 30
0.0
 11
142.7587869456647
 21
105.6746648657996
 31
0.0
  0
LINE
  5
24FB0
  8
KI1
 10
168.1587869456649
 20
104.4746648657997
 30
0.0
 11
142.55878694566479
 21
104.4746648657997
 31
0.0
  0
LINE
  5
24FB1
  8
KI1
 10
168.55878694566499
 20
109.07466486579951
 30
0.0
 11
142.15878694566501
 21
109.07466486579951
 31
0.0
  0
LINE
  5
24FB2
  8
KI1
 10
140.4587869456648
 20
109.4746648657997
 30
0.0
 11
141.65878694566459
 21
109.4746648657997
 31
0.0
  0
ARC
  5
24FB3
  8
KI1
 10
141.2587869456647
 20
107.3746648657996
 30
0.0
 40
0.5
 50
180.0
 51
270.0
  0
ARC
  5
24FB4
  8
KI1
 10
140.4587869456648
 20
107.742614058231
 30
0.0
 40
0.3
 50
0.0
 51
120.0000000000001
  0
LINE
  5
24FB5
  8
KI1
 10
140.4587869456648
 20
109.4746648657997
 30
0.0
 11
138.1087869456648
 21
108.117891733204
 31
0.0
  0
LINE
  5
24FB6
  8
KI1
 10
132.55878694566519
 20
108.5746648657996
 30
0.0
 11
132.95878694566531
 21
108.1746648657996
 31
0.0
  0
ARC
  5
24FB7
  8
KI1
 10
132.85878694566489
 20
108.6663744889342
 30
0.0
 40
0.3
 50
180.0
 51
239.99999999999989
1001
GENIUS_GENODEF_13
1002
{
1000
HIER
1070
     0
1002
}
1002
{
1000
MANEDIT
1070
     0
1002
}
1002
{
1000
NOSEL
1070
     0
1002
}
1002
{
1000
BEHIND
1070
     0
1002
}
1002
{
1000
OTHER
1070
     0
1002
}
1002
{
1000
REACTOR
1002
}
1001
GENIUS_GENOBJ-N-FIL_13
1002
{
1000
OWNER
1000
GEN
1002
}
  0
LINE
  5
24FB8
  8
KI1
 10
133.2587869456647
 20
109.4746648657997
 30
0.0
 11
135.60878694566449
 21
108.117891733204
 31
0.0
  0
ARC
  5
24FB9
  8
KI1
 10
132.4587869456652
 20
106.1746648657996
 30
0.0
 40
0.5
 50
180.0
 51
0.0
  0
LINE
  5
24FBA
  8
KI1
 10
131.9587869456652
 20
106.1746648657996
 30
0.0
 11
131.9587869456652
 21
107.76045130342651
 31
0.0
  0
LINE
  5
24FBB
  8
KI1
 10
131.9587869456652
 20
107.76045130342651
 30
0.0
 11
131.64457338329211
 21
108.0746648657996
 31
0.0
  0
LINE
  5
24FBC
  8
KI1
 10
134.4087869456647
 20
107.1363962755818
 30
0.0
 11
134.4087869456647
 21
106.1746648657997
 31
0.0
  0
ARC
  5
24FBD
  8
KI1
 10
133.9087869456647
 20
106.1746648657997
 30
0.0
 40
0.5
 50
270.0
 51
0.0
  0
ARC
  5
24FBE
  8
KI1
 10
133.9087869456647
 20
107.1363962755818
 30
0.0
 40
0.5
 50
0.0
 51
59.999999999999858
  0
LINE
  5
24FBF
  8
KI1
 10
132.95878694566531
 20
108.1746648657996
 30
0.0
 11
132.95878694566531
 21
106.1746648657996
 31
0.0
  0
LINE
  5
24FC0
  8
KI1
 10
132.708786945665
 20
108.4065668677989
 30
0.0
 11
134.1587869456647
 21
107.569408977474
 31
0.0
  0
ARC
  5
24FC1
  8
KI1
 10
138.30878694566471
 20
105.4746648657997
 30
0.0
 40
1.0
 50
270.0
 51
0.0
  0
ARC
  5
24FC2
  8
KI1
 10
137.6087869456648
 20
106.1746648657997
 30
0.0
 40
0.5
 50
270.0
 51
0.0
1001
GENIUS_GENOBJ-N-FIL_13
1002
{
1000
OWNER
1000
GEN
1002
}
1001
GENIUS_GENODEF_13
1002
{
1000
HIER
1070
     0
1002
}
1002
{
1000
MANEDIT
1070
     0
1002
}
1002
{
1000
NOSEL
1070
     0
1002
}
1002
{
1000
BEHIND
1070
     0
1002
}
1002
{
1000
OTHER
1070
     0
1002
}
1002
{
1000
REACTOR
1002
}
  0
ARC
  5
24FC3
  8
KI1
 10
136.10878694566449
 20
106.1746648657997
 30
0.0
 40
0.5
 50
180.0
 51
270.0
1001
GENIUS_GENODEF_13
1002
{
1000
HIER
1070
     0
1002
}
1002
{
1000
MANEDIT
1070
     0
1002
}
1002
{
1000
NOSEL
1070
     0
1002
}
1002
{
1000
BEHIND
1070
     0
1002
}
1002
{
1000
OTHER
1070
     0
1002
}
1002
{
1000
REACTOR
1002
}
1001
GENIUS_GENOBJ-N-FIL_13
1002
{
1000
OWNER
1000
GEN
1002
}
  0
LINE
  5
24FC4
  8
KI1
 10
135.60878694566449
 20
108.117891733204
 30
0.0
 11
135.60878694566449
 21
106.1746648657997
 31
0.0
  0
LINE
  5
24FC5
  8
KI1
 10
137.6087869456648
 20
105.6746648657997
 30
0.0
 11
136.10878694566449
 21
105.6746648657997
 31
0.0
  0
LINE
  5
24FC6
  8
KI1
 10
140.30878694566479
 20
108.00242167936629
 30
0.0
 11
139.55878694566471
 21
107.569408977474
 31
0.0
  0
LINE
  5
24FC7
  8
KI1
 10
139.30878694566471
 20
107.1363962755818
 30
0.0
 11
139.30878694566471
 21
105.4746648657997
 31
0.0
  0
ARC
  5
24FC8
  8
KI1
 10
139.80878694566459
 20
107.1363962755818
 30
0.0
 40
0.5
 50
120.0000000000001
 51
180.0
  0
LINE
  5
24FC9
  8
KI1
 10
138.1087869456648
 20
108.117891733204
 30
0.0
 11
138.1087869456648
 21
106.1746648657997
 31
0.0
  0
LINE
  5
24FCA
  8
KI1
 10
133.2587869456647
 20
109.4746648657997
 30
0.0
 11
132.85878694566509
 21
109.4746648657997
 31
0.0
  0
ARC
  5
24FCB
  8
KI1
 10
132.8587869456652
 20
109.1746648657997
 30
0.0
 40
0.3
 50
90.0
 51
180.0
  0
LINE
  5
24FCC
  8
KI1
 10
132.55878694566519
 20
109.27466486579949
 30
0.0
 11
132.55878694566519
 21
108.5746648657996
 31
0.0
  0
LINE
  5
24FCE
  8
KI1
 10
142.15878694566501
 20
109.07466486579951
 30
0.0
 11
142.15878694566501
 21
107.8746648657994
 31
0.0
  0
LINE
  5
24FCF
  8
KI1
 10
141.95878694566471
 20
109.1746648657997
 30
0.0
 11
141.95878694566471
 21
107.8746648657997
 31
0.0
  0
LINE
  5
24FD0
  8
KI1
 10
150.15878694566501
 20
108.07466486579951
 30
0.0
 11
144.4587869456652
 21
108.07466486579951
 31
0.0
  0
ARC
  5
24FD1
  8
KI1
 10
142.55878694566479
 20
105.4746648657997
 30
0.0
 40
1.0
 50
180.0
 51
270.0
  0
ARC
  5
24FD2
  8
KI1
 10
142.95878694566471
 20
107.4746648657997
 30
0.0
 40
0.6
 50
270.0
 51
0.0
1001
GENIUS_GENODEF_13
1002
{
1000
HIER
1070
     0
1002
}
1002
{
1000
MANEDIT
1070
     0
1002
}
1002
{
1000
NOSEL
1070
     0
1002
}
1002
{
1000
BEHIND
1070
     0
1002
}
1002
{
1000
OTHER
1070
     0
1002
}
1002
{
1000
REACTOR
1002
}
1001
GENIUS_GENOBJ-N-FIL_13
1002
{
1000
OWNER
1000
GEN
1002
}
  0
ARC
  5
24FD3
  8
KI1
 10
144.00878694566501
 20
106.32466486579951
 30
0.0
 40
0.45
 50
207.20712231416061
 51
27.20712231416061
  0
LINE
  5
24FD4
  8
KI1
 10
142.7587869456645
 20
106.8746648657997
 30
0.0
 11
142.7587869456647
 21
105.6746648657997
 31
0.0
  0
LINE
  5
24FD5
  8
KI1
 10
143.55878694566499
 20
107.8746648657994
 30
0.0
 11
143.55878694566479
 21
107.4746648657997
 31
0.0
  0
ARC
  5
24FD6
  8
KI1
 10
143.2587869456647
 20
107.5746648657997
 30
0.0
 40
0.3
 50
0.0
 51
90.0
  0
LINE
  5
24FD7
  8
KI1
 10
142.95878694566471
 20
106.8746648657998
 30
0.0
 11
142.7587869456647
 21
106.8746648657997
 31
0.0
  0
ARC
  5
24FD8
  8
KI1
 10
143.6087869456652
 20
106.77466486579939
 30
0.0
 40
0.3
 50
160.2912688707637
 51
207.20712231416061
  0
LINE
  5
24FD9
  8
KI1
 10
143.34197908199511
 20
106.63750232031499
 30
0.0
 11
143.60857515015979
 21
106.1189210475727
 31
0.0
  0
LINE
  5
24FDA
  8
KI1
 10
143.55878694566499
 20
107.52466486579939
 30
0.0
 11
143.32636119617661
 21
106.8758364825003
 31
0.0
  0
LINE
  5
24FDC
  8
KI1
 10
141.2587869456647
 20
106.8746648657997
 30
0.0
 11
141.55878694566479
 21
106.8746648657997
 31
0.0
  0
LINE
  5
24FDD
  8
KI1
 10
140.7587869456647
 20
107.742614058231
 30
0.0
 11
140.7587869456645
 21
107.3746648658007
 31
0.0
  0
LINE
  5
24FDE
  8
KI1
 10
141.55878694566471
 20
106.8746648657997
 30
0.0
 11
141.55878694566479
 21
105.4746648657997
 31
0.0
  0
LINE
  5
24FDF
  8
KI1
 10
141.95878694566471
 20
107.8746648657997
 30
0.0
 11
143.55878694566499
 21
107.8746648657994
 31
0.0
  0
LINE
  5
24FE1
  8
KI1
 10
144.2614431671704
 20
106.8174330122233
 30
0.0
 11
144.40899874117031
 21
106.5304086840263
 31
0.0
  0
LINE
  5
24FE2
  8
KI1
 10
144.4587869456652
 20
107.36832827678271
 30
0.0
 11
144.2614431671704
 21
106.8174330122233
 31
0.0
  0
LINE
  5
24FE3
  8
KI1
 10
144.4587869456652
 20
107.36832827678271
 30
0.0
 11
144.4587869456652
 21
108.07466486579951
 31
0.0
  0
ARC
  5
24FE4
  8
KI1
 10
150.60878694566509
 20
106.52466486579939
 30
0.0
 40
0.4499999999999981
 50
180.0
 51
0.0
  0
LINE
  5
24FE5
  8
KI1
 10
150.15878694566501
 20
108.07466486579951
 30
0.0
 11
150.15878694566501
 21
106.52466486579939
 31
0.0
  0
LINE
  5
24FE6
  8
KI1
 10
151.05878694566499
 20
108.07466486579951
 30
0.0
 11
151.05878694566499
 21
106.52466486579939
 31
0.0
  0
ARC
  5
24FE7
  8
KI1
 10
141.65878694566459
 20
109.1746648657997
 30
0.0
 40
0.3
 50
0.0
 51
90.0
  0
LINE
  5
24FE8
  8
KI1
 10
167.958786945665
 20
105.6746648657996
 30
0.0
 11
155.65878694566479
 21
105.6746648657996
 31
0.0
  0
LINE
  5
24FE9
  8
KI1
 10
166.25878694566501
 20
108.07466486579951
 30
0.0
 11
160.55878694566499
 21
108.07466486579951
 31
0.0
  0
ARC
  5
24FEA
  8
KI1
 10
155.3587869456648
 20
105.6746648657996
 30
0.0
 40
0.3000000000000114
 50
180.0
 51
0.0
  0
LINE
  5
24FEB
  8
KI1
 10
160.55878694566499
 20
108.07466486579951
 30
0.0
 11
160.55878694566499
 21
106.52466486579939
 31
0.0
  0
LINE
  5
24FEC
  8
KI1
 10
159.65878694566501
 20
108.07466486579951
 30
0.0
 11
159.65878694566501
 21
106.52466486579939
 31
0.0
  0
ARC
  5
24FED
  8
KI1
 10
160.10878694566509
 20
106.52466486579939
 30
0.0
 40
0.4499999999999981
 50
180.0
 51
0.0
  0
LINE
  5
24FEE
  8
KI1
 10
168.55878694566499
 20
109.07466486579951
 30
0.0
 11
168.55878694566499
 21
107.8746648657994
 31
0.0
  0
LINE
  5
24FEF
  8
KI1
 10
168.75878694566501
 20
109.1746648657996
 30
0.0
 11
168.75878694566501
 21
107.8746648657997
 31
0.0
  0
LINE
  5
24FF0
  8
KI1
 10
170.25878694566501
 20
109.4746648657997
 30
0.0
 11
172.60878694566489
 21
108.1178917332039
 31
0.0
  0
ARC
  5
24FF1
  8
KI1
 10
169.458786945665
 20
107.3746648657996
 30
0.0
 40
0.5
 50
270.0
 51
0.0
  0
ARC
  5
24FF2
  8
KI1
 10
168.15878694566501
 20
105.4746648657997
 30
0.0
 40
1.0
 50
270.0
 51
0.0
  0
ARC
  5
24FF3
  8
KI1
 10
166.7087869456652
 20
106.32466486579951
 30
0.0
 40
0.45
 50
152.79287768583939
 51
332.79287768583941
  0
LINE
  5
24FF4
  8
KI1
 10
166.45613072415969
 20
106.8174330122233
 30
0.0
 11
166.30857515016001
 21
106.5304086840263
 31
0.0
  0
LINE
  5
24FF5
  8
KI1
 10
166.25878694566501
 20
107.36832827678271
 30
0.0
 11
166.45613072415969
 21
106.8174330122233
 31
0.0
  0
LINE
  5
24FF6
  8
KI1
 10
166.25878694566501
 20
107.36832827678271
 30
0.0
 11
166.25878694566501
 21
108.07466486579951
 31
0.0
  0
LINE
  5
24FF7
  8
KI1
 10
169.458786945665
 20
106.8746648657997
 30
0.0
 11
169.15878694566501
 21
106.8746648657997
 31
0.0
  0
LINE
  5
24FF8
  8
KI1
 10
169.15878694566501
 20
106.8746648657997
 30
0.0
 11
169.15878694566501
 21
105.4746648657997
 31
0.0
  0
LINE
  5
24FF9
  8
KI1
 10
167.9587869456652
 20
106.8746648657997
 30
0.0
 11
167.958786945665
 21
105.6746648657996
 31
0.0
  0
LINE
  5
24FFA
  8
KI1
 10
167.15878694566501
 20
107.8746648657994
 30
0.0
 11
167.15878694566501
 21
107.4746648657997
 31
0.0
  0
ARC
  5
24FFB
  8
KI1
 10
167.75878694566501
 20
107.4746648657997
 30
0.0
 40
0.6
 50
180.0
 51
269.99999999999352
1001
GENIUS_GENODEF_13
1002
{
1000
HIER
1070
     0
1002
}
1002
{
1000
MANEDIT
1070
     0
1002
}
1002
{
1000
NOSEL
1070
     0
1002
}
1002
{
1000
BEHIND
1070
     0
1002
}
1002
{
1000
OTHER
1070
     0
1002
}
1002
{
1000
REACTOR
1002
}
1001
GENIUS_GENOBJ-N-FIL_13
1002
{
1000
OWNER
1000
GEN
1002
}
  0
ARC
  5
24FFC
  8
KI1
 10
167.4587869456652
 20
107.5746648657996
 30
0.0
 40
0.3
 50
90.0
 51
180.0
  0
LINE
  5
24FFD
  8
KI1
 10
167.75878694566501
 20
106.8746648657997
 30
0.0
 11
167.958786945665
 21
106.8746648657997
 31
0.0
  0
LINE
  5
24FFF
  8
KI1
 10
167.15878694566501
 20
107.52466486579939
 30
0.0
 11
167.3912126951536
 21
106.8758364825003
 31
0.0
  0
LINE
  5
25000
  8
KI1
 10
167.3755948093351
 20
106.63750232031499
 30
0.0
 11
167.10899874117021
 21
106.1189210475727
 31
0.0
  0
ARC
  5
25001
  8
KI1
 10
167.10878694566509
 20
106.77466486579939
 30
0.0
 40
0.3
 50
332.79287768583941
 51
19.708731129236241
  0
LINE
  5
25002
  8
KI1
 10
168.75878694566501
 20
107.8746648657997
 30
0.0
 11
167.15878694566501
 21
107.8746648657994
 31
0.0
  0
ARC
  5
25004
  8
KI1
 10
172.4087869456653
 20
105.4746648657996
 30
0.0
 40
1.0
 50
180.0
 51
270.0
  0
ARC
  5
25005
  8
KI1
 10
173.108786945665
 20
106.1746648657996
 30
0.0
 40
0.5
 50
180.0
 51
270.0
  0
LINE
  5
25006
  8
KI1
 10
172.4087869456653
 20
104.4746648657996
 30
0.0
 11
175.30878694566491
 21
104.4746648657996
 31
0.0
  0
LINE
  5
25007
  8
KI1
 10
172.60878694566489
 20
108.1178917332039
 30
0.0
 11
172.60878694566489
 21
106.1746648657996
 31
0.0
  0
LINE
  5
25008
  8
KI1
 10
169.958786945665
 20
107.742614058231
 30
0.0
 11
169.9587869456652
 21
107.3746648658007
 31
0.0
  0
LINE
  5
25009
  8
KI1
 10
170.40878694566501
 20
108.00242167936629
 30
0.0
 11
171.1587869456651
 21
107.5694089774739
 31
0.0
  0
ARC
  5
2500A
  8
KI1
 10
170.9087869456651
 20
107.1363962755818
 30
0.0
 40
0.5
 50
0.0
 51
59.999999999999858
  0
LINE
  5
2500B
  8
KI1
 10
171.4087869456651
 20
107.1363962755818
 30
0.0
 11
171.4087869456653
 21
105.4746648657996
 31
0.0
  0
ARC
  5
2500C
  8
KI1
 10
170.25878694566501
 20
107.742614058231
 30
0.0
 40
0.3
 50
59.999999999999858
 51
180.0
  0
ARC
  5
2500D
  8
KI1
 10
174.60878694566509
 20
106.1746648657996
 30
0.0
 40
0.5
 50
270.0
 51
0.0
1001
GENIUS_GENOBJ-N-FIL_13
1002
{
1000
OWNER
1000
GEN
1002
}
1001
GENIUS_GENODEF_13
1002
{
1000
HIER
1070
     0
1002
}
1002
{
1000
MANEDIT
1070
     0
1002
}
1002
{
1000
NOSEL
1070
     0
1002
}
1002
{
1000
BEHIND
1070
     0
1002
}
1002
{
1000
OTHER
1070
     0
1002
}
1002
{
1000
REACTOR
1002
}
  0
LINE
  5
2500E
  8
KI1
 10
173.10878694566441
 20
105.6746648657996
 30
0.0
 11
174.60878694566529
 21
105.6746648657996
 31
0.0
  0
LINE
  5
2500F
  8
KI1
 10
175.10878694566509
 20
108.1178917332039
 30
0.0
 11
175.10878694566509
 21
106.1746648657996
 31
0.0
  0
LINE
  5
25010
  8
KI1
 10
170.25878694566501
 20
109.4746648657997
 30
0.0
 11
169.05878694566519
 21
109.4746648657997
 31
0.0
  0
ARC
  5
25011
  8
KI1
 10
169.05878694566519
 20
109.1746648657996
 30
0.0
 40
0.3
 50
90.0
 51
180.0
  0
LINE
  5
25012
  8
KI1
 10
203.25878694566509
 20
108.07466486579951
 30
0.0
 11
197.55878694566499
 21
108.07466486579951
 31
0.0
  0
LINE
  5
25013
  8
KI1
 10
192.65878694566501
 20
105.6746648657997
 30
0.0
 11
204.9587869456652
 21
105.6746648657996
 31
0.0
  0
LINE
  5
25014
  8
KI1
 10
179.55878694566499
 20
104.4746648657997
 30
0.0
 11
205.15878694566521
 21
104.4746648657997
 31
0.0
  0
LINE
  5
25015
  8
KI1
 10
205.55878694566499
 20
109.07466486579951
 30
0.0
 11
179.15878694566501
 21
109.07466486579951
 31
0.0
  0
ARC
  5
25016
  8
KI1
 10
187.60878694566509
 20
106.52466486579939
 30
0.0
 40
0.4499999999999981
 50
180.0
 51
0.0
  0
LINE
  5
25017
  8
KI1
 10
179.75878694566489
 20
105.6746648657996
 30
0.0
 11
192.0587869456651
 21
105.6746648657996
 31
0.0
  0
LINE
  5
25018
  8
KI1
 10
179.15878694566501
 20
109.07466486579951
 30
0.0
 11
179.15878694566501
 21
107.8746648657994
 31
0.0
  0
LINE
  5
25019
  8
KI1
 10
178.958786945665
 20
109.1746648657996
 30
0.0
 11
178.9587869456652
 21
107.8746648657997
 31
0.0
  0
ARC
  5
2501A
  8
KI1
 10
181.00878694566501
 20
106.32466486579951
 30
0.0
 40
0.45
 50
207.20712231416061
 51
27.20712231416061
  0
LINE
  5
2501B
  8
KI1
 10
181.4587869456652
 20
107.36832827678271
 30
0.0
 11
181.2614431671704
 21
106.8174330122233
 31
0.0
  0
ARC
  5
2501C
  8
KI1
 10
179.5587869456651
 20
105.4746648657997
 30
0.0
 40
1.0
 50
180.0
 51
270.0
  0
LINE
  5
2501D
  8
KI1
 10
178.25878694566501
 20
106.8746648657997
 30
0.0
 11
178.5587869456651
 21
106.8746648657997
 31
0.0
  0
LINE
  5
2501E
  8
KI1
 10
177.75878694566501
 20
107.742614058231
 30
0.0
 11
177.75878694566481
 21
107.3746648658007
 31
0.0
  0
ARC
  5
2501F
  8
KI1
 10
178.25878694566501
 20
107.3746648657996
 30
0.0
 40
0.5
 50
180.0
 51
270.0
  0
ARC
  5
25020
  8
KI1
 10
177.458786945665
 20
107.742614058231
 30
0.0
 40
0.3
 50
0.0
 51
120.0000000000001
  0
ARC
  5
25021
  8
KI1
 10
176.80878694566491
 20
107.1363962755818
 30
0.0
 40
0.5
 50
120.0000000000001
 51
180.0
  0
LINE
  5
25022
  8
KI1
 10
176.30878694566491
 20
107.1363962755818
 30
0.0
 11
176.30878694566491
 21
105.4746648657996
 31
0.0
  0
LINE
  5
25023
  8
KI1
 10
177.3087869456651
 20
108.00242167936629
 30
0.0
 11
176.55878694566491
 21
107.5694089774739
 31
0.0
  0
LINE
  5
25024
  8
KI1
 10
180.55878694566499
 20
107.8746648657994
 30
0.0
 11
180.5587869456651
 21
107.4746648657997
 31
0.0
  0
ARC
  5
25025
  8
KI1
 10
180.25878694566501
 20
107.5746648657996
 30
0.0
 40
0.3
 50
0.0
 51
90.0
  0
LINE
  5
25026
  8
KI1
 10
181.2614431671704
 20
106.8174330122233
 30
0.0
 11
181.40899874117031
 21
106.5304086840263
 31
0.0
  0
ARC
  5
25027
  8
KI1
 10
180.6087869456652
 20
106.77466486579939
 30
0.0
 40
0.3
 50
160.2912688707637
 51
207.20712231416061
  0
LINE
  5
25028
  8
KI1
 10
180.34197908199499
 20
106.63750232031499
 30
0.0
 11
180.60857515015979
 21
106.1189210475727
 31
0.0
  0
LINE
  5
25029
  8
KI1
 10
180.55878694566499
 20
107.52466486579939
 30
0.0
 11
180.32636119617661
 21
106.8758364825003
 31
0.0
  0
LINE
  5
2502B
  8
KI1
 10
178.55878694566499
 20
106.8746648657997
 30
0.0
 11
178.5587869456651
 21
105.4746648657997
 31
0.0
  0
LINE
  5
2502C
  8
KI1
 10
179.75878694566481
 20
106.8746648657997
 30
0.0
 11
179.75878694566501
 21
105.6746648657996
 31
0.0
  0
LINE
  5
2502D
  8
KI1
 10
179.9587869456652
 20
106.8746648657997
 30
0.0
 11
179.75878694566501
 21
106.8746648657997
 31
0.0
  0
LINE
  5
2502E
  8
KI1
 10
178.9587869456652
 20
107.8746648657997
 30
0.0
 11
180.55878694566499
 21
107.8746648657994
 31
0.0
  0
ARC
  5
2502F
  8
KI1
 10
179.958786945665
 20
107.4746648657997
 30
0.0
 40
0.6
 50
270.0
 51
0.0
1001
GENIUS_GENODEF_13
1002
{
1000
HIER
1070
     0
1002
}
1002
{
1000
MANEDIT
1070
     0
1002
}
1002
{
1000
NOSEL
1070
     0
1002
}
1002
{
1000
BEHIND
1070
     0
1002
}
1002
{
1000
OTHER
1070
     0
1002
}
1002
{
1000
REACTOR
1002
}
1001
GENIUS_GENOBJ-N-FIL_13
1002
{
1000
OWNER
1000
GEN
1002
}
  0
LINE
  5
25031
  8
KI1
 10
187.15878694566501
 20
108.07466486579951
 30
0.0
 11
181.4587869456652
 21
108.07466486579951
 31
0.0
  0
LINE
  5
25032
  8
KI1
 10
181.4587869456652
 20
107.36832827678271
 30
0.0
 11
181.4587869456652
 21
108.07466486579951
 31
0.0
  0
LINE
  5
25033
  8
KI1
 10
187.15878694566501
 20
108.07466486579951
 30
0.0
 11
187.15878694566501
 21
106.52466486579939
 31
0.0
  0
LINE
  5
25034
  8
KI1
 10
177.458786945665
 20
109.4746648657997
 30
0.0
 11
178.65878694566479
 21
109.4746648657997
 31
0.0
  0
ARC
  5
25035
  8
KI1
 10
178.65878694566479
 20
109.1746648657996
 30
0.0
 40
0.3
 50
0.0
 51
90.0
  0
LINE
  5
25036
  8
KI1
 10
196.65878694566501
 20
108.07466486579951
 30
0.0
 11
188.05878694566499
 21
108.07466486579951
 31
0.0
  0
LINE
  5
25037
  8
KI1
 10
188.05878694566499
 20
108.07466486579951
 30
0.0
 11
188.05878694566499
 21
106.52466486579939
 31
0.0
  0
ARC
  5
25038
  8
KI1
 10
192.35878694566509
 20
105.6746648657996
 30
0.0
 40
0.3000000000000114
 50
180.0
 51
0.0
  0
ARC
  5
25039
  8
KI1
 10
197.10878694566509
 20
106.52466486579939
 30
0.0
 40
0.4499999999999981
 50
180.0
 51
0.0
  0
LINE
  5
2503A
  8
KI1
 10
197.55878694566499
 20
108.07466486579951
 30
0.0
 11
197.55878694566499
 21
106.52466486579939
 31
0.0
  0
LINE
  5
2503B
  8
KI1
 10
196.65878694566501
 20
108.07466486579951
 30
0.0
 11
196.65878694566501
 21
106.52466486579939
 31
0.0
  0
LINE
  5
2503C
  8
KI1
 10
210.10878694566449
 20
105.6746648657996
 30
0.0
 11
211.6087869456654
 21
105.6746648657996
 31
0.0
  0
LINE
  5
2503D
  8
KI1
 10
207.25878694566521
 20
109.4746648657997
 30
0.0
 11
209.60878694566509
 21
108.1178917332039
 31
0.0
  0
LINE
  5
2503E
  8
KI1
 10
205.55878694566499
 20
109.07466486579951
 30
0.0
 11
205.55878694566499
 21
107.8746648657994
 31
0.0
  0
LINE
  5
2503F
  8
KI1
 10
205.75878694566521
 20
109.1746648657996
 30
0.0
 11
205.75878694566521
 21
107.8746648657997
 31
0.0
  0
ARC
  5
25041
  8
KI1
 10
204.75878694566521
 20
107.4746648657997
 30
0.0
 40
0.6
 50
180.0
 51
269.99999999999352
1001
GENIUS_GENODEF_13
1002
{
1000
HIER
1070
     0
1002
}
1002
{
1000
MANEDIT
1070
     0
1002
}
1002
{
1000
NOSEL
1070
     0
1002
}
1002
{
1000
BEHIND
1070
     0
1002
}
1002
{
1000
OTHER
1070
     0
1002
}
1002
{
1000
REACTOR
1002
}
1001
GENIUS_GENOBJ-N-FIL_13
1002
{
1000
OWNER
1000
GEN
1002
}
  0
LINE
  5
25042
  8
KI1
 10
205.75878694566521
 20
107.8746648657997
 30
0.0
 11
204.15878694566501
 21
107.8746648657994
 31
0.0
  0
LINE
  5
25043
  8
KI1
 10
204.15878694566501
 20
107.8746648657994
 30
0.0
 11
204.1587869456653
 21
107.4746648657997
 31
0.0
  0
ARC
  5
25044
  8
KI1
 10
204.4587869456652
 20
107.5746648657997
 30
0.0
 40
0.3
 50
90.0
 51
180.0
  0
LINE
  5
25046
  8
KI1
 10
204.15878694566501
 20
107.52466486579939
 30
0.0
 11
204.3912126951536
 21
106.8758364825003
 31
0.0
  0
LINE
  5
25047
  8
KI1
 10
204.3755948093351
 20
106.63750232031499
 30
0.0
 11
204.10899874117021
 21
106.1189210475727
 31
0.0
  0
ARC
  5
25048
  8
KI1
 10
204.10878694566509
 20
106.77466486579939
 30
0.0
 40
0.3
 50
332.79287768583941
 51
19.708731129236241
  0
ARC
  5
25049
  8
KI1
 10
203.7087869456652
 20
106.32466486579951
 30
0.0
 40
0.45
 50
152.79287768583939
 51
332.79287768583941
  0
LINE
  5
2504A
  8
KI1
 10
203.45613072415969
 20
106.8174330122233
 30
0.0
 11
203.30857515016001
 21
106.5304086840263
 31
0.0
  0
LINE
  5
2504B
  8
KI1
 10
203.25878694566509
 20
107.36832827678271
 30
0.0
 11
203.45613072415969
 21
106.8174330122233
 31
0.0
  0
LINE
  5
2504C
  8
KI1
 10
203.25878694566509
 20
107.36832827678271
 30
0.0
 11
203.25878694566509
 21
108.07466486579951
 31
0.0
  0
ARC
  5
2504D
  8
KI1
 10
209.4087869456653
 20
105.4746648657997
 30
0.0
 40
1.0
 50
180.0
 51
270.0
  0
ARC
  5
2504E
  8
KI1
 10
205.15878694566521
 20
105.4746648657997
 30
0.0
 40
1.0
 50
270.0
 51
0.0
  0
LINE
  5
2504F
  8
KI1
 10
207.4087869456653
 20
108.00242167936629
 30
0.0
 11
208.1587869456653
 21
107.5694089774739
 31
0.0
  0
LINE
  5
25050
  8
KI1
 10
206.9587869456652
 20
107.742614058231
 30
0.0
 11
206.95878694566539
 21
107.3746648658007
 31
0.0
  0
ARC
  5
25051
  8
KI1
 10
206.4587869456652
 20
107.3746648657996
 30
0.0
 40
0.5
 50
270.0
 51
0.0
  0
ARC
  5
25052
  8
KI1
 10
207.25878694566521
 20
107.742614058231
 30
0.0
 40
0.3
 50
59.999999999999858
 51
180.0
  0
LINE
  5
25053
  8
KI1
 10
206.1587869456653
 20
106.8746648657997
 30
0.0
 11
206.1587869456651
 21
105.4746648657997
 31
0.0
  0
LINE
  5
25054
  8
KI1
 10
204.95878694566539
 20
106.8746648657997
 30
0.0
 11
204.9587869456652
 21
105.6746648657996
 31
0.0
  0
LINE
  5
25055
  8
KI1
 10
204.75878694566521
 20
106.8746648657997
 30
0.0
 11
204.9587869456652
 21
106.8746648657997
 31
0.0
  0
LINE
  5
25056
  8
KI1
 10
206.4587869456652
 20
106.8746648657997
 30
0.0
 11
206.1587869456651
 21
106.8746648657997
 31
0.0
  0
ARC
  5
25057
  8
KI1
 10
210.10878694566509
 20
106.1746648657996
 30
0.0
 40
0.5
 50
180.0
 51
270.0
  0
ARC
  5
25058
  8
KI1
 10
207.9087869456653
 20
107.1363962755818
 30
0.0
 40
0.5
 50
0.0
 51
59.999999999999858
  0
LINE
  5
25059
  8
KI1
 10
208.4087869456653
 20
107.1363962755818
 30
0.0
 11
208.4087869456653
 21
105.4746648657997
 31
0.0
  0
LINE
  5
2505A
  8
KI1
 10
209.60878694566509
 20
108.1178917332039
 30
0.0
 11
209.60878694566509
 21
106.1746648657996
 31
0.0
  0
ARC
  5
2505B
  8
KI1
 10
206.05878694566539
 20
109.1746648657996
 30
0.0
 40
0.3
 50
90.0
 51
180.0
  0
LINE
  5
2505C
  8
KI1
 10
207.25878694566521
 20
109.4746648657997
 30
0.0
 11
206.05878694566539
 21
109.4746648657997
 31
0.0
  0
LINE
  5
2505D
  8
KI1
 10
215.1587869456649
 20
108.5746648657996
 30
0.0
 11
214.75878694566489
 21
108.1746648657996
 31
0.0
  0
ARC
  5
2505E
  8
KI1
 10
214.8587869456652
 20
108.6663744889342
 30
0.0
 40
0.3
 50
300.00000000000011
 51
0.0
1001
GENIUS_GENODEF_13
1002
{
1000
HIER
1070
     0
1002
}
1002
{
1000
MANEDIT
1070
     0
1002
}
1002
{
1000
NOSEL
1070
     0
1002
}
1002
{
1000
BEHIND
1070
     0
1002
}
1002
{
1000
OTHER
1070
     0
1002
}
1002
{
1000
REACTOR
1002
}
1001
GENIUS_GENOBJ-N-FIL_13
1002
{
1000
OWNER
1000
GEN
1002
}
  0
LINE
  5
2505F
  8
KI1
 10
214.45878694566559
 20
109.4746648657997
 30
0.0
 11
212.10878694566571
 21
108.1178917332039
 31
0.0
  0
LINE
  5
25060
  8
KI1
 10
219.9587869456652
 20
105.6746648657995
 30
0.0
 11
213.8087869456655
 21
105.6746648657996
 31
0.0
  0
ARC
  5
25061
  8
KI1
 10
213.8087869456655
 20
106.1746648657996
 30
0.0
 40
0.5
 50
180.0
 51
270.0
  0
ARC
  5
25062
  8
KI1
 10
213.8087869456655
 20
107.1363962755818
 30
0.0
 40
0.5
 50
120.0000000000001
 51
180.0
  0
LINE
  5
25063
  8
KI1
 10
213.3087869456655
 20
107.1363962755818
 30
0.0
 11
213.3087869456655
 21
106.1746648657996
 31
0.0
  0
LINE
  5
25064
  8
KI1
 10
212.10878694566571
 20
108.1178917332039
 30
0.0
 11
212.10878694566571
 21
106.1746648657996
 31
0.0
  0
ARC
  5
25065
  8
KI1
 10
211.60878694566571
 20
106.1746648657996
 30
0.0
 40
0.5
 50
270.0
 51
0.0
1001
GENIUS_GENODEF_13
1002
{
1000
HIER
1070
     0
1002
}
1002
{
1000
MANEDIT
1070
     0
1002
}
1002
{
1000
NOSEL
1070
     0
1002
}
1002
{
1000
BEHIND
1070
     0
1002
}
1002
{
1000
OTHER
1070
     0
1002
}
1002
{
1000
REACTOR
1002
}
1001
GENIUS_GENOBJ-N-FIL_13
1002
{
1000
OWNER
1000
GEN
1002
}
  0
LINE
  5
25066
  8
KI1
 10
215.75878694566501
 20
106.1746648657996
 30
0.0
 11
215.75878694566501
 21
107.76045130342651
 31
0.0
  0
ARC
  5
25067
  8
KI1
 10
215.25878694566481
 20
106.1746648657996
 30
0.0
 40
0.5
 50
180.0
 51
0.0
  0
LINE
  5
25068
  8
KI1
 10
214.75878694566489
 20
108.1746648657996
 30
0.0
 11
214.75878694566489
 21
106.1746648657996
 31
0.0
  0
LINE
  5
25069
  8
KI1
 10
215.75878694566501
 20
107.76045130342651
 30
0.0
 11
216.07300050803809
 21
108.0746648657996
 31
0.0
  0
LINE
  5
2506A
  8
KI1
 10
215.00878694566521
 20
108.4065668677988
 30
0.0
 11
213.5587869456655
 21
107.5694089774739
 31
0.0
  0
ARC
  5
2506B
  8
KI1
 10
220.25878694566521
 20
105.6746648657995
 30
0.0
 40
0.2999999999999972
 50
179.99999999999349
 51
0.0000000000065138
  0
LINE
  5
2506C
  8
KI1
 10
215.1587869456649
 20
109.27466486579949
 30
0.0
 11
215.1587869456649
 21
108.5746648657996
 31
0.0
  0
LINE
  5
2506E
  8
KI1
 10
214.45878694566559
 20
109.4746648657997
 30
0.0
 11
214.85878694566509
 21
109.4746648657997
 31
0.0
  0
ARC
  5
2506F
  8
KI1
 10
214.858786945665
 20
109.1746648657996
 30
0.0
 40
0.3
 50
0.0
 51
90.0
  0
LINE
  5
25070
  8
KI1
 10
228.99080986722399
 20
106.43440229786211
 30
0.0
 11
225.75878694566481
 21
109.27466486579949
 31
0.0
  0
LINE
  5
25071
  8
KI1
 10
228.858786945665
 20
105.6746648652821
 30
0.0
 11
227.5830059833562
 21
105.6746648652821
 31
0.0
  0
LINE
  5
25072
  8
KI1
 10
226.1587869454207
 20
105.4746648657997
 30
0.0
 11
229.05878694566519
 21
105.4746648657997
 31
0.0
  0
LINE
  5
25073
  8
KI1
 10
225.6094157292641
 20
108.0746648657996
 30
0.0
 11
224.85878694566489
 21
108.0746648657996
 31
0.0
  0
ARC
  5
25074
  8
KI1
 10
225.1587869456628
 20
107.408897787699
 30
0.0
 40
0.3
 50
180.0000000000521
 51
255.96375652388841
1001
GENIUS_GENODEF_13
1002
{
1000
HIER
1070
     0
1002
}
1002
{
1000
MANEDIT
1070
     0
1002
}
1002
{
1000
NOSEL
1070
     0
1002
}
1002
{
1000
BEHIND
1070
     0
1002
}
1002
{
1000
OTHER
1070
     0
1002
}
1002
{
1000
REACTOR
1002
}
1001
GENIUS_GENOBJ-N-FIL_13
1002
{
1000
OWNER
1000
GEN
1002
}
  0
ARC
  5
25075
  8
KI1
 10
225.1587869456628
 20
107.4746648658123
 30
0.0
 40
0.3
 50
90.000000000052125
 51
180.0000000000521
1001
GENIUS_GENODEF_13
1002
{
1000
HIER
1070
     0
1002
}
1002
{
1000
MANEDIT
1070
     0
1002
}
1002
{
1000
NOSEL
1070
     0
1002
}
1002
{
1000
BEHIND
1070
     0
1002
}
1002
{
1000
OTHER
1070
     0
1002
}
1002
{
1000
REACTOR
1002
}
1001
GENIUS_GENOBJ-N-FIL_13
1002
{
1000
OWNER
1000
GEN
1002
}
  0
ARC
  5
25076
  8
KI1
 10
224.3587869456646
 20
105.9746648657997
 30
0.0
 40
0.3
 50
180.0
 51
341.00444933722321
  0
LINE
  5
25077
  8
KI1
 10
224.99787970986159
 20
106.90951943980259
 30
0.0
 11
224.64245010214469
 21
105.8770164471962
 31
0.0
  0
LINE
  5
25078
  8
KI1
 10
224.8587869456646
 20
107.3746648657998
 30
0.0
 11
224.99340233028011
 21
107.0515879427228
 31
0.0
  0
ARC
  5
25079
  8
KI1
 10
224.80878694566471
 20
106.9746648657997
 30
0.0
 40
0.2
 50
340.99036605207061
 51
22.619864948038799
  0
LINE
  5
2507B
  8
KI1
 10
224.8587869456648
 20
107.3746648657998
 30
0.0
 11
224.8587869456648
 21
108.0746648657996
 31
0.0
  0
LINE
  5
2507C
  8
KI1
 10
224.05878694566491
 20
108.0746648657996
 30
0.0
 11
224.05878694566479
 21
105.9746648657997
 31
0.0
  0
LINE
  5
2507D
  8
KI1
 10
226.6587869454205
 20
106.4868573533099
 30
0.0
 11
226.6587869454205
 21
107.152490160528
 31
0.0
  0
LINE
  5
2507E
  8
KI1
 10
226.1587869454207
 20
105.4746648657997
 30
0.0
 11
226.1587869454207
 21
107.0746648657996
 31
0.0
  0
ARC
  5
2507F
  8
KI1
 10
225.45878694542071
 20
107.0746648657996
 30
0.0
 40
0.7
 50
0.0
 51
90.0
1001
GENIUS_GENODEF_13
1002
{
1000
HIER
1070
     0
1002
}
1002
{
1000
MANEDIT
1070
     0
1002
}
1002
{
1000
NOSEL
1070
     0
1002
}
1002
{
1000
BEHIND
1070
     0
1002
}
1002
{
1000
OTHER
1070
     0
1002
}
1002
{
1000
REACTOR
1002
}
1001
GENIUS_GENOBJ-N-FIL_13
1002
{
1000
OWNER
1000
GEN
1002
}
  0
LINE
  5
25080
  8
KI1
 10
225.45878694542071
 20
107.77466486579949
 30
0.0
 11
225.15878694566521
 21
107.77466486579949
 31
0.0
  0
LINE
  5
25081
  8
KI1
 10
225.25878694542061
 20
107.0746648657996
 30
0.0
 11
225.25878694542061
 21
105.6746648657996
 31
0.0
  0
LINE
  5
25082
  8
KI1
 10
225.08602625811031
 20
107.1178550376659
 30
0.0
 11
225.25878694541859
 21
107.07466486581249
 31
0.0
  0
LINE
  5
25083
  8
KI1
 10
227.5830059833562
 20
105.6746648652821
 30
0.0
 11
226.6587869454205
 21
106.4868573533099
 31
0.0
  0
LINE
  5
25084
  8
KI1
 10
226.6587869454205
 20
107.152490160528
 30
0.0
 11
225.6094157292641
 21
108.0746648657996
 31
0.0
  0
LINE
  5
25085
  8
KI1
 10
229.3587869456652
 20
105.1746648657996
 30
0.0
 11
229.3587869456652
 21
104.4746648657997
 31
0.0
  0
ARC
  5
25086
  8
KI1
 10
228.858786945665
 20
106.284169318184
 30
0.0
 40
0.2
 50
0.0
 51
48.691385981383519
1001
GENIUS_GENODEF_13
1002
{
1000
HIER
1070
     0
1002
}
1002
{
1000
MANEDIT
1070
     0
1002
}
1002
{
1000
NOSEL
1070
     0
1002
}
1002
{
1000
BEHIND
1070
     0
1002
}
1002
{
1000
OTHER
1070
     0
1002
}
1002
{
1000
REACTOR
1002
}
1001
GENIUS_GENOBJ-N-FIL_13
1002
{
1000
OWNER
1000
GEN
1002
}
  0
ARC
  5
25087
  8
KI1
 10
228.858786945665
 20
105.8746648652821
 30
0.0
 40
0.2
 50
270.0
 51
0.0
1001
GENIUS_GENODEF_13
1002
{
1000
HIER
1070
     0
1002
}
1002
{
1000
MANEDIT
1070
     0
1002
}
1002
{
1000
NOSEL
1070
     0
1002
}
1002
{
1000
BEHIND
1070
     0
1002
}
1002
{
1000
OTHER
1070
     0
1002
}
1002
{
1000
REACTOR
1002
}
1001
GENIUS_GENOBJ-N-FIL_13
1002
{
1000
OWNER
1000
GEN
1002
}
  0
LINE
  5
25088
  8
KI1
 10
229.05878694566491
 20
106.284169318184
 30
0.0
 11
229.05878694566491
 21
105.8746648652821
 31
0.0
  0
ARC
  5
25089
  8
KI1
 10
229.05878694566519
 20
105.1746648657996
 30
0.0
 40
0.3
 50
0.0
 51
90.0
1001
GENIUS_GENOBJ-N-FIL_13
1002
{
1000
OWNER
1000
GEN
1002
}
1001
GENIUS_GENODEF_13
1002
{
1000
HIER
1070
     0
1002
}
1002
{
1000
MANEDIT
1070
     0
1002
}
1002
{
1000
NOSEL
1070
     0
1002
}
1002
{
1000
BEHIND
1070
     0
1002
}
1002
{
1000
OTHER
1070
     0
1002
}
1002
{
1000
REACTOR
1002
}
  0
LINE
  5
251BB
  8
KI2
 10
518.87789582156961
 20
109.47950079912221
 30
0.0
 11
521.37789582156961
 21
107.97950079912221
 31
0.0
  0
LINE
  5
251BC
  8
KI2
 10
518.87789582156961
 20
111.97466685852
 30
0.0
 11
518.87789582156961
 21
109.47950079912221
 31
0.0
  0
LINE
  5
251BD
  8
KI2
 10
523.37789582156961
 20
106.47950079912221
 30
0.0
 11
522.37789582156961
 21
106.47950079912221
 31
0.0
  0
LINE
  5
251BE
  8
KI2
 10
521.37789582156961
 20
106.47950079912221
 30
0.0
 11
522.37789582156961
 21
106.47950079912221
 31
0.0
  0
LINE
  5
251BF
  8
KI2
 10
525.87789582156961
 20
109.47950079912221
 30
0.0
 11
523.37789582156961
 21
107.97950079912221
 31
0.0
  0
LINE
  5
251C0
  8
KI2
 10
525.87789582156961
 20
111.97466685852
 30
0.0
 11
525.87789582156961
 21
109.47950079912221
 31
0.0
  0
LINE
  5
251C1
  8
KI2
 10
523.37789582156961
 20
111.97466685852
 30
0.0
 11
523.37789582156961
 21
106.47950079912221
 31
0.0
  0
LINE
  5
251C2
  8
KI2
 10
521.37789582156961
 20
111.97466685852
 30
0.0
 11
521.37789582156961
 21
106.47950079912221
 31
0.0
  0
LINE
  5
251C3
  8
KI2
 10
506.87789582157052
 20
111.9746668585199
 30
0.0
 11
536.87789582157052
 21
111.97466685852
 31
0.0
  0
LINE
  5
251C4
  8
KI1
 10
505.37789582157052
 20
113.4746668585199
 30
0.0
 11
538.37789582150106
 21
113.4746668585199
 31
0.0
  0
ARC
  5
251C5
  8
KI2
 10
506.87789582157052
 20
113.4746668585199
 30
0.0
 40
1.5
 50
180.0
 51
270.0
  0
ARC
  5
251C6
  8
KI2
 10
536.87789582157052
 20
113.4746668585199
 30
0.0
 40
1.5
 50
270.0
 51
0.0
  0
LINE
  5
251C7
  8
KI2
 10
481.87789582156961
 20
109.47950079912221
 30
0.0
 11
484.37789582156961
 21
107.97950079912221
 31
0.0
  0
LINE
  5
251C8
  8
KI2
 10
481.87789582156961
 20
111.97466685852
 30
0.0
 11
481.87789582156961
 21
109.47950079912221
 31
0.0
  0
LINE
  5
251C9
  8
KI2
 10
486.37789582156961
 20
106.47950079912221
 30
0.0
 11
485.37789582156961
 21
106.47950079912221
 31
0.0
  0
LINE
  5
251CA
  8
KI2
 10
484.37789582156961
 20
106.47950079912221
 30
0.0
 11
485.37789582156961
 21
106.47950079912221
 31
0.0
  0
LINE
  5
251CB
  8
KI2
 10
488.87789582156961
 20
109.47950079912221
 30
0.0
 11
486.37789582156961
 21
107.97950079912221
 31
0.0
  0
LINE
  5
251CC
  8
KI2
 10
488.87789582156961
 20
111.97466685852
 30
0.0
 11
488.87789582156961
 21
109.47950079912221
 31
0.0
  0
LINE
  5
251CD
  8
KI2
 10
486.37789582156961
 20
111.97466685852
 30
0.0
 11
486.37789582156961
 21
106.47950079912221
 31
0.0
  0
LINE
  5
251CE
  8
KI2
 10
484.37789582156961
 20
111.97466685852
 30
0.0
 11
484.37789582156961
 21
106.47950079912221
 31
0.0
  0
LINE
  5
251CF
  8
KI2
 10
470.87789582157052
 20
111.9746668585199
 30
0.0
 11
500.87789582157052
 21
111.97466685852
 31
0.0
  0
LINE
  5
251D0
  8
KI1
 10
469.37789582157052
 20
113.4746668585199
 30
0.0
 11
502.37789582150111
 21
113.4746668585199
 31
0.0
  0
ARC
  5
251D1
  8
KI2
 10
470.87789582157052
 20
113.4746668585199
 30
0.0
 40
1.5
 50
180.0
 51
270.0
  0
ARC
  5
251D2
  8
KI2
 10
500.87789582157052
 20
113.4746668585199
 30
0.0
 40
1.5
 50
270.0
 51
0.0
  0
LINE
  5
251D3
  8
KI1
 10
521.62789582150049
 20
105.6746668585206
 30
0.0
 11
523.12789582150151
 21
105.6746668585206
 31
0.0
  0
LINE
  5
251D4
  8
KI1
 10
540.87789582150106
 20
104.47466685852049
 30
0.0
 11
520.92789582150135
 21
104.47466685852049
 31
0.0
  0
LINE
  5
251D5
  8
KI1
 10
472.17789582150158
 20
108.0746668585206
 30
0.0
 11
480.16368225912839
 21
108.0746668585206
 31
0.0
  0
LINE
  5
251D6
  8
KI1
 10
481.0778958215015
 20
109.2746668585204
 30
0.0
 11
470.47789582150159
 21
109.2746668585204
 31
0.0
  0
LINE
  5
251D7
  8
KI1
 10
466.87789582150123
 20
104.47466685852049
 30
0.0
 11
486.82789582150087
 21
104.47466685852049
 31
0.0
  0
LINE
  5
251D8
  8
KI1
 10
476.27789582150132
 20
105.6746668585202
 30
0.0
 11
482.42789582150101
 21
105.6746668585206
 31
0.0
  0
LINE
  5
251D9
  8
KI1
 10
472.17789582150158
 20
108.0746668585206
 30
0.0
 11
472.17789582150181
 21
105.97466685852049
 31
0.0
  0
ARC
  5
251DA
  8
KI1
 10
475.97789582150119
 20
105.6746668585202
 30
0.0
 40
0.2999999999999972
 50
179.99999999999349
 51
0.0000000000065138
  0
LINE
  5
251DB
  8
KI1
 10
467.37789582150151
 20
105.67466685800289
 30
0.0
 11
468.6536767838104
 21
105.67466685800289
 31
0.0
  0
LINE
  5
251DC
  8
KI1
 10
470.0778958217457
 20
105.47466685852049
 30
0.0
 11
467.17789582150118
 21
105.47466685852049
 31
0.0
  0
LINE
  5
251DD
  8
KI1
 10
467.24587289994253
 20
106.4344042905831
 30
0.0
 11
470.47789582150159
 21
109.2746668585204
 31
0.0
  0
ARC
  5
251DE
  8
KI1
 10
467.37789582150151
 20
106.2841713109047
 30
0.0
 40
0.2
 50
131.30861401861469
 51
180.0
1001
GENIUS_GENODEF_13
1002
{
1000
HIER
1070
     0
1002
}
1002
{
1000
MANEDIT
1070
     0
1002
}
1002
{
1000
NOSEL
1070
     0
1002
}
1002
{
1000
BEHIND
1070
     0
1002
}
1002
{
1000
OTHER
1070
     0
1002
}
1002
{
1000
REACTOR
1002
}
1001
GENIUS_GENOBJ-N-FIL_13
1002
{
1000
OWNER
1000
GEN
1002
}
  0
ARC
  5
251DF
  8
KI1
 10
467.37789582150151
 20
105.874666858003
 30
0.0
 40
0.2
 50
180.0
 51
270.0
1001
GENIUS_GENODEF_13
1002
{
1000
HIER
1070
     0
1002
}
1002
{
1000
MANEDIT
1070
     0
1002
}
1002
{
1000
NOSEL
1070
     0
1002
}
1002
{
1000
BEHIND
1070
     0
1002
}
1002
{
1000
OTHER
1070
     0
1002
}
1002
{
1000
REACTOR
1002
}
1001
GENIUS_GENOBJ-N-FIL_13
1002
{
1000
OWNER
1000
GEN
1002
}
  0
LINE
  5
251E0
  8
KI1
 10
467.17789582150152
 20
106.2841713109047
 30
0.0
 11
467.17789582150152
 21
105.874666858003
 31
0.0
  0
ARC
  5
251E1
  8
KI1
 10
467.17789582150118
 20
105.1746668585206
 30
0.0
 40
0.3
 50
90.0
 51
180.0
1001
GENIUS_GENOBJ-N-FIL_13
1002
{
1000
OWNER
1000
GEN
1002
}
1001
GENIUS_GENODEF_13
1002
{
1000
HIER
1070
     0
1002
}
1002
{
1000
MANEDIT
1070
     0
1002
}
1002
{
1000
NOSEL
1070
     0
1002
}
1002
{
1000
BEHIND
1070
     0
1002
}
1002
{
1000
OTHER
1070
     0
1002
}
1002
{
1000
REACTOR
1002
}
  0
LINE
  5
251E2
  8
KI1
 10
470.62726703790241
 20
108.0746668585206
 30
0.0
 11
471.37789582150162
 21
108.0746668585206
 31
0.0
  0
LINE
  5
251E3
  8
KI1
 10
470.7778958217458
 20
107.7746668585205
 30
0.0
 11
471.07789582150127
 21
107.7746668585205
 31
0.0
  0
LINE
  5
251E4
  8
KI1
 10
471.23880305730489
 20
106.90952143252341
 30
0.0
 11
471.59423266502182
 21
105.87701843991699
 31
0.0
  0
LINE
  5
251E5
  8
KI1
 10
471.3778958215018
 20
107.3746668585207
 30
0.0
 11
471.24328043688632
 21
107.0515899354436
 31
0.0
  0
ARC
  5
251E6
  8
KI1
 10
471.42789582150169
 20
106.97466685852049
 30
0.0
 40
0.2
 50
157.38013505195909
 51
199.0096339479297
  0
LINE
  5
251E7
  8
KI1
 10
470.0778958217457
 20
105.47466685852049
 30
0.0
 11
470.0778958217457
 21
107.0746668585204
 31
0.0
  0
LINE
  5
251E8
  8
KI1
 10
470.97789582174579
 20
107.0746668585206
 30
0.0
 11
470.97789582174579
 21
105.6746668585206
 31
0.0
  0
ARC
  5
251E9
  8
KI1
 10
471.07789582150372
 20
107.4088997804199
 30
0.0
 40
0.3
 50
284.03624347611827
 51
0.0
1001
GENIUS_GENODEF_13
1002
{
1000
HIER
1070
     0
1002
}
1002
{
1000
MANEDIT
1070
     0
1002
}
1002
{
1000
NOSEL
1070
     0
1002
}
1002
{
1000
BEHIND
1070
     0
1002
}
1002
{
1000
OTHER
1070
     0
1002
}
1002
{
1000
REACTOR
1002
}
1001
GENIUS_GENOBJ-N-FIL_13
1002
{
1000
OWNER
1000
GEN
1002
}
  0
LINE
  5
251EB
  8
KI1
 10
471.15065650905609
 20
107.1178570303867
 30
0.0
 11
470.97789582174801
 21
107.0746668585334
 31
0.0
  0
LINE
  5
251EC
  8
KI1
 10
469.57789582174593
 20
106.4868593460306
 30
0.0
 11
469.57789582174593
 21
107.1524921532488
 31
0.0
  0
LINE
  5
251ED
  8
KI1
 10
468.6536767838104
 20
105.67466685800289
 30
0.0
 11
469.57789582174593
 21
106.4868593460306
 31
0.0
  0
LINE
  5
251EE
  8
KI1
 10
469.57789582174593
 20
107.1524921532488
 30
0.0
 11
470.62726703790241
 21
108.0746668585206
 31
0.0
  0
LINE
  5
251EF
  8
KI1
 10
471.37789582150162
 20
107.3746668585206
 30
0.0
 11
471.37789582150162
 21
108.0746668585206
 31
0.0
  0
ARC
  5
251F0
  8
KI1
 10
471.07789582150372
 20
107.4746668585333
 30
0.0
 40
0.3
 50
0.0
 51
89.999999999947889
1001
GENIUS_GENODEF_13
1002
{
1000
HIER
1070
     0
1002
}
1002
{
1000
MANEDIT
1070
     0
1002
}
1002
{
1000
NOSEL
1070
     0
1002
}
1002
{
1000
BEHIND
1070
     0
1002
}
1002
{
1000
OTHER
1070
     0
1002
}
1002
{
1000
REACTOR
1002
}
1001
GENIUS_GENOBJ-N-FIL_13
1002
{
1000
OWNER
1000
GEN
1002
}
  0
ARC
  5
251F1
  8
KI1
 10
470.7778958217458
 20
107.0746668585204
 30
0.0
 40
0.7
 50
90.0
 51
180.0
1001
GENIUS_GENODEF_13
1002
{
1000
HIER
1070
     0
1002
}
1002
{
1000
MANEDIT
1070
     0
1002
}
1002
{
1000
NOSEL
1070
     0
1002
}
1002
{
1000
BEHIND
1070
     0
1002
}
1002
{
1000
OTHER
1070
     0
1002
}
1002
{
1000
REACTOR
1002
}
1001
GENIUS_GENOBJ-N-FIL_13
1002
{
1000
OWNER
1000
GEN
1002
}
  0
LINE
  5
251F2
  8
KI1
 10
470.97789582174579
 20
105.6746668585206
 30
0.0
 11
475.67789582150129
 21
105.6746668585202
 31
0.0
  0
ARC
  5
251F3
  8
KI1
 10
471.8778958215018
 20
105.97466685852061
 30
0.0
 40
0.3
 50
198.99555066277469
 51
0.0
  0
LINE
  5
251F4
  8
KI1
 10
466.87789582150123
 20
104.47466685852049
 30
0.0
 11
466.87789582150111
 21
105.1746668585206
 31
0.0
  0
LINE
  5
251F5
  8
KI1
 10
514.77789582150115
 20
108.0746668585206
 30
0.0
 11
509.07789582150099
 21
108.0746668585206
 31
0.0
  0
ARC
  5
251F6
  8
KI1
 10
517.57789582150144
 20
109.1746668585206
 30
0.0
 40
0.3
 50
90.0
 51
180.0
  0
LINE
  5
251F7
  8
KI1
 10
518.77789582150115
 20
109.47466685852049
 30
0.0
 11
521.12789582150106
 21
108.1178937259249
 31
0.0
  0
LINE
  5
251F8
  8
KI1
 10
517.97789582150119
 20
106.8746668585205
 30
0.0
 11
517.67789582150124
 21
106.8746668585206
 31
0.0
  0
LINE
  5
251F9
  8
KI1
 10
517.27789582150115
 20
109.1746668585206
 30
0.0
 11
517.27789582150115
 21
107.8746668585206
 31
0.0
  0
LINE
  5
251FA
  8
KI1
 10
517.07789582150099
 20
109.0746668585206
 30
0.0
 11
517.07789582150099
 21
107.8746668585205
 31
0.0
  0
LINE
  5
251FB
  8
KI1
 10
517.67789582150135
 20
106.8746668585206
 30
0.0
 11
517.67789582150124
 21
105.47466685852049
 31
0.0
  0
LINE
  5
251FC
  8
KI1
 10
516.47789582150153
 20
106.8746668585206
 30
0.0
 11
516.47789582150131
 21
105.6746668585206
 31
0.0
  0
LINE
  5
251FD
  8
KI1
 10
516.27789582150115
 20
106.8746668585206
 30
0.0
 11
516.47789582150131
 21
106.8746668585206
 31
0.0
  0
ARC
  5
251FE
  8
KI1
 10
518.77789582150115
 20
107.7426160509519
 30
0.0
 40
0.3
 50
59.999999999999858
 51
180.0
  0
LINE
  5
251FF
  8
KI1
 10
518.92789582150124
 20
108.0024236720872
 30
0.0
 11
519.67789582150135
 21
107.56941097019489
 31
0.0
  0
ARC
  5
25200
  8
KI1
 10
521.62789582150117
 20
106.1746668585206
 30
0.0
 40
0.5
 50
180.0
 51
270.0
  0
LINE
  5
25201
  8
KI1
 10
519.92789582150135
 20
107.1363982683026
 30
0.0
 11
519.92789582150135
 21
105.47466685852049
 31
0.0
  0
ARC
  5
25202
  8
KI1
 10
517.97789582150119
 20
107.3746668585205
 30
0.0
 40
0.5
 50
270.0
 51
0.0
  0
LINE
  5
25203
  8
KI1
 10
521.12789582150106
 20
108.1178937259249
 30
0.0
 11
521.12789582150106
 21
106.1746668585206
 31
0.0
  0
LINE
  5
25204
  8
KI1
 10
518.47789582150119
 20
107.7426160509519
 30
0.0
 11
518.47789582150153
 21
107.37466685852149
 31
0.0
  0
ARC
  5
25205
  8
KI1
 10
519.42789582150135
 20
107.1363982683026
 30
0.0
 40
0.5
 50
0.0
 51
59.999999999999858
  0
LINE
  5
25206
  8
KI1
 10
518.77789582150115
 20
109.47466685852049
 30
0.0
 11
517.57789582150144
 21
109.47466685852061
 31
0.0
  0
ARC
  5
25207
  8
KI1
 10
515.97789582150131
 20
107.5746668585205
 30
0.0
 40
0.3
 50
90.0
 51
180.0
  0
ARC
  5
25209
  8
KI1
 10
515.22789582150131
 20
106.3246668585206
 30
0.0
 40
0.45
 50
152.7928776858306
 51
332.79287768583072
  0
LINE
  5
2520A
  8
KI1
 10
515.89470368517118
 20
106.637504313036
 30
0.0
 11
515.62810761700632
 21
106.11892304029379
 31
0.0
  0
ARC
  5
2520B
  8
KI1
 10
515.62789582150106
 20
106.7746668585205
 30
0.0
 40
0.3
 50
332.79287768583072
 51
19.7087311292393
  0
LINE
  5
2520C
  8
KI1
 10
514.9752395999958
 20
106.8174350049444
 30
0.0
 11
514.82768402599595
 21
106.53041067674729
 31
0.0
  0
LINE
  5
2520D
  8
KI1
 10
514.77789582150115
 20
107.3683302695037
 30
0.0
 11
514.9752395999958
 21
106.8174350049444
 31
0.0
  0
LINE
  5
2520E
  8
KI1
 10
515.67789582150112
 20
107.8746668585205
 30
0.0
 11
515.67789582150124
 21
107.47466685852061
 31
0.0
  0
LINE
  5
2520F
  8
KI1
 10
514.77789582150115
 20
107.3683302695037
 30
0.0
 11
514.77789582150115
 21
108.0746668585206
 31
0.0
  0
LINE
  5
25210
  8
KI1
 10
515.67789582150112
 20
107.5246668585205
 30
0.0
 11
515.91032157098971
 21
106.8758384752212
 31
0.0
  0
LINE
  5
25212
  8
KI1
 10
517.27789582150115
 20
107.8746668585206
 30
0.0
 11
515.67789582150112
 21
107.8746668585205
 31
0.0
  0
ARC
  5
25213
  8
KI1
 10
516.27789582150115
 20
107.47466685852061
 30
0.0
 40
0.6
 50
180.0
 51
269.99999999999352
1001
GENIUS_GENODEF_13
1002
{
1000
HIER
1070
     0
1002
}
1002
{
1000
MANEDIT
1070
     0
1002
}
1002
{
1000
NOSEL
1070
     0
1002
}
1002
{
1000
BEHIND
1070
     0
1002
}
1002
{
1000
OTHER
1070
     0
1002
}
1002
{
1000
REACTOR
1002
}
1001
GENIUS_GENOBJ-N-FIL_13
1002
{
1000
OWNER
1000
GEN
1002
}
  0
ARC
  5
25214
  8
KI1
 10
520.92789582150135
 20
105.47466685852049
 30
0.0
 40
1.0
 50
180.0
 51
270.0
  0
ARC
  5
25215
  8
KI1
 10
516.67789582150124
 20
105.47466685852049
 30
0.0
 40
1.0
 50
270.0
 51
0.0
  0
ARC
  5
25216
  8
KI1
 10
508.62789582150111
 20
106.5246668585205
 30
0.0
 40
0.4499999999999981
 50
180.0
 51
0.0
  0
LINE
  5
25217
  8
KI1
 10
509.07789582150099
 20
108.0746668585206
 30
0.0
 11
509.07789582150099
 21
106.5246668585205
 31
0.0
  0
LINE
  5
25218
  8
KI1
 10
508.17789582150112
 20
108.0746668585206
 30
0.0
 11
508.17789582150112
 21
106.5246668585205
 31
0.0
  0
LINE
  5
25219
  8
KI1
 10
480.47789582150148
 20
106.1746668585205
 30
0.0
 11
480.47789582150148
 21
107.7604532961474
 31
0.0
  0
ARC
  5
2521A
  8
KI1
 10
482.42789582150101
 20
107.1363982683026
 30
0.0
 40
0.5
 50
0.0
 51
59.999999999999858
  0
LINE
  5
2521B
  8
KI1
 10
481.77789582150092
 20
109.47466685852049
 30
0.0
 11
484.12789582150077
 21
108.1178937259249
 31
0.0
  0
ARC
  5
2521C
  8
KI1
 10
482.42789582150101
 20
106.1746668585206
 30
0.0
 40
0.5
 50
270.0
 51
0.0
  0
ARC
  5
2521D
  8
KI1
 10
486.82789582150087
 20
105.47466685852049
 30
0.0
 40
1.0
 50
270.0
 51
0.0
  0
LINE
  5
2521E
  8
KI1
 10
488.8278958215011
 20
108.0024236720872
 30
0.0
 11
488.07789582150087
 21
107.56941097019489
 31
0.0
  0
LINE
  5
2521F
  8
KI1
 10
488.97789582150108
 20
109.47466685852049
 30
0.0
 11
486.62789582150111
 21
108.1178937259249
 31
0.0
  0
LINE
  5
25220
  8
KI1
 10
499.57789582150099
 20
108.0746668585206
 30
0.0
 11
499.57789582150099
 21
106.5246668585205
 31
0.0
  0
ARC
  5
25221
  8
KI1
 10
503.87789582150111
 20
105.6746668585206
 30
0.0
 40
0.3000000000000114
 50
180.0
 51
0.0
  0
LINE
  5
25222
  8
KI1
 10
498.67789582150112
 20
108.0746668585206
 30
0.0
 11
498.67789582150112
 21
106.5246668585205
 31
0.0
  0
ARC
  5
25223
  8
KI1
 10
488.97789582150108
 20
107.7426160509519
 30
0.0
 40
0.3
 50
0.0
 51
120.0000000000001
  0
ARC
  5
25224
  8
KI1
 10
489.77789582150098
 20
107.3746668585205
 30
0.0
 40
0.5
 50
180.0
 51
270.0
  0
LINE
  5
25225
  8
KI1
 10
489.27789582150098
 20
107.7426160509519
 30
0.0
 11
489.27789582150081
 21
107.37466685852149
 31
0.0
  0
ARC
  5
25226
  8
KI1
 10
490.17789582150078
 20
109.1746668585206
 30
0.0
 40
0.3
 50
0.0
 51
90.0
  0
LINE
  5
25227
  8
KI1
 10
490.47789582150102
 20
109.1746668585206
 30
0.0
 11
490.47789582150102
 21
107.8746668585206
 31
0.0
  0
LINE
  5
25228
  8
KI1
 10
490.47789582150102
 20
107.8746668585206
 30
0.0
 11
492.07789582150099
 21
107.8746668585205
 31
0.0
  0
ARC
  5
25229
  8
KI1
 10
491.77789582150098
 20
107.5746668585205
 30
0.0
 40
0.3
 50
0.0
 51
90.0
  0
LINE
  5
2522A
  8
KI1
 10
490.67789582150112
 20
109.0746668585206
 30
0.0
 11
490.67789582150112
 21
107.8746668585205
 31
0.0
  0
LINE
  5
2522D
  8
KI1
 10
490.07789582150099
 20
106.8746668585206
 30
0.0
 11
490.0778958215011
 21
105.47466685852049
 31
0.0
  0
LINE
  5
2522E
  8
KI1
 10
491.27789582150081
 20
106.8746668585206
 30
0.0
 11
491.27789582150098
 21
105.6746668585206
 31
0.0
  0
ARC
  5
2522F
  8
KI1
 10
491.47789582150102
 20
107.47466685852061
 30
0.0
 40
0.6
 50
270.0
 51
0.0
1001
GENIUS_GENODEF_13
1002
{
1000
HIER
1070
     0
1002
}
1002
{
1000
MANEDIT
1070
     0
1002
}
1002
{
1000
NOSEL
1070
     0
1002
}
1002
{
1000
BEHIND
1070
     0
1002
}
1002
{
1000
OTHER
1070
     0
1002
}
1002
{
1000
REACTOR
1002
}
1001
GENIUS_GENOBJ-N-FIL_13
1002
{
1000
OWNER
1000
GEN
1002
}
  0
LINE
  5
25230
  8
KI1
 10
491.47789582150102
 20
106.8746668585206
 30
0.0
 11
491.27789582150098
 21
106.8746668585206
 31
0.0
  0
ARC
  5
25231
  8
KI1
 10
492.52789582150109
 20
106.3246668585206
 30
0.0
 40
0.45
 50
207.20712231416931
 51
27.207122314169361
  0
LINE
  5
25232
  8
KI1
 10
492.78055204300648
 20
106.8174350049444
 30
0.0
 11
492.92810761700628
 21
106.53041067674729
 31
0.0
  0
ARC
  5
25233
  8
KI1
 10
492.12789582150128
 20
106.7746668585205
 30
0.0
 40
0.3
 50
160.29126887076069
 51
207.20712231416931
  0
LINE
  5
25234
  8
KI1
 10
491.8610879578311
 20
106.637504313036
 30
0.0
 11
492.1276840259959
 21
106.11892304029379
 31
0.0
  0
LINE
  5
25235
  8
KI1
 10
492.97789582150119
 20
107.3683302695037
 30
0.0
 11
492.78055204300648
 21
106.8174350049444
 31
0.0
  0
LINE
  5
25236
  8
KI1
 10
492.07789582150099
 20
107.8746668585205
 30
0.0
 11
492.07789582150099
 21
107.47466685852061
 31
0.0
  0
LINE
  5
25237
  8
KI1
 10
492.07789582150099
 20
107.5246668585205
 30
0.0
 11
491.84547007201269
 21
106.8758384752212
 31
0.0
  0
LINE
  5
25238
  8
KI1
 10
492.97789582150119
 20
107.3683302695037
 30
0.0
 11
492.97789582150119
 21
108.0746668585206
 31
0.0
  0
LINE
  5
25239
  8
KI1
 10
488.97789582150108
 20
109.47466685852049
 30
0.0
 11
490.17789582150078
 21
109.47466685852061
 31
0.0
  0
LINE
  5
2523A
  8
KI1
 10
489.77789582150098
 20
106.8746668585205
 30
0.0
 11
490.0778958215011
 21
106.8746668585206
 31
0.0
  0
LINE
  5
2523B
  8
KI1
 10
498.67789582150112
 20
108.0746668585206
 30
0.0
 11
492.97789582150119
 21
108.0746668585206
 31
0.0
  0
ARC
  5
2523C
  8
KI1
 10
491.07789582150099
 20
105.47466685852049
 30
0.0
 40
1.0
 50
180.0
 51
270.0
  0
ARC
  5
2523D
  8
KI1
 10
499.12789582150111
 20
106.5246668585205
 30
0.0
 40
0.4499999999999981
 50
180.0
 51
0.0
  0
LINE
  5
2523E
  8
KI1
 10
491.27789582150098
 20
105.6746668585206
 30
0.0
 11
503.5778958215011
 21
105.6746668585206
 31
0.0
  0
LINE
  5
2523F
  8
KI1
 10
487.82789582150099
 20
107.1363982683026
 30
0.0
 11
487.82789582150099
 21
105.47466685852049
 31
0.0
  0
LINE
  5
25240
  8
KI1
 10
486.12789582150111
 20
105.6746668585206
 30
0.0
 11
484.62789582150077
 21
105.6746668585206
 31
0.0
  0
ARC
  5
25241
  8
KI1
 10
486.12789582150111
 20
106.1746668585206
 30
0.0
 40
0.5
 50
270.0
 51
0.0
1001
GENIUS_GENOBJ-N-FIL_13
1002
{
1000
OWNER
1000
GEN
1002
}
1001
GENIUS_GENODEF_13
1002
{
1000
HIER
1070
     0
1002
}
1002
{
1000
MANEDIT
1070
     0
1002
}
1002
{
1000
NOSEL
1070
     0
1002
}
1002
{
1000
BEHIND
1070
     0
1002
}
1002
{
1000
OTHER
1070
     0
1002
}
1002
{
1000
REACTOR
1002
}
  0
LINE
  5
25242
  8
KI1
 10
486.62789582150111
 20
108.1178937259249
 30
0.0
 11
486.62789582150111
 21
106.1746668585206
 31
0.0
  0
ARC
  5
25243
  8
KI1
 10
488.32789582150099
 20
107.1363982683026
 30
0.0
 40
0.5
 50
120.0000000000001
 51
180.0
  0
ARC
  5
25244
  8
KI1
 10
484.62789582150077
 20
106.1746668585206
 30
0.0
 40
0.5
 50
180.0
 51
270.0
1001
GENIUS_GENODEF_13
1002
{
1000
HIER
1070
     0
1002
}
1002
{
1000
MANEDIT
1070
     0
1002
}
1002
{
1000
NOSEL
1070
     0
1002
}
1002
{
1000
BEHIND
1070
     0
1002
}
1002
{
1000
OTHER
1070
     0
1002
}
1002
{
1000
REACTOR
1002
}
1001
GENIUS_GENOBJ-N-FIL_13
1002
{
1000
OWNER
1000
GEN
1002
}
  0
LINE
  5
25245
  8
KI1
 10
482.9278958215009
 20
107.1363982683026
 30
0.0
 11
482.9278958215009
 21
106.1746668585206
 31
0.0
  0
LINE
  5
25246
  8
KI1
 10
484.12789582150077
 20
108.1178937259249
 30
0.0
 11
484.12789582150077
 21
106.1746668585206
 31
0.0
  0
LINE
  5
25247
  8
KI1
 10
481.77789582150092
 20
109.47466685852049
 30
0.0
 11
481.3778958215014
 21
109.47466685852049
 31
0.0
  0
ARC
  5
25248
  8
KI1
 10
481.37789582150151
 20
109.1746668585206
 30
0.0
 40
0.3
 50
90.0
 51
180.0
  0
LINE
  5
25249
  8
KI1
 10
481.0778958215015
 20
109.2746668585204
 30
0.0
 11
481.0778958215015
 21
108.5746668585205
 31
0.0
  0
LINE
  5
2524A
  8
KI1
 10
481.0778958215015
 20
108.5746668585205
 30
0.0
 11
481.47789582150159
 21
108.1746668585205
 31
0.0
  0
LINE
  5
2524B
  8
KI1
 10
480.47789582150148
 20
107.7604532961474
 30
0.0
 11
480.16368225912839
 21
108.0746668585206
 31
0.0
  0
ARC
  5
2524D
  8
KI1
 10
481.37789582150128
 20
108.66637648165511
 30
0.0
 40
0.3
 50
180.0
 51
239.99999999999989
1001
GENIUS_GENODEF_13
1002
{
1000
HIER
1070
     0
1002
}
1002
{
1000
MANEDIT
1070
     0
1002
}
1002
{
1000
NOSEL
1070
     0
1002
}
1002
{
1000
BEHIND
1070
     0
1002
}
1002
{
1000
OTHER
1070
     0
1002
}
1002
{
1000
REACTOR
1002
}
1001
GENIUS_GENOBJ-N-FIL_13
1002
{
1000
OWNER
1000
GEN
1002
}
  0
LINE
  5
2524E
  8
KI1
 10
481.22789582150131
 20
108.4065688605198
 30
0.0
 11
482.67789582150101
 21
107.56941097019489
 31
0.0
  0
ARC
  5
2524F
  8
KI1
 10
480.97789582150159
 20
106.1746668585205
 30
0.0
 40
0.5
 50
180.0
 51
0.0
  0
LINE
  5
25250
  8
KI1
 10
481.47789582150159
 20
108.1746668585205
 30
0.0
 11
481.47789582150159
 21
106.1746668585205
 31
0.0
  0
LINE
  5
25251
  8
KI1
 10
504.17789582150112
 20
105.6746668585206
 30
0.0
 11
516.47789582150131
 21
105.6746668585206
 31
0.0
  0
LINE
  5
25252
  8
KI1
 10
491.07789582150099
 20
104.47466685852049
 30
0.0
 11
516.67789582150124
 21
104.47466685852049
 31
0.0
  0
LINE
  5
25253
  8
KI1
 10
517.07789582150099
 20
109.0746668585206
 30
0.0
 11
490.67789582150112
 21
109.0746668585206
 31
0.0
  0
LINE
  5
25254
  8
KI1
 10
508.17789582150112
 20
108.0746668585206
 30
0.0
 11
499.57789582150099
 21
108.0746668585206
 31
0.0
  0
LINE
  5
25255
  8
KI1
 10
540.3778958215006
 20
105.67466685800289
 30
0.0
 11
539.10211485919206
 21
105.67466685800289
 31
0.0
  0
ARC
  5
25256
  8
KI1
 10
540.3778958215006
 20
106.2841713109047
 30
0.0
 40
0.2
 50
0.0
 51
48.691385981385267
1001
GENIUS_GENODEF_13
1002
{
1000
HIER
1070
     0
1002
}
1002
{
1000
MANEDIT
1070
     0
1002
}
1002
{
1000
NOSEL
1070
     0
1002
}
1002
{
1000
BEHIND
1070
     0
1002
}
1002
{
1000
OTHER
1070
     0
1002
}
1002
{
1000
REACTOR
1002
}
1001
GENIUS_GENOBJ-N-FIL_13
1002
{
1000
OWNER
1000
GEN
1002
}
  0
ARC
  5
25257
  8
KI1
 10
540.3778958215006
 20
105.874666858003
 30
0.0
 40
0.2
 50
270.0
 51
0.0
1001
GENIUS_GENODEF_13
1002
{
1000
HIER
1070
     0
1002
}
1002
{
1000
MANEDIT
1070
     0
1002
}
1002
{
1000
NOSEL
1070
     0
1002
}
1002
{
1000
BEHIND
1070
     0
1002
}
1002
{
1000
OTHER
1070
     0
1002
}
1002
{
1000
REACTOR
1002
}
1001
GENIUS_GENOBJ-N-FIL_13
1002
{
1000
OWNER
1000
GEN
1002
}
  0
LINE
  5
25258
  8
KI1
 10
540.57789582150065
 20
106.2841713109047
 30
0.0
 11
540.57789582150065
 21
105.874666858003
 31
0.0
  0
ARC
  5
25259
  8
KI1
 10
540.57789582150133
 20
105.1746668585206
 30
0.0
 40
0.3
 50
0.0
 51
90.0
1001
GENIUS_GENOBJ-N-FIL_13
1002
{
1000
OWNER
1000
GEN
1002
}
1001
GENIUS_GENODEF_13
1002
{
1000
HIER
1070
     0
1002
}
1002
{
1000
MANEDIT
1070
     0
1002
}
1002
{
1000
NOSEL
1070
     0
1002
}
1002
{
1000
BEHIND
1070
     0
1002
}
1002
{
1000
OTHER
1070
     0
1002
}
1002
{
1000
REACTOR
1002
}
  0
LINE
  5
2525A
  8
KI1
 10
537.12852460509998
 20
108.0746668585206
 30
0.0
 11
536.3778958215006
 21
108.0746668585206
 31
0.0
  0
LINE
  5
2525B
  8
KI1
 10
536.97789582125677
 20
107.7746668585205
 30
0.0
 11
536.67789582150124
 21
107.7746668585205
 31
0.0
  0
LINE
  5
2525C
  8
KI1
 10
538.17789582125636
 20
106.4868593460306
 30
0.0
 11
538.17789582125636
 21
107.1524921532488
 31
0.0
  0
LINE
  5
2525D
  8
KI1
 10
536.51698858569739
 20
106.90952143252341
 30
0.0
 11
536.16155897798046
 21
105.87701843991699
 31
0.0
  0
LINE
  5
2525E
  8
KI1
 10
536.37789582150049
 20
107.3746668585207
 30
0.0
 11
536.51251120611585
 21
107.0515899354436
 31
0.0
  0
ARC
  5
2525F
  8
KI1
 10
536.32789582150053
 20
106.97466685852049
 30
0.0
 40
0.2
 50
340.99036605207033
 51
22.619864948040931
  0
LINE
  5
25260
  8
KI1
 10
537.6778958212567
 20
105.47466685852049
 30
0.0
 11
537.6778958212567
 21
107.0746668585204
 31
0.0
  0
LINE
  5
25261
  8
KI1
 10
536.77789582125672
 20
107.0746668585206
 30
0.0
 11
536.77789582125672
 21
105.6746668585206
 31
0.0
  0
ARC
  5
25262
  8
KI1
 10
536.67789582149885
 20
107.4088997804199
 30
0.0
 40
0.3
 50
180.0000000000521
 51
255.96375652388841
1001
GENIUS_GENODEF_13
1002
{
1000
HIER
1070
     0
1002
}
1002
{
1000
MANEDIT
1070
     0
1002
}
1002
{
1000
NOSEL
1070
     0
1002
}
1002
{
1000
BEHIND
1070
     0
1002
}
1002
{
1000
OTHER
1070
     0
1002
}
1002
{
1000
REACTOR
1002
}
1001
GENIUS_GENOBJ-N-FIL_13
1002
{
1000
OWNER
1000
GEN
1002
}
  0
LINE
  5
25264
  8
KI1
 10
536.60513513394631
 20
107.1178570303867
 30
0.0
 11
536.77789582125467
 21
107.0746668585334
 31
0.0
  0
ARC
  5
25265
  8
KI1
 10
535.87789582150049
 20
105.97466685852061
 30
0.0
 40
0.3
 50
180.0
 51
341.0044493372252
  0
LINE
  5
25266
  8
KI1
 10
538.17789582125636
 20
107.1524921532488
 30
0.0
 11
537.12852460509998
 21
108.0746668585206
 31
0.0
  0
LINE
  5
25267
  8
KI1
 10
536.37789582150049
 20
107.3746668585206
 30
0.0
 11
536.37789582150049
 21
108.0746668585206
 31
0.0
  0
LINE
  5
25268
  8
KI1
 10
535.57789582150065
 20
108.0746668585206
 30
0.0
 11
535.57789582150065
 21
105.97466685852049
 31
0.0
  0
ARC
  5
25269
  8
KI1
 10
536.97789582125677
 20
107.0746668585204
 30
0.0
 40
0.7
 50
0.0
 51
90.0
1001
GENIUS_GENODEF_13
1002
{
1000
HIER
1070
     0
1002
}
1002
{
1000
MANEDIT
1070
     0
1002
}
1002
{
1000
NOSEL
1070
     0
1002
}
1002
{
1000
BEHIND
1070
     0
1002
}
1002
{
1000
OTHER
1070
     0
1002
}
1002
{
1000
REACTOR
1002
}
1001
GENIUS_GENOBJ-N-FIL_13
1002
{
1000
OWNER
1000
GEN
1002
}
  0
ARC
  5
2526A
  8
KI1
 10
536.67789582149885
 20
107.4746668585333
 30
0.0
 40
0.3
 50
90.000000000052125
 51
180.0000000000521
1001
GENIUS_GENODEF_13
1002
{
1000
HIER
1070
     0
1002
}
1002
{
1000
MANEDIT
1070
     0
1002
}
1002
{
1000
NOSEL
1070
     0
1002
}
1002
{
1000
BEHIND
1070
     0
1002
}
1002
{
1000
OTHER
1070
     0
1002
}
1002
{
1000
REACTOR
1002
}
1001
GENIUS_GENOBJ-N-FIL_13
1002
{
1000
OWNER
1000
GEN
1002
}
  0
LINE
  5
2526B
  8
KI1
 10
537.6778958212567
 20
105.47466685852049
 30
0.0
 11
540.57789582150133
 21
105.47466685852049
 31
0.0
  0
LINE
  5
2526C
  8
KI1
 10
540.50991874305976
 20
106.4344042905831
 30
0.0
 11
537.27789582150081
 21
109.2746668585204
 31
0.0
  0
LINE
  5
2526D
  8
KI1
 10
539.10211485919206
 20
105.67466685800289
 30
0.0
 11
538.17789582125636
 21
106.4868593460306
 31
0.0
  0
LINE
  5
2526E
  8
KI1
 10
540.87789582150117
 20
105.1746668585206
 30
0.0
 11
540.87789582150117
 21
104.47466685852049
 31
0.0
  0
ARC
  5
2526F
  8
KI1
 10
531.77789582150115
 20
105.6746668585202
 30
0.0
 40
0.2999999999999972
 50
179.99999999999349
 51
0.0000000000065138
  0
LINE
  5
25270
  8
KI1
 10
525.97789582150165
 20
109.47466685852049
 30
0.0
 11
523.62789582150174
 21
108.1178937259249
 31
0.0
  0
ARC
  5
25271
  8
KI1
 10
526.37789582150106
 20
109.1746668585206
 30
0.0
 40
0.3
 50
0.0
 51
90.0
  0
LINE
  5
25272
  8
KI1
 10
526.67789582150078
 20
109.2746668585204
 30
0.0
 11
526.67789582150078
 21
108.5746668585205
 31
0.0
  0
LINE
  5
25273
  8
KI1
 10
526.67789582150078
 20
108.5746668585205
 30
0.0
 11
526.27789582150069
 21
108.1746668585205
 31
0.0
  0
ARC
  5
25275
  8
KI1
 10
526.37789582150117
 20
108.66637648165511
 30
0.0
 40
0.3
 50
300.00000000000011
 51
0.0
1001
GENIUS_GENODEF_13
1002
{
1000
HIER
1070
     0
1002
}
1002
{
1000
MANEDIT
1070
     0
1002
}
1002
{
1000
NOSEL
1070
     0
1002
}
1002
{
1000
BEHIND
1070
     0
1002
}
1002
{
1000
OTHER
1070
     0
1002
}
1002
{
1000
REACTOR
1002
}
1001
GENIUS_GENOBJ-N-FIL_13
1002
{
1000
OWNER
1000
GEN
1002
}
  0
LINE
  5
25276
  8
KI1
 10
526.52789582150115
 20
108.4065688605198
 30
0.0
 11
525.07789582150156
 21
107.56941097019489
 31
0.0
  0
ARC
  5
25277
  8
KI1
 10
526.77789582150081
 20
106.1746668585205
 30
0.0
 40
0.5
 50
180.0
 51
0.0
  0
LINE
  5
25278
  8
KI1
 10
524.82789582150156
 20
107.1363982683026
 30
0.0
 11
524.82789582150156
 21
106.1746668585206
 31
0.0
  0
ARC
  5
25279
  8
KI1
 10
525.32789582150156
 20
106.1746668585206
 30
0.0
 40
0.5
 50
180.0
 51
270.0
  0
LINE
  5
2527A
  8
KI1
 10
526.27789582150069
 20
108.1746668585205
 30
0.0
 11
526.27789582150069
 21
106.1746668585205
 31
0.0
  0
LINE
  5
2527B
  8
KI1
 10
527.27789582150081
 20
106.1746668585205
 30
0.0
 11
527.27789582150081
 21
107.7604532961474
 31
0.0
  0
LINE
  5
2527C
  8
KI1
 10
523.62789582150174
 20
108.1178937259249
 30
0.0
 11
523.62789582150174
 21
106.1746668585206
 31
0.0
  0
ARC
  5
2527D
  8
KI1
 10
525.32789582150156
 20
107.1363982683026
 30
0.0
 40
0.5
 50
120.0000000000001
 51
180.0
  0
LINE
  5
2527E
  8
KI1
 10
525.97789582150165
 20
109.47466685852049
 30
0.0
 11
526.37789582150106
 21
109.47466685852049
 31
0.0
  0
ARC
  5
2527F
  8
KI1
 10
523.12789582150174
 20
106.1746668585206
 30
0.0
 40
0.5
 50
270.0
 51
0.0
1001
GENIUS_GENODEF_13
1002
{
1000
HIER
1070
     0
1002
}
1002
{
1000
MANEDIT
1070
     0
1002
}
1002
{
1000
NOSEL
1070
     0
1002
}
1002
{
1000
BEHIND
1070
     0
1002
}
1002
{
1000
OTHER
1070
     0
1002
}
1002
{
1000
REACTOR
1002
}
1001
GENIUS_GENOBJ-N-FIL_13
1002
{
1000
OWNER
1000
GEN
1002
}
  0
LINE
  5
25280
  8
KI1
 10
531.47789582150131
 20
105.6746668585202
 30
0.0
 11
525.32789582150156
 21
105.6746668585206
 31
0.0
  0
LINE
  5
25281
  8
KI1
 10
527.27789582150081
 20
107.7604532961474
 30
0.0
 11
527.59210938387389
 21
108.0746668585206
 31
0.0
  0
LINE
  5
25282
  8
KI1
 10
535.57789582150065
 20
108.0746668585206
 30
0.0
 11
527.59210938387389
 21
108.0746668585206
 31
0.0
  0
LINE
  5
25283
  8
KI1
 10
536.77789582125672
 20
105.6746668585206
 30
0.0
 11
532.07789582150122
 21
105.6746668585202
 31
0.0
  0
LINE
  5
25284
  8
KI1
 10
526.67789582150078
 20
109.2746668585204
 30
0.0
 11
537.27789582150081
 21
109.2746668585204
 31
0.0
  0
LINE
  5
2549C
  8
OS
 10
916.06718785338398
 20
194.42661430465961
 30
0.0
 11
1046.067187853384
 21
194.42661430465949
 31
0.0
  0
LINE
  5
2549D
  8
OS
 10
916.06718785338398
 20
196.42661430465961
 30
0.0
 11
1046.067187853384
 21
196.42661430465949
 31
0.0
  0
LINE
  5
2549E
  8
OS
 10
916.06718785338398
 20
206.92661430465969
 30
0.0
 11
1046.067187853384
 21
206.92661430465961
 31
0.0
  0
LINE
  5
2549F
  8
OS
 10
910.06718785338387
 20
212.92661430465969
 30
0.0
 11
1052.067187853384
 21
212.92661430465949
 31
0.0
  0
LINE
  5
254A0
  8
OS
 10
916.06718785338398
 20
204.92661430465969
 30
0.0
 11
1046.067187853384
 21
204.92661430465961
 31
0.0
  0
LINE
  5
254A1
  8
OS
 10
928.56718785338398
 20
194.42661430465961
 30
0.0
 11
974.56725749708175
 21
148.42661185613079
 31
0.0
  0
LINE
  5
254A2
  8
OS
 10
1044.067187853384
 20
148.42661185613079
 30
0.0
 11
1044.067187853384
 21
194.42661430465949
 31
0.0
  0
LINE
  5
254A3
  8
OS
 10
1046.067187853384
 20
148.42661185613079
 30
0.0
 11
1046.067187853384
 21
206.92661430465961
 31
0.0
  0
LINE
  5
254A4
  8
OS
 10
1052.067187853384
 20
148.42661185613079
 30
0.0
 11
1052.067187853384
 21
212.92661430465949
 31
0.0
  0
LINE
  5
254A5
  8
OS
 10
987.56701439338292
 20
148.42661185613079
 30
0.0
 11
1033.567187853384
 21
194.42661430465961
 31
0.0
  0
LINE
  5
254A6
  8
OS
 10
1035.567187853384
 20
148.42661185613079
 30
0.0
 11
1035.567187853384
 21
194.42661430465949
 31
0.0
  0
LINE
  5
254A7
  8
OS
 10
1033.567187853384
 20
148.42661185613079
 30
0.0
 11
1033.567187853384
 21
194.42661430465949
 31
0.0
  0
LINE
  5
254A8
  8
OS
 10
918.06718785338387
 20
148.42661185613079
 30
0.0
 11
918.06718785338387
 21
194.42661430465949
 31
0.0
  0
LINE
  5
254A9
  8
OS
 10
916.06718785338398
 20
148.42661185613079
 30
0.0
 11
916.06718785338398
 21
206.92661430465969
 31
0.0
  0
LINE
  5
254AA
  8
OS
 10
910.06718785338387
 20
148.42661185613079
 30
0.0
 11
910.06718785338387
 21
212.92661430465969
 31
0.0
  0
LINE
  5
254AB
  8
OS
 10
926.56718785338398
 20
148.42661185613079
 30
0.0
 11
926.56718785338398
 21
194.42661430465949
 31
0.0
  0
LINE
  5
254AC
  8
OS
 10
928.56718785338398
 20
148.42661185613079
 30
0.0
 11
928.56718785338398
 21
194.42661430465949
 31
0.0
  0
LINE
  5
254AD
  8
KI1
 10
982.56718785338126
 20
383.92661430465893
 30
0.0
 11
982.56718785338126
 21
587.42661430465932
 31
0.0
  0
LINE
  5
254AE
  8
KI1
 10
982.56718785338126
 20
587.42661430465932
 30
0.0
 11
1015.567186901656
 21
587.42661430465932
 31
0.0
  0
LINE
  5
254AF
  8
KI1
 10
982.56718785338126
 20
383.92661430465893
 30
0.0
 11
1015.567186901656
 21
383.92661430465893
 31
0.0
  0
LINE
  5
254B0
  8
KI1
 10
1015.567186901656
 20
587.42661430465932
 30
0.0
 11
1015.567186901656
 21
383.92661430465893
 31
0.0
  0
LINE
  5
254B2
  8
KI1
 10
979.5671878533866
 20
418.92661430465881
 30
0.0
 11
979.5671878533866
 21
215.92661430465819
 31
0.0
  0
LINE
  5
254B3
  8
KI1
 10
979.5671878533866
 20
215.92661430465819
 30
0.0
 11
946.56718880511187
 21
215.92661430465819
 31
0.0
  0
LINE
  5
254B4
  8
KI1
 10
979.5671878533866
 20
418.92661430465881
 30
0.0
 11
946.56718880511187
 21
418.92661430465881
 31
0.0
  0
LINE
  5
254B5
  8
KI1
 10
946.56718880511187
 20
215.92661430465819
 30
0.0
 11
946.56718880511187
 21
418.92661430465881
 31
0.0
  0
LINE
  5
254BA
  8
KI2
 10
963.81718813510452
 20
586.92661430465955
 30
0.0
 11
963.81718813510452
 21
418.92661430465881
 31
0.0
  0
LINE
  5
254BB
  8
KI2
 10
944.06718813510452
 20
589.92661430465955
 30
0.0
 11
944.06718813510452
 21
212.92661430465949
 31
0.0
  0
LINE
  5
254BC
  8
KI2
 10
961.3171881351044
 20
586.92661430465955
 30
0.0
 11
961.3171881351044
 21
418.92661430465881
 31
0.0
  0
LINE
  5
254BD
  8
KI2
 10
1000.817188135105
 20
383.92661430465893
 30
0.0
 11
1000.817188135105
 21
212.92661430465969
 31
0.0
  0
LINE
  5
254BE
  8
KI2
 10
998.31718813510452
 20
383.92661430465893
 30
0.0
 11
998.31718813510452
 21
212.92661430465969
 31
0.0
  0
LINE
  5
254BF
  8
KI2
 10
1018.0671881351039
 20
700.92661347754654
 30
0.0
 11
1018.0671881351039
 21
212.92661430465969
 31
0.0
  0
LINE
  5
254C0
  8
PH
 10
1015.567186901656
 20
418.92661430465859
 30
0.0
 11
1015.567187853386
 21
215.92661430465839
 31
0.0
  0
LINE
  5
254C1
  8
PH
 10
1015.567186901656
 20
418.92661430465859
 30
0.0
 11
982.56718785338126
 21
418.92661430465859
 31
0.0
  0
LINE
  5
254C2
  8
PH
 10
982.56718880511198
 20
215.92661430465839
 30
0.0
 11
982.56718785338126
 21
418.92661430465859
 31
0.0
  0
LINE
  5
254C3
  8
KI2
 10
990.86718568792867
 20
587.42662226689924
 30
0.0
 11
991.56718568792883
 21
587.42662226689924
 31
0.0
  0
LINE
  5
254C4
  8
KI2
 10
990.86718568792867
 20
593.42661830206362
 30
0.0
 11
990.86718568792867
 21
587.42662226689924
 31
0.0
  0
LINE
  5
254C5
  8
KI2
 10
991.56718568792883
 20
593.42661830206362
 30
0.0
 11
991.56718568792883
 21
587.42662226689924
 31
0.0
  0
LINE
  5
254C6
  8
KI2
 10
1006.5671856879291
 20
587.42661694822596
 30
0.0
 11
1007.267185687929
 21
587.42661677899525
 31
0.0
  0
LINE
  5
254C7
  8
KI2
 10
1007.267185687929
 20
587.42661677899525
 30
0.0
 11
1007.267187138478
 21
593.42661757678889
 31
0.0
  0
LINE
  5
254C8
  8
KI2
 10
1006.5671856879291
 20
587.42661694822596
 30
0.0
 11
1006.5671871384779
 21
593.42661774601959
 31
0.0
  0
LINE
  5
254C9
  8
KI2
 10
1004.267187138478
 20
596.42661830206362
 30
0.0
 11
993.86718568792878
 21
596.42661830206362
 31
0.0
  0
LINE
  5
254CA
  8
KI2
 10
1004.267187138478
 20
595.72661830206346
 30
0.0
 11
993.86718568792878
 21
595.72661830206346
 31
0.0
  0
ARC
  5
254CB
  8
KI2
 10
993.86718568792878
 20
593.42661830206362
 30
0.0
 40
3.0
 50
90.0
 51
180.0
1001
GENIUS_GENODEF_13
1002
{
1000
HIER
1070
     0
1002
}
1002
{
1000
MANEDIT
1070
     0
1002
}
1002
{
1000
NOSEL
1070
     0
1002
}
1002
{
1000
BEHIND
1070
     0
1002
}
1002
{
1000
OTHER
1070
     0
1002
}
1002
{
1000
REACTOR
1002
}
1001
GENIUS_GENOBJ-N-FIL_13
1002
{
1000
OWNER
1000
GEN
1002
}
  0
ARC
  5
254CC
  8
KI2
 10
993.86718568792878
 20
593.42661830206362
 30
0.0
 40
2.2999999999999989
 50
90.0
 51
180.0
1001
GENIUS_GENODEF_13
1002
{
1000
HIER
1070
     0
1002
}
1002
{
1000
MANEDIT
1070
     0
1002
}
1002
{
1000
NOSEL
1070
     0
1002
}
1002
{
1000
BEHIND
1070
     0
1002
}
1002
{
1000
OTHER
1070
     0
1002
}
1002
{
1000
REACTOR
1002
}
1001
GENIUS_GENOBJ-N-FIL_13
1002
{
1000
OWNER
1000
GEN
1002
}
  0
ARC
  5
254CD
  8
KI2
 10
1004.267187138478
 20
593.42661830206362
 30
0.0
 40
3.0
 50
359.99998614827291
 51
90.0
1001
GENIUS_GENODEF_13
1002
{
1000
HIER
1070
     0
1002
}
1002
{
1000
MANEDIT
1070
     0
1002
}
1002
{
1000
NOSEL
1070
     0
1002
}
1002
{
1000
BEHIND
1070
     0
1002
}
1002
{
1000
OTHER
1070
     0
1002
}
1002
{
1000
REACTOR
1002
}
1001
GENIUS_GENOBJ-N-FIL_13
1002
{
1000
OWNER
1000
GEN
1002
}
  0
ARC
  5
254CE
  8
KI2
 10
1004.267187138478
 20
593.42661830206362
 30
0.0
 40
2.2999999999999989
 50
359.99998614827291
 51
90.0
1001
GENIUS_GENODEF_13
1002
{
1000
HIER
1070
     0
1002
}
1002
{
1000
MANEDIT
1070
     0
1002
}
1002
{
1000
NOSEL
1070
     0
1002
}
1002
{
1000
BEHIND
1070
     0
1002
}
1002
{
1000
OTHER
1070
     0
1002
}
1002
{
1000
REACTOR
1002
}
1001
GENIUS_GENOBJ-N-FIL_13
1002
{
1000
OWNER
1000
GEN
1002
}
  0
LINE
  5
254CF
  8
PH
 10
1015.567187853386
 20
215.92661430465819
 30
0.0
 11
982.56718880511198
 21
215.92661430465819
 31
0.0
  0
LINE
  5
254D4
  8
KI1
 10
841.06718690165235
 20
625.92661335293406
 30
0.0
 11
1015.567186901653
 21
625.92661335293406
 31
0.0
  0
LINE
  5
254D5
  8
KI1
 10
1015.567186901653
 20
625.92661335293406
 30
0.0
 11
1015.567186901653
 21
592.92661430465932
 31
0.0
  0
LINE
  5
254D6
  8
KI1
 10
841.06718690165235
 20
625.92661335293406
 30
0.0
 11
841.06718690165235
 21
592.92661430465932
 31
0.0
  0
LINE
  5
254D7
  8
KI1
 10
1015.567186901653
 20
592.92661430465932
 30
0.0
 11
841.06718690165235
 21
592.92661430465932
 31
0.0
  0
LINE
  5
254D8
  8
KI1
 10
876.06718690165235
 20
628.92661335292837
 30
0.0
 11
703.06718690165235
 21
628.92661335292837
 31
0.0
  0
LINE
  5
254D9
  8
KI1
 10
876.06718690165235
 20
628.92661335292837
 30
0.0
 11
876.06718690165235
 21
661.9266124012031
 31
0.0
  0
LINE
  5
254DA
  8
KI1
 10
703.06718690165235
 20
628.92661335292837
 30
0.0
 11
703.06718690165258
 21
661.9266124012031
 31
0.0
  0
LINE
  5
254DB
  8
KI1
 10
703.06718690165258
 20
661.9266124012031
 30
0.0
 11
876.06718690165235
 21
661.9266124012031
 31
0.0
  0
LINE
  5
254DC
  8
KI1
 10
738.06718690165178
 20
664.92661335292826
 30
0.0
 11
563.56718690165178
 21
664.92661335292826
 31
0.0
  0
LINE
  5
254DD
  8
KI1
 10
738.06718690165178
 20
664.92661335292826
 30
0.0
 11
738.06718690165178
 21
697.92661240120299
 31
0.0
  0
LINE
  5
254DE
  8
KI1
 10
563.56718690165178
 20
697.92661240120299
 30
0.0
 11
738.06718690165178
 21
697.92661240120299
 31
0.0
  0
LINE
  5
254DF
  8
PH
 10
738.06718690165178
 20
628.92661335292837
 30
0.0
 11
563.56718690165178
 21
628.92661335292837
 31
0.0
  0
LINE
  5
254E0
  8
PH
 10
563.56718690165178
 20
628.92661335292837
 30
0.0
 11
563.56718690165178
 21
661.9266124012031
 31
0.0
  0
LINE
  5
254E1
  8
PH
 10
738.06718690165178
 20
628.92661335292837
 30
0.0
 11
738.06718690165178
 21
661.9266124012031
 31
0.0
  0
LINE
  5
254E2
  8
PH
 10
563.56718690165178
 20
661.9266124012031
 30
0.0
 11
738.06718690165178
 21
661.9266124012031
 31
0.0
  0
LINE
  5
254E3
  8
PH
 10
738.06718690165178
 20
592.92661335292826
 30
0.0
 11
563.56718690165178
 21
592.92661335292826
 31
0.0
  0
LINE
  5
254E4
  8
PH
 10
563.56718690165178
 20
592.92661335292826
 30
0.0
 11
563.56718690165178
 21
625.9266124012031
 31
0.0
  0
LINE
  5
254E5
  8
PH
 10
738.06718690165178
 20
592.92661335292826
 30
0.0
 11
738.06718690165178
 21
625.9266124012031
 31
0.0
  0
LINE
  5
254E6
  8
PH
 10
563.56718690165178
 20
625.9266124012031
 30
0.0
 11
738.06718690165178
 21
625.9266124012031
 31
0.0
  0
LINE
  5
254EC
  8
KI2
 10
1015.0671881351039
 20
681.17661347754665
 30
0.0
 11
738.06718690165178
 21
681.17661347754665
 31
0.0
  0
LINE
  5
254ED
  8
KI2
 10
1018.0671881351039
 20
700.92661347754654
 30
0.0
 11
560.56718690165189
 21
700.92661347754654
 31
0.0
  0
LINE
  5
254EE
  8
KI2
 10
1015.0671881351039
 20
683.67661347754688
 30
0.0
 11
738.06718690165178
 21
683.67661347754688
 31
0.0
  0
LINE
  5
254EF
  8
KI2
 10
1015.0671881351039
 20
644.1766134775462
 30
0.0
 11
876.06718690165235
 21
644.1766134775462
 31
0.0
  0
LINE
  5
254F0
  8
KI2
 10
703.06718690165235
 20
644.17661347754643
 30
0.0
 11
560.56718690165189
 21
644.17661347754643
 31
0.0
  0
LINE
  5
254F1
  8
KI2
 10
1015.0671881351039
 20
646.67661347754654
 30
0.0
 11
876.06718690165235
 21
646.67661347754654
 31
0.0
  0
LINE
  5
254F2
  8
KI2
 10
703.06718690165235
 20
646.67661347754654
 30
0.0
 11
560.56718690165189
 21
646.67661347754654
 31
0.0
  0
LINE
  5
254F3
  8
KI2
 10
841.06718690165235
 20
607.17661347754586
 30
0.0
 11
560.56718690165189
 21
607.17661347754608
 31
0.0
  0
LINE
  5
254F4
  8
KI2
 10
841.06718690165235
 20
609.67661347754643
 30
0.0
 11
560.56718690165189
 21
609.67661347754643
 31
0.0
  0
LINE
  5
254F5
  8
KI2
 10
1018.0671881351039
 20
589.92661347754654
 30
0.0
 11
560.56718690165189
 21
589.92661347754654
 31
0.0
  0
LINE
  5
254F6
  8
KI1
 10
563.56718690165178
 20
664.92661335292826
 30
0.0
 11
563.56718690165178
 21
697.92661240120299
 31
0.0
  0
LINE
  5
254F7
  8
OS
 10
542.06718690165178
 20
722.4266133529311
 30
0.0
 11
542.06718690165178
 21
568.4266133529311
 31
0.0
  0
LINE
  5
254F8
  8
OS
 10
544.06718690165189
 20
722.4266133529311
 30
0.0
 11
544.06718690165189
 21
568.4266133529311
 31
0.0
  0
LINE
  5
254F9
  8
OS
 10
554.56718690165178
 20
722.4266133529311
 30
0.0
 11
554.56718690165178
 21
568.4266133529311
 31
0.0
  0
LINE
  5
254FA
  8
OS
 10
560.56718690165189
 20
728.42661335293099
 30
0.0
 11
560.56718690165189
 21
562.42661335293099
 31
0.0
  0
LINE
  5
254FB
  8
OS
 10
552.56718690165189
 20
722.4266133529311
 30
0.0
 11
552.56718690165189
 21
568.4266133529311
 31
0.0
  0
LINE
  5
254FC
  8
OS
 10
542.06718690165178
 20
697.9266133529311
 30
0.0
 11
496.06718445312299
 21
651.92654370923356
 31
0.0
  0
LINE
  5
254FD
  8
OS
 10
496.06718445312299
 20
570.42661335293099
 30
0.0
 11
542.06718690165178
 21
570.42661335293099
 31
0.0
  0
LINE
  5
254FE
  8
OS
 10
496.06718445312299
 20
568.4266133529311
 30
0.0
 11
554.56718690165178
 21
568.4266133529311
 31
0.0
  0
LINE
  5
254FF
  8
OS
 10
496.06718445312299
 20
562.42661335293099
 30
0.0
 11
560.56718690165189
 21
562.42661335293099
 31
0.0
  0
LINE
  5
25500
  8
OS
 10
496.06718445312299
 20
638.92678681293205
 30
0.0
 11
542.06718690165178
 21
592.9266133529311
 31
0.0
  0
LINE
  5
25501
  8
OS
 10
496.06718445312299
 20
578.92661335293099
 30
0.0
 11
542.06718690165178
 21
578.92661335293099
 31
0.0
  0
LINE
  5
25502
  8
OS
 10
496.06718445312299
 20
580.9266133529311
 30
0.0
 11
542.06718690165178
 21
580.9266133529311
 31
0.0
  0
LINE
  5
25503
  8
OS
 10
496.06718445312299
 20
592.9266133529311
 30
0.0
 11
542.06718690165178
 21
592.9266133529311
 31
0.0
  0
LINE
  5
25504
  8
OS
 10
496.06718445312299
 20
720.42661335293099
 30
0.0
 11
542.06718690165178
 21
720.42661335293099
 31
0.0
  0
LINE
  5
25505
  8
OS
 10
496.06718445312299
 20
722.4266133529311
 30
0.0
 11
554.56718690165178
 21
722.4266133529311
 31
0.0
  0
LINE
  5
25506
  8
OS
 10
496.06718445312299
 20
728.42661335293099
 30
0.0
 11
560.56718690165189
 21
728.42661335293099
 31
0.0
  0
LINE
  5
25507
  8
OS
 10
496.06718445312299
 20
711.92661335293099
 30
0.0
 11
542.06718690165178
 21
711.92661335293099
 31
0.0
  0
LINE
  5
25508
  8
OS
 10
496.06718445312299
 20
697.9266133529311
 30
0.0
 11
542.06718690165178
 21
697.9266133529311
 31
0.0
  0
LINE
  5
25509
  8
OS
 10
496.06718445312299
 20
709.9266133529311
 30
0.0
 11
542.06718690165178
 21
709.9266133529311
 31
0.0
  0
TEXT
  5
2550A
  8
SU
 10
489.68934306993782
 20
746.30345007026335
 30
0.0
 40
7.9999999999999982
  1
巾木
 41
0.9
  0
LINE
  5
2550B
  8
SU
 10
516.40867824236432
 20
729.15028040555103
 30
0.0
 11
517.8351555417612
 21
724.81696037186953
 31
0.0
  0
LINE
  5
2550C
  8
SU
 10
515.0803840314079
 20
728.45340560392594
 30
0.0
 11
517.8351555417612
 21
724.81696037186953
 31
0.0
  0
LINE
  5
2550D
  8
SU
 10
517.8351555417612
 20
724.81696037186953
 30
0.0
 11
515.74453113688605
 21
728.80184300473854
 31
0.0
  0
LINE
  5
2550E
  8
SU
 10
515.74453113688605
 20
728.80184300473854
 30
0.0
 11
507.82673889706911
 21
743.89373263997709
 31
0.0
1001
ACAD
1000
DSTYLE
1002
{
1070
   371
1070
    13
1070
   176
1070
   256
1070
    41
1040
1.5
1070
   147
1040
1.0
1070
    77
1070
     0
1002
}
  0
LINE
  5
2550F
  8
SU
 10
507.82673889706911
 20
743.89373263997709
 30
0.0
 11
486.46507621076921
 21
743.89373263997709
 31
0.0
1001
ACAD
1000
DSTYLE
1002
{
1070
   371
1070
    13
1070
   176
1070
   256
1070
    41
1040
1.5
1070
   147
1040
1.0
1070
    77
1070
     0
1002
}
  0
TEXT
  5
25517
  8
SU
 10
1052.029573446682
 20
232.30867191178029
 30
0.0
 40
7.9999999999999982
  1
巾木
 41
0.9
  0
LINE
  5
25518
  8
SU
 10
1042.478532485213
 20
214.458627445443
 30
0.0
 11
1039.723760974859
 21
210.82218221338661
 31
0.0
  0
LINE
  5
25519
  8
SU
 10
1041.150238274256
 20
215.155502247068
 30
0.0
 11
1039.723760974859
 21
210.82218221338661
 31
0.0
  0
LINE
  5
2551A
  8
SU
 10
1039.723760974859
 20
210.82218221338661
 30
0.0
 11
1041.8143853797339
 21
214.8070648462554
 31
0.0
  0
LINE
  5
2551B
  8
SU
 10
1041.8143853797339
 20
214.8070648462554
 30
0.0
 11
1049.732177619552
 21
229.898954481494
 31
0.0
1001
ACAD
1000
DSTYLE
1002
{
1070
   371
1070
    13
1070
   176
1070
   256
1070
    41
1040
1.5
1070
   147
1040
1.0
1070
    77
1070
     0
1002
}
  0
LINE
  5
2551C
  8
SU
 10
1049.732177619552
 20
229.898954481494
 30
0.0
 11
1071.093840305851
 21
229.898954481494
 31
0.0
1001
ACAD
1000
DSTYLE
1002
{
1070
   371
1070
    13
1070
   176
1070
   256
1070
    41
1040
1.5
1070
   147
1040
1.0
1070
    77
1070
     0
1002
}
  0
LINE
  5
2551D
  8
KI2
 10
1015.0671881351039
 20
700.92661347754654
 30
0.0
 11
1015.0671881351039
 21
625.92661335293406
 31
0.0
  0
LINE
  5
2551E
  8
KI2
 10
1018.0671881351039
 20
586.92661347754654
 30
0.0
 11
1015.567186901656
 21
586.92661347754654
 31
0.0
  0
LINE
  5
25523
  8
KI2
 10
1015.0671881351039
 20
592.92661430465932
 30
0.0
 11
1015.0671881351039
 21
589.92661347754654
 31
0.0
  0
LINE
  5
25525
  8
KI2
 10
982.56718785338126
 20
586.92661347754654
 30
0.0
 11
944.06718813510452
 21
586.92661347754654
 31
0.0
  0
LINE
  5
25526
  8
KI2
 10
841.06717893941266
 20
617.62661551838653
 30
0.0
 11
841.06717893941266
 21
616.92661551838648
 31
0.0
  0
LINE
  5
25527
  8
KI2
 10
835.0671829042484
 20
617.62661551838653
 30
0.0
 11
841.06717893941266
 21
617.62661551838653
 31
0.0
  0
LINE
  5
25528
  8
KI2
 10
835.0671829042484
 20
616.92661551838648
 30
0.0
 11
841.06717893941266
 21
616.92661551838648
 31
0.0
  0
LINE
  5
25529
  8
KI2
 10
841.06718425808617
 20
601.92661551838626
 30
0.0
 11
841.06718442731665
 21
601.22661551838644
 31
0.0
  0
LINE
  5
2552A
  8
KI2
 10
841.06718442731665
 20
601.22661551838644
 30
0.0
 11
835.06718362952324
 21
601.22661406783675
 31
0.0
  0
LINE
  5
2552B
  8
KI2
 10
841.06718425808617
 20
601.92661551838626
 30
0.0
 11
835.06718346029231
 21
601.92661406783679
 31
0.0
  0
LINE
  5
2552C
  8
KI2
 10
832.06718290424851
 20
604.22661406783675
 30
0.0
 11
832.06718290424851
 21
614.62661551838653
 31
0.0
  0
LINE
  5
2552D
  8
KI2
 10
832.76718290424844
 20
604.22661406783675
 30
0.0
 11
832.76718290424844
 21
614.62661551838653
 31
0.0
  0
ARC
  5
2552E
  8
KI2
 10
835.0671829042484
 20
614.62661551838653
 30
0.0
 40
3.0
 50
90.0
 51
180.0
1001
GENIUS_GENODEF_13
1002
{
1000
HIER
1070
     0
1002
}
1002
{
1000
MANEDIT
1070
     0
1002
}
1002
{
1000
NOSEL
1070
     0
1002
}
1002
{
1000
BEHIND
1070
     0
1002
}
1002
{
1000
OTHER
1070
     0
1002
}
1002
{
1000
REACTOR
1002
}
1001
GENIUS_GENOBJ-N-FIL_13
1002
{
1000
OWNER
1000
GEN
1002
}
  0
ARC
  5
2552F
  8
KI2
 10
835.0671829042484
 20
614.62661551838653
 30
0.0
 40
2.2999999999999989
 50
90.0
 51
180.0
1001
GENIUS_GENODEF_13
1002
{
1000
HIER
1070
     0
1002
}
1002
{
1000
MANEDIT
1070
     0
1002
}
1002
{
1000
NOSEL
1070
     0
1002
}
1002
{
1000
BEHIND
1070
     0
1002
}
1002
{
1000
OTHER
1070
     0
1002
}
1002
{
1000
REACTOR
1002
}
1001
GENIUS_GENOBJ-N-FIL_13
1002
{
1000
OWNER
1000
GEN
1002
}
  0
ARC
  5
25530
  8
KI2
 10
835.0671829042484
 20
604.22661406783675
 30
0.0
 40
3.0
 50
180.0
 51
270.00001385172698
1001
GENIUS_GENODEF_13
1002
{
1000
HIER
1070
     0
1002
}
1002
{
1000
MANEDIT
1070
     0
1002
}
1002
{
1000
NOSEL
1070
     0
1002
}
1002
{
1000
BEHIND
1070
     0
1002
}
1002
{
1000
OTHER
1070
     0
1002
}
1002
{
1000
REACTOR
1002
}
1001
GENIUS_GENOBJ-N-FIL_13
1002
{
1000
OWNER
1000
GEN
1002
}
  0
ARC
  5
25531
  8
KI2
 10
835.0671829042484
 20
604.22661406783675
 30
0.0
 40
2.2999999999999989
 50
180.0
 51
270.00001385172698
1001
GENIUS_GENODEF_13
1002
{
1000
HIER
1070
     0
1002
}
1002
{
1000
MANEDIT
1070
     0
1002
}
1002
{
1000
NOSEL
1070
     0
1002
}
1002
{
1000
BEHIND
1070
     0
1002
}
1002
{
1000
OTHER
1070
     0
1002
}
1002
{
1000
REACTOR
1002
}
1001
GENIUS_GENOBJ-N-FIL_13
1002
{
1000
OWNER
1000
GEN
1002
}
  0
LINE
  5
25532
  8
KI2
 10
703.06717893941254
 20
653.62661456665546
 30
0.0
 11
703.06717893941254
 21
652.92661456665553
 31
0.0
  0
LINE
  5
25533
  8
KI2
 10
697.06718290424817
 20
653.62661456665546
 30
0.0
 11
703.06717893941254
 21
653.62661456665546
 31
0.0
  0
LINE
  5
25534
  8
KI2
 10
697.06718290424817
 20
652.92661456665553
 30
0.0
 11
703.06717893941254
 21
652.92661456665553
 31
0.0
  0
LINE
  5
25535
  8
KI2
 10
703.06718425808594
 20
637.92661456665519
 30
0.0
 11
703.06718442731653
 21
637.22661456665548
 31
0.0
  0
LINE
  5
25536
  8
KI2
 10
703.06718442731653
 20
637.22661456665548
 30
0.0
 11
697.06718362952302
 21
637.22661311610568
 31
0.0
  0
LINE
  5
25537
  8
KI2
 10
703.06718425808594
 20
637.92661456665519
 30
0.0
 11
697.0671834602922
 21
637.92661311610584
 31
0.0
  0
LINE
  5
25538
  8
KI2
 10
694.06718290424817
 20
640.2266131161058
 30
0.0
 11
694.06718290424817
 21
650.62661456665558
 31
0.0
  0
LINE
  5
25539
  8
KI2
 10
694.76718290424833
 20
640.2266131161058
 30
0.0
 11
694.76718290424833
 21
650.62661456665558
 31
0.0
  0
ARC
  5
2553A
  8
KI2
 10
697.06718290424817
 20
650.62661456665558
 30
0.0
 40
3.0
 50
90.0
 51
180.0
1001
GENIUS_GENODEF_13
1002
{
1000
HIER
1070
     0
1002
}
1002
{
1000
MANEDIT
1070
     0
1002
}
1002
{
1000
NOSEL
1070
     0
1002
}
1002
{
1000
BEHIND
1070
     0
1002
}
1002
{
1000
OTHER
1070
     0
1002
}
1002
{
1000
REACTOR
1002
}
1001
GENIUS_GENOBJ-N-FIL_13
1002
{
1000
OWNER
1000
GEN
1002
}
  0
ARC
  5
2553B
  8
KI2
 10
697.06718290424817
 20
650.62661456665558
 30
0.0
 40
2.2999999999999989
 50
90.0
 51
180.0
1001
GENIUS_GENODEF_13
1002
{
1000
HIER
1070
     0
1002
}
1002
{
1000
MANEDIT
1070
     0
1002
}
1002
{
1000
NOSEL
1070
     0
1002
}
1002
{
1000
BEHIND
1070
     0
1002
}
1002
{
1000
OTHER
1070
     0
1002
}
1002
{
1000
REACTOR
1002
}
1001
GENIUS_GENOBJ-N-FIL_13
1002
{
1000
OWNER
1000
GEN
1002
}
  0
ARC
  5
2553C
  8
KI2
 10
697.06718290424817
 20
640.2266131161058
 30
0.0
 40
3.0
 50
180.0
 51
270.00001385172698
1001
GENIUS_GENODEF_13
1002
{
1000
HIER
1070
     0
1002
}
1002
{
1000
MANEDIT
1070
     0
1002
}
1002
{
1000
NOSEL
1070
     0
1002
}
1002
{
1000
BEHIND
1070
     0
1002
}
1002
{
1000
OTHER
1070
     0
1002
}
1002
{
1000
REACTOR
1002
}
1001
GENIUS_GENOBJ-N-FIL_13
1002
{
1000
OWNER
1000
GEN
1002
}
  0
ARC
  5
2553D
  8
KI2
 10
697.06718290424817
 20
640.2266131161058
 30
0.0
 40
2.2999999999999989
 50
180.0
 51
270.00001385172698
1001
GENIUS_GENODEF_13
1002
{
1000
HIER
1070
     0
1002
}
1002
{
1000
MANEDIT
1070
     0
1002
}
1002
{
1000
NOSEL
1070
     0
1002
}
1002
{
1000
BEHIND
1070
     0
1002
}
1002
{
1000
OTHER
1070
     0
1002
}
1002
{
1000
REACTOR
1002
}
1001
GENIUS_GENOBJ-N-FIL_13
1002
{
1000
OWNER
1000
GEN
1002
}
  0
LINE
  5
2553E
  8
KI2
 10
990.86718568792867
 20
383.92660634241878
 30
0.0
 11
991.56718568792883
 21
383.92660634241878
 31
0.0
  0
LINE
  5
2553F
  8
KI2
 10
990.86718568792867
 20
377.92661030725452
 30
0.0
 11
990.86718568792867
 21
383.92660634241878
 31
0.0
  0
LINE
  5
25540
  8
KI2
 10
991.56718568792883
 20
377.92661030725452
 30
0.0
 11
991.56718568792883
 21
383.92660634241878
 31
0.0
  0
LINE
  5
25541
  8
KI2
 10
1006.5671856879291
 20
383.92661166109218
 30
0.0
 11
1007.267185687929
 21
383.92661183032283
 31
0.0
  0
LINE
  5
25542
  8
KI2
 10
1007.267185687929
 20
383.92661183032283
 30
0.0
 11
1007.267187138478
 21
377.92661103252931
 31
0.0
  0
LINE
  5
25543
  8
KI2
 10
1006.5671856879291
 20
383.92661166109218
 30
0.0
 11
1006.5671871384779
 21
377.92661086329849
 31
0.0
  0
LINE
  5
25544
  8
KI2
 10
1004.267187138478
 20
374.92661030725452
 30
0.0
 11
993.86718568792878
 21
374.92661030725452
 31
0.0
  0
LINE
  5
25545
  8
KI2
 10
1004.267187138478
 20
375.62661030725462
 30
0.0
 11
993.86718568792878
 21
375.62661030725462
 31
0.0
  0
ARC
  5
25546
  8
KI2
 10
993.86718568792878
 20
377.92661030725452
 30
0.0
 40
3.0
 50
180.0
 51
270.0
1001
GENIUS_GENODEF_13
1002
{
1000
HIER
1070
     0
1002
}
1002
{
1000
MANEDIT
1070
     0
1002
}
1002
{
1000
NOSEL
1070
     0
1002
}
1002
{
1000
BEHIND
1070
     0
1002
}
1002
{
1000
OTHER
1070
     0
1002
}
1002
{
1000
REACTOR
1002
}
1001
GENIUS_GENOBJ-N-FIL_13
1002
{
1000
OWNER
1000
GEN
1002
}
  0
ARC
  5
25547
  8
KI2
 10
993.86718568792878
 20
377.92661030725452
 30
0.0
 40
2.2999999999999989
 50
180.0
 51
270.0
1001
GENIUS_GENODEF_13
1002
{
1000
HIER
1070
     0
1002
}
1002
{
1000
MANEDIT
1070
     0
1002
}
1002
{
1000
NOSEL
1070
     0
1002
}
1002
{
1000
BEHIND
1070
     0
1002
}
1002
{
1000
OTHER
1070
     0
1002
}
1002
{
1000
REACTOR
1002
}
1001
GENIUS_GENOBJ-N-FIL_13
1002
{
1000
OWNER
1000
GEN
1002
}
  0
ARC
  5
25548
  8
KI2
 10
1004.267187138478
 20
377.92661030725452
 30
0.0
 40
3.0
 50
270.0
 51
0.0000138517270234
1001
GENIUS_GENODEF_13
1002
{
1000
HIER
1070
     0
1002
}
1002
{
1000
MANEDIT
1070
     0
1002
}
1002
{
1000
NOSEL
1070
     0
1002
}
1002
{
1000
BEHIND
1070
     0
1002
}
1002
{
1000
OTHER
1070
     0
1002
}
1002
{
1000
REACTOR
1002
}
1001
GENIUS_GENOBJ-N-FIL_13
1002
{
1000
OWNER
1000
GEN
1002
}
  0
ARC
  5
25549
  8
KI2
 10
1004.267187138478
 20
377.92661030725452
 30
0.0
 40
2.2999999999999989
 50
270.0
 51
0.0000138517270234
1001
GENIUS_GENODEF_13
1002
{
1000
HIER
1070
     0
1002
}
1002
{
1000
MANEDIT
1070
     0
1002
}
1002
{
1000
NOSEL
1070
     0
1002
}
1002
{
1000
BEHIND
1070
     0
1002
}
1002
{
1000
OTHER
1070
     0
1002
}
1002
{
1000
REACTOR
1002
}
1001
GENIUS_GENOBJ-N-FIL_13
1002
{
1000
OWNER
1000
GEN
1002
}
  0
LINE
  5
2554A
  8
KI2
 10
563.56717893941175
 20
689.62661456665546
 30
0.0
 11
563.56717893941175
 21
688.92661456665553
 31
0.0
  0
LINE
  5
2554B
  8
KI2
 10
557.5671829042476
 20
689.62661456665546
 30
0.0
 11
563.56717893941175
 21
689.62661456665546
 31
0.0
  0
LINE
  5
2554C
  8
KI2
 10
557.5671829042476
 20
688.92661456665553
 30
0.0
 11
563.56717893941175
 21
688.92661456665553
 31
0.0
  0
LINE
  5
2554D
  8
KI2
 10
563.56718425808515
 20
673.9266145666553
 30
0.0
 11
563.56718442731585
 21
673.22661456665548
 31
0.0
  0
LINE
  5
2554E
  8
KI2
 10
563.56718442731585
 20
673.22661456665548
 30
0.0
 11
557.56718362952233
 21
673.2266131161058
 31
0.0
  0
LINE
  5
2554F
  8
KI2
 10
563.56718425808515
 20
673.9266145666553
 30
0.0
 11
557.56718346029152
 21
673.92661311610584
 31
0.0
  0
LINE
  5
25550
  8
KI2
 10
554.5671829042476
 20
676.2266131161058
 30
0.0
 11
554.5671829042476
 21
686.62661456665546
 31
0.0
  0
LINE
  5
25551
  8
KI2
 10
555.26718290424765
 20
676.2266131161058
 30
0.0
 11
555.26718290424765
 21
686.62661456665546
 31
0.0
  0
ARC
  5
25552
  8
KI2
 10
557.5671829042476
 20
686.62661456665546
 30
0.0
 40
3.0
 50
90.0
 51
180.0
1001
GENIUS_GENODEF_13
1002
{
1000
HIER
1070
     0
1002
}
1002
{
1000
MANEDIT
1070
     0
1002
}
1002
{
1000
NOSEL
1070
     0
1002
}
1002
{
1000
BEHIND
1070
     0
1002
}
1002
{
1000
OTHER
1070
     0
1002
}
1002
{
1000
REACTOR
1002
}
1001
GENIUS_GENOBJ-N-FIL_13
1002
{
1000
OWNER
1000
GEN
1002
}
  0
ARC
  5
25553
  8
KI2
 10
557.5671829042476
 20
686.62661456665546
 30
0.0
 40
2.2999999999999989
 50
90.0
 51
180.0
1001
GENIUS_GENODEF_13
1002
{
1000
HIER
1070
     0
1002
}
1002
{
1000
MANEDIT
1070
     0
1002
}
1002
{
1000
NOSEL
1070
     0
1002
}
1002
{
1000
BEHIND
1070
     0
1002
}
1002
{
1000
OTHER
1070
     0
1002
}
1002
{
1000
REACTOR
1002
}
1001
GENIUS_GENOBJ-N-FIL_13
1002
{
1000
OWNER
1000
GEN
1002
}
  0
ARC
  5
25554
  8
KI2
 10
557.5671829042476
 20
676.2266131161058
 30
0.0
 40
3.0
 50
180.0
 51
270.00001385172698
1001
GENIUS_GENODEF_13
1002
{
1000
HIER
1070
     0
1002
}
1002
{
1000
MANEDIT
1070
     0
1002
}
1002
{
1000
NOSEL
1070
     0
1002
}
1002
{
1000
BEHIND
1070
     0
1002
}
1002
{
1000
OTHER
1070
     0
1002
}
1002
{
1000
REACTOR
1002
}
1001
GENIUS_GENOBJ-N-FIL_13
1002
{
1000
OWNER
1000
GEN
1002
}
  0
ARC
  5
25555
  8
KI2
 10
557.5671829042476
 20
676.2266131161058
 30
0.0
 40
2.2999999999999989
 50
180.0
 51
270.00001385172698
1001
GENIUS_GENODEF_13
1002
{
1000
HIER
1070
     0
1002
}
1002
{
1000
MANEDIT
1070
     0
1002
}
1002
{
1000
NOSEL
1070
     0
1002
}
1002
{
1000
BEHIND
1070
     0
1002
}
1002
{
1000
OTHER
1070
     0
1002
}
1002
{
1000
REACTOR
1002
}
1001
GENIUS_GENOBJ-N-FIL_13
1002
{
1000
OWNER
1000
GEN
1002
}
  0
LINE
  5
25556
  8
KI2
 10
954.86718663965951
 20
215.92660634241821
 30
0.0
 11
955.56718663965955
 21
215.92660634241821
 31
0.0
  0
LINE
  5
25557
  8
KI2
 10
954.86718663965951
 20
209.9266103072539
 30
0.0
 11
954.86718663965951
 21
215.92660634241821
 31
0.0
  0
LINE
  5
25558
  8
KI2
 10
955.56718663965955
 20
209.9266103072539
 30
0.0
 11
955.56718663965955
 21
215.92660634241821
 31
0.0
  0
LINE
  5
25559
  8
KI2
 10
970.56718663965967
 20
215.92661166109161
 30
0.0
 11
971.26718663965949
 21
215.9266118303222
 31
0.0
  0
LINE
  5
2555A
  8
KI2
 10
971.26718663965949
 20
215.9266118303222
 30
0.0
 11
971.26718809020917
 21
209.9266110325286
 31
0.0
  0
LINE
  5
2555B
  8
KI2
 10
970.56718663965967
 20
215.92661166109161
 30
0.0
 11
970.56718809020936
 21
209.92661086329781
 31
0.0
  0
LINE
  5
2555C
  8
KI2
 10
968.26718809020929
 20
206.9266103072539
 30
0.0
 11
957.86718663965951
 21
206.9266103072539
 31
0.0
  0
LINE
  5
2555D
  8
KI2
 10
968.26718809020929
 20
207.62661030725391
 30
0.0
 11
957.86718663965951
 21
207.62661030725391
 31
0.0
  0
ARC
  5
2555E
  8
KI2
 10
957.86718663965951
 20
209.9266103072539
 30
0.0
 40
3.0
 50
180.0
 51
270.0
1001
GENIUS_GENODEF_13
1002
{
1000
HIER
1070
     0
1002
}
1002
{
1000
MANEDIT
1070
     0
1002
}
1002
{
1000
NOSEL
1070
     0
1002
}
1002
{
1000
BEHIND
1070
     0
1002
}
1002
{
1000
OTHER
1070
     0
1002
}
1002
{
1000
REACTOR
1002
}
1001
GENIUS_GENOBJ-N-FIL_13
1002
{
1000
OWNER
1000
GEN
1002
}
  0
ARC
  5
2555F
  8
KI2
 10
957.86718663965951
 20
209.9266103072539
 30
0.0
 40
2.2999999999999989
 50
180.0
 51
270.0
1001
GENIUS_GENODEF_13
1002
{
1000
HIER
1070
     0
1002
}
1002
{
1000
MANEDIT
1070
     0
1002
}
1002
{
1000
NOSEL
1070
     0
1002
}
1002
{
1000
BEHIND
1070
     0
1002
}
1002
{
1000
OTHER
1070
     0
1002
}
1002
{
1000
REACTOR
1002
}
1001
GENIUS_GENOBJ-N-FIL_13
1002
{
1000
OWNER
1000
GEN
1002
}
  0
ARC
  5
25560
  8
KI2
 10
968.26718809020929
 20
209.9266103072539
 30
0.0
 40
3.0
 50
270.0
 51
0.0000138517270234
1001
GENIUS_GENODEF_13
1002
{
1000
HIER
1070
     0
1002
}
1002
{
1000
MANEDIT
1070
     0
1002
}
1002
{
1000
NOSEL
1070
     0
1002
}
1002
{
1000
BEHIND
1070
     0
1002
}
1002
{
1000
OTHER
1070
     0
1002
}
1002
{
1000
REACTOR
1002
}
1001
GENIUS_GENOBJ-N-FIL_13
1002
{
1000
OWNER
1000
GEN
1002
}
  0
ARC
  5
25561
  8
KI2
 10
968.26718809020929
 20
209.9266103072539
 30
0.0
 40
2.2999999999999989
 50
270.0
 51
0.0000138517270234
1001
GENIUS_GENODEF_13
1002
{
1000
HIER
1070
     0
1002
}
1002
{
1000
MANEDIT
1070
     0
1002
}
1002
{
1000
NOSEL
1070
     0
1002
}
1002
{
1000
BEHIND
1070
     0
1002
}
1002
{
1000
OTHER
1070
     0
1002
}
1002
{
1000
REACTOR
1002
}
1001
GENIUS_GENOBJ-N-FIL_13
1002
{
1000
OWNER
1000
GEN
1002
}
  0
LINE
  5
273E8
  8
SU
 10
653.87789582143046
 20
113.4746668585199
 30
0.0
 11
653.87789582143046
 21
104.47466685852049
 31
0.0
  0
LINE
  5
273EB
  8
SU
 10
679.87789582150106
 20
390.47466685742558
 30
0.0
 11
673.87789582150117
 21
400.47466685742558
 31
0.0
  0
LINE
  5
273EC
  8
SU
 10
667.87789582150106
 20
390.47466685742558
 30
0.0
 11
673.87789582150117
 21
400.47466685742558
 31
0.0
  0
LINE
  5
273ED
  8
SU
 10
679.87789582150106
 20
390.47466685742558
 30
0.0
 11
667.87789582150106
 21
390.47466685742558
 31
0.0
  0
LINE
  5
273EE
  8
SU
 10
673.91853258824165
 20
400.40693891285838
 30
0.0
 11
673.83725905476081
 21
400.40693891285838
 31
0.0
  0
LINE
  5
273EF
  8
SU
 10
674.03853258824165
 20
400.2069389128585
 30
0.0
 11
673.71725905476092
 21
400.2069389128585
 31
0.0
  0
LINE
  5
273F0
  8
SU
 10
674.15853258824166
 20
400.00693891285829
 30
0.0
 11
673.5972590547608
 21
400.00693891285829
 31
0.0
  0
LINE
  5
273F1
  8
SU
 10
674.27853258824155
 20
399.80693891285853
 30
0.0
 11
673.47725905476057
 21
399.80693891285853
 31
0.0
  0
LINE
  5
273F2
  8
SU
 10
674.39853258824155
 20
399.60693891285831
 30
0.0
 11
673.35725905476068
 21
399.60693891285831
 31
0.0
  0
LINE
  5
273F3
  8
SU
 10
674.51853258824167
 20
399.40693891285849
 30
0.0
 11
673.23725905476078
 21
399.40693891285849
 31
0.0
  0
LINE
  5
273F4
  8
SU
 10
674.63853258824179
 20
399.20693891285862
 30
0.0
 11
673.11725905476078
 21
399.20693891285862
 31
0.0
  0
LINE
  5
273F5
  8
SU
 10
674.75853258824156
 20
399.0069389128584
 30
0.0
 11
672.99725905476055
 21
399.0069389128584
 31
0.0
  0
LINE
  5
273F6
  8
SU
 10
674.87853258824146
 20
398.80693891285853
 30
0.0
 11
672.87725905476066
 21
398.80693891285853
 31
0.0
  0
LINE
  5
273F7
  8
SU
 10
674.99853258824135
 20
398.60693891285831
 30
0.0
 11
672.75725905476088
 21
398.60693891285831
 31
0.0
  0
LINE
  5
273F8
  8
SU
 10
675.11853258824181
 20
398.40693891285838
 30
0.0
 11
672.63725905476065
 21
398.40693891285838
 31
0.0
  0
LINE
  5
273F9
  8
SU
 10
675.2385325882417
 20
398.20693891285862
 30
0.0
 11
672.51725905476064
 21
398.20693891285862
 31
0.0
  0
LINE
  5
273FA
  8
SU
 10
675.35853258824159
 20
398.00693891285829
 30
0.0
 11
672.39725905476075
 21
398.00693891285829
 31
0.0
  0
LINE
  5
273FB
  8
SU
 10
675.47853258824171
 20
397.80693891285853
 30
0.0
 11
672.27725905476086
 21
397.80693891285853
 31
0.0
  0
LINE
  5
273FC
  8
SU
 10
675.5985325882416
 20
397.6069389128582
 30
0.0
 11
672.15725905476074
 21
397.6069389128582
 31
0.0
  0
LINE
  5
273FD
  8
SU
 10
675.71853258824171
 20
397.40693891285849
 30
0.0
 11
672.03725905476085
 21
397.40693891285849
 31
0.0
  0
LINE
  5
273FE
  8
SU
 10
675.83853258824149
 20
397.20693891285862
 30
0.0
 11
671.91725905476073
 21
397.20693891285862
 31
0.0
  0
LINE
  5
273FF
  8
SU
 10
675.95853258824172
 20
397.0069389128584
 30
0.0
 11
671.79725905476084
 21
397.0069389128584
 31
0.0
  0
LINE
  5
27400
  8
SU
 10
676.07853258824161
 20
396.80693891285853
 30
0.0
 11
671.67725905476073
 21
396.80693891285853
 31
0.0
  0
LINE
  5
27401
  8
SU
 10
676.19853258824173
 20
396.60693891285831
 30
0.0
 11
671.55725905476083
 21
396.60693891285831
 31
0.0
  0
LINE
  5
27402
  8
SU
 10
676.31853258824162
 20
396.40693891285838
 30
0.0
 11
671.43725905476072
 21
396.40693891285838
 31
0.0
  0
LINE
  5
27403
  8
SU
 10
676.43853258824151
 20
396.20693891285862
 30
0.0
 11
671.31725905476083
 21
396.20693891285862
 31
0.0
  0
LINE
  5
27404
  8
SU
 10
676.55853258824163
 20
396.00693891285829
 30
0.0
 11
671.19725905476071
 21
396.00693891285829
 31
0.0
  0
LINE
  5
27405
  8
SU
 10
676.67853258824175
 20
395.80693891285853
 30
0.0
 11
671.07725905476082
 21
395.80693891285853
 31
0.0
  0
LINE
  5
27406
  8
SU
 10
676.79853258824164
 20
395.6069389128582
 30
0.0
 11
670.95725905476058
 21
395.6069389128582
 31
0.0
  0
LINE
  5
27407
  8
SU
 10
676.91853258824176
 20
395.40693891285838
 30
0.0
 11
670.83725905476069
 21
395.40693891285838
 31
0.0
  0
LINE
  5
27408
  8
SU
 10
677.03853258824165
 20
395.20693891285862
 30
0.0
 11
670.7172590547608
 21
395.20693891285862
 31
0.0
  0
LINE
  5
27409
  8
SU
 10
677.15853258824166
 20
395.0069389128584
 30
0.0
 11
670.5972590547608
 21
395.0069389128584
 31
0.0
  0
LINE
  5
2740A
  8
SU
 10
677.27853258824155
 20
394.80693891285853
 30
0.0
 11
670.47725905476057
 21
394.80693891285853
 31
0.0
  0
LINE
  5
2740B
  8
SU
 10
677.39853258824155
 20
394.60693891285831
 30
0.0
 11
670.35725905476079
 21
394.60693891285831
 31
0.0
  0
LINE
  5
2740C
  8
SU
 10
677.51853258824156
 20
394.40693891285838
 30
0.0
 11
670.2372590547609
 21
394.40693891285838
 31
0.0
  0
LINE
  5
2740D
  8
SU
 10
677.63853258824179
 20
394.20693891285862
 30
0.0
 11
670.11725905476067
 21
394.20693891285862
 31
0.0
  0
LINE
  5
2740E
  8
SU
 10
677.75853258824168
 20
394.00693891285829
 30
0.0
 11
669.99725905476066
 21
394.00693891285829
 31
0.0
  0
LINE
  5
2740F
  8
SU
 10
677.87853258824157
 20
393.80693891285853
 30
0.0
 11
669.87725905476077
 21
393.80693891285853
 31
0.0
  0
LINE
  5
27410
  8
SU
 10
677.99853258824135
 20
393.60693891285831
 30
0.0
 11
669.75725905476088
 21
393.60693891285831
 31
0.0
  0
LINE
  5
27411
  8
SU
 10
678.11853258824181
 20
393.40693891285838
 30
0.0
 11
669.63725905476065
 21
393.40693891285838
 31
0.0
  0
LINE
  5
27412
  8
SU
 10
678.23853258824158
 20
393.20693891285862
 30
0.0
 11
669.51725905476064
 21
393.20693891285862
 31
0.0
  0
LINE
  5
27413
  8
SU
 10
678.35853258824147
 20
393.0069389128584
 30
0.0
 11
669.39725905476075
 21
393.0069389128584
 31
0.0
  0
LINE
  5
27414
  8
SU
 10
678.47853258824171
 20
392.80693891285853
 30
0.0
 11
669.27725905476075
 21
392.80693891285853
 31
0.0
  0
LINE
  5
27415
  8
SU
 10
678.5985325882416
 20
392.60693891285831
 30
0.0
 11
669.15725905476074
 21
392.60693891285831
 31
0.0
  0
LINE
  5
27416
  8
SU
 10
678.71853258824171
 20
392.40693891285838
 30
0.0
 11
669.03725905476085
 21
392.40693891285838
 31
0.0
  0
LINE
  5
27417
  8
SU
 10
678.83853258824161
 20
392.20693891285862
 30
0.0
 11
668.91725905476073
 21
392.20693891285862
 31
0.0
  0
LINE
  5
27418
  8
SU
 10
678.95853258824172
 20
392.00693891285829
 30
0.0
 11
668.79725905476084
 21
392.00693891285829
 31
0.0
  0
LINE
  5
27419
  8
SU
 10
679.07853258824161
 20
391.80693891285853
 30
0.0
 11
668.67725905476073
 21
391.80693891285853
 31
0.0
  0
LINE
  5
2741A
  8
SU
 10
679.19853258824173
 20
391.6069389128582
 30
0.0
 11
668.55725905476083
 21
391.6069389128582
 31
0.0
  0
LINE
  5
2741B
  8
SU
 10
679.31853258824162
 20
391.40693891285838
 30
0.0
 11
668.43725905476072
 21
391.40693891285838
 31
0.0
  0
LINE
  5
2741C
  8
SU
 10
679.43853258824151
 20
391.20693891285862
 30
0.0
 11
668.31725905476083
 21
391.20693891285862
 31
0.0
  0
LINE
  5
2741D
  8
SU
 10
679.55853258824163
 20
391.00693891285829
 30
0.0
 11
668.19725905476071
 21
391.00693891285829
 31
0.0
  0
LINE
  5
2741E
  8
SU
 10
679.67853258824175
 20
390.80693891285853
 30
0.0
 11
668.07725905476082
 21
390.80693891285853
 31
0.0
  0
LINE
  5
2741F
  8
SU
 10
679.79853258824164
 20
390.60693891285831
 30
0.0
 11
667.9572590547607
 21
390.60693891285831
 31
0.0
  0
LINE
  5
27420
  8
SU
 10
679.87789582150094
 20
114.47466685852049
 30
0.0
 11
673.87789582150094
 21
104.47466685852049
 31
0.0
  0
LINE
  5
27421
  8
SU
 10
667.87789582150094
 20
114.47466685852049
 30
0.0
 11
673.87789582150094
 21
104.47466685852049
 31
0.0
  0
LINE
  5
27422
  8
SU
 10
679.87789582150094
 20
114.47466685852049
 30
0.0
 11
667.87789582150094
 21
114.47466685852049
 31
0.0
  0
LINE
  5
27423
  8
SU
 10
673.91853258824153
 20
104.5423948030877
 30
0.0
 11
673.83725905476047
 21
104.5423948030877
 31
0.0
  0
LINE
  5
27424
  8
SU
 10
674.03853258824142
 20
104.74239480308751
 30
0.0
 11
673.71725905476069
 21
104.74239480308751
 31
0.0
  0
LINE
  5
27425
  8
SU
 10
674.15853258824154
 20
104.94239480308779
 30
0.0
 11
673.59725905476046
 21
104.94239480308779
 31
0.0
  0
LINE
  5
27426
  8
SU
 10
674.27853258824143
 20
105.1423948030876
 30
0.0
 11
673.47725905476045
 21
105.1423948030876
 31
0.0
  0
LINE
  5
27427
  8
SU
 10
674.39853258824121
 20
105.3423948030879
 30
0.0
 11
673.35725905476056
 21
105.3423948030879
 31
0.0
  0
LINE
  5
27428
  8
SU
 10
674.51853258824144
 20
105.5423948030877
 30
0.0
 11
673.23725905476067
 21
105.5423948030877
 31
0.0
  0
LINE
  5
27429
  8
SU
 10
674.63853258824145
 20
105.74239480308751
 30
0.0
 11
673.11725905476055
 21
105.74239480308751
 31
0.0
  0
LINE
  5
2742A
  8
SU
 10
674.75853258824145
 20
105.94239480308779
 30
0.0
 11
672.99725905476043
 21
105.94239480308779
 31
0.0
  0
LINE
  5
2742B
  8
SU
 10
674.87853258824134
 20
106.1423948030876
 30
0.0
 11
672.87725905476054
 21
106.1423948030876
 31
0.0
  0
LINE
  5
2742C
  8
SU
 10
674.99853258824123
 20
106.3423948030879
 30
0.0
 11
672.75725905476065
 21
106.3423948030879
 31
0.0
  0
LINE
  5
2742D
  8
SU
 10
675.11853258824146
 20
106.5423948030877
 30
0.0
 11
672.63725905476053
 21
106.5423948030877
 31
0.0
  0
LINE
  5
2742E
  8
SU
 10
675.23853258824136
 20
106.74239480308751
 30
0.0
 11
672.51725905476042
 21
106.74239480308751
 31
0.0
  0
LINE
  5
2742F
  8
SU
 10
675.35853258824125
 20
106.94239480308779
 30
0.0
 11
672.39725905476053
 21
106.94239480308779
 31
0.0
  0
LINE
  5
27430
  8
SU
 10
675.47853258824148
 20
107.1423948030876
 30
0.0
 11
672.27725905476063
 21
107.1423948030876
 31
0.0
  0
LINE
  5
27431
  8
SU
 10
675.59853258824126
 20
107.3423948030879
 30
0.0
 11
672.15725905476052
 21
107.3423948030879
 31
0.0
  0
LINE
  5
27432
  8
SU
 10
675.71853258824149
 20
107.5423948030877
 30
0.0
 11
672.03725905476063
 21
107.5423948030877
 31
0.0
  0
LINE
  5
27433
  8
SU
 10
675.83853258824138
 20
107.74239480308751
 30
0.0
 11
671.91725905476039
 21
107.74239480308751
 31
0.0
  0
LINE
  5
27434
  8
SU
 10
675.95853258824138
 20
107.94239480308779
 30
0.0
 11
671.7972590547605
 21
107.94239480308779
 31
0.0
  0
LINE
  5
27435
  8
SU
 10
676.07853258824127
 20
108.1423948030876
 30
0.0
 11
671.6772590547605
 21
108.1423948030876
 31
0.0
  0
LINE
  5
27436
  8
SU
 10
676.19853258824151
 20
108.3423948030879
 30
0.0
 11
671.55725905476061
 21
108.3423948030879
 31
0.0
  0
LINE
  5
27437
  8
SU
 10
676.3185325882414
 20
108.5423948030877
 30
0.0
 11
671.43725905476037
 21
108.5423948030877
 31
0.0
  0
LINE
  5
27438
  8
SU
 10
676.43853258824129
 20
108.74239480308751
 30
0.0
 11
671.3172590547606
 21
108.74239480308751
 31
0.0
  0
LINE
  5
27439
  8
SU
 10
676.55853258824141
 20
108.94239480308779
 30
0.0
 11
671.19725905476037
 21
108.94239480308779
 31
0.0
  0
LINE
  5
2743A
  8
SU
 10
676.67853258824152
 20
109.1423948030876
 30
0.0
 11
671.07725905476048
 21
109.1423948030876
 31
0.0
  0
LINE
  5
2743B
  8
SU
 10
676.7985325882413
 20
109.3423948030879
 30
0.0
 11
670.95725905476047
 21
109.3423948030879
 31
0.0
  0
LINE
  5
2743C
  8
SU
 10
676.91853258824153
 20
109.5423948030877
 30
0.0
 11
670.83725905476058
 21
109.5423948030877
 31
0.0
  0
LINE
  5
2743D
  8
SU
 10
677.03853258824142
 20
109.74239480308751
 30
0.0
 11
670.71725905476069
 21
109.74239480308751
 31
0.0
  0
LINE
  5
2743E
  8
SU
 10
677.15853258824154
 20
109.94239480308779
 30
0.0
 11
670.59725905476046
 21
109.94239480308779
 31
0.0
  0
LINE
  5
2743F
  8
SU
 10
677.27853258824143
 20
110.1423948030876
 30
0.0
 11
670.47725905476045
 21
110.1423948030876
 31
0.0
  0
LINE
  5
27440
  8
SU
 10
677.39853258824132
 20
110.3423948030879
 30
0.0
 11
670.35725905476045
 21
110.3423948030879
 31
0.0
  0
LINE
  5
27441
  8
SU
 10
677.51853258824144
 20
110.5423948030877
 30
0.0
 11
670.23725905476056
 21
110.5423948030877
 31
0.0
  0
LINE
  5
27442
  8
SU
 10
677.63853258824145
 20
110.74239480308751
 30
0.0
 11
670.11725905476055
 21
110.74239480308751
 31
0.0
  0
LINE
  5
27443
  8
SU
 10
677.75853258824145
 20
110.94239480308779
 30
0.0
 11
669.99725905476043
 21
110.94239480308779
 31
0.0
  0
LINE
  5
27444
  8
SU
 10
677.87853258824134
 20
111.1423948030876
 30
0.0
 11
669.87725905476054
 21
111.1423948030876
 31
0.0
  0
LINE
  5
27445
  8
SU
 10
677.99853258824123
 20
111.3423948030879
 30
0.0
 11
669.75725905476065
 21
111.3423948030879
 31
0.0
  0
LINE
  5
27446
  8
SU
 10
678.11853258824146
 20
111.5423948030877
 30
0.0
 11
669.63725905476053
 21
111.5423948030877
 31
0.0
  0
LINE
  5
27447
  8
SU
 10
678.23853258824136
 20
111.74239480308751
 30
0.0
 11
669.51725905476042
 21
111.74239480308751
 31
0.0
  0
LINE
  5
27448
  8
SU
 10
678.35853258824125
 20
111.94239480308779
 30
0.0
 11
669.39725905476053
 21
111.94239480308779
 31
0.0
  0
LINE
  5
27449
  8
SU
 10
678.47853258824136
 20
112.1423948030876
 30
0.0
 11
669.27725905476063
 21
112.1423948030876
 31
0.0
  0
LINE
  5
2744A
  8
SU
 10
678.59853258824126
 20
112.3423948030879
 30
0.0
 11
669.15725905476052
 21
112.3423948030879
 31
0.0
  0
LINE
  5
2744B
  8
SU
 10
678.71853258824149
 20
112.5423948030877
 30
0.0
 11
669.03725905476063
 21
112.5423948030877
 31
0.0
  0
LINE
  5
2744C
  8
SU
 10
678.83853258824138
 20
112.74239480308751
 30
0.0
 11
668.91725905476051
 21
112.74239480308751
 31
0.0
  0
LINE
  5
2744D
  8
SU
 10
678.9585325882415
 20
112.94239480308779
 30
0.0
 11
668.79725905476062
 21
112.94239480308779
 31
0.0
  0
LINE
  5
2744E
  8
SU
 10
679.07853258824139
 20
113.1423948030876
 30
0.0
 11
668.67725905476038
 21
113.1423948030876
 31
0.0
  0
LINE
  5
2744F
  8
SU
 10
679.19853258824139
 20
113.3423948030879
 30
0.0
 11
668.55725905476049
 21
113.3423948030879
 31
0.0
  0
LINE
  5
27450
  8
SU
 10
679.31853258824128
 20
113.5423948030877
 30
0.0
 11
668.43725905476049
 21
113.5423948030877
 31
0.0
  0
LINE
  5
27451
  8
SU
 10
679.43853258824117
 20
113.74239480308751
 30
0.0
 11
668.3172590547606
 21
113.74239480308751
 31
0.0
  0
LINE
  5
27452
  8
SU
 10
679.55853258824141
 20
113.94239480308779
 30
0.0
 11
668.19725905476037
 21
113.94239480308779
 31
0.0
  0
LINE
  5
27453
  8
SU
 10
679.67853258824152
 20
114.1423948030876
 30
0.0
 11
668.07725905476048
 21
114.1423948030876
 31
0.0
  0
LINE
  5
27454
  8
SU
 10
679.79853258824141
 20
114.3423948030879
 30
0.0
 11
667.95725905476036
 21
114.3423948030879
 31
0.0
  0
LINE
  5
27455
  8
SU
 10
543.22783246503377
 20
359.97466713357892
 30
0.0
 11
636.87789582150015
 21
359.97466713357892
 31
0.0
  0
LINE
  5
27456
  8
SU
 10
633.87789582150015
 20
363.4746676418934
 30
0.0
 11
633.87789582150015
 21
359.97466713357892
 31
0.0
  0
LINE
  5
27457
  8
SU
 10
633.87789582150015
 20
359.97466713357892
 30
0.0
 11
633.87789582150015
 21
335.60133380024558
 31
0.0
  0
LINE
  5
2745B
  8
SU
 10
542.42783189063528
 20
372.97466709823129
 30
0.0
 11
656.87789582150128
 21
372.97466709823118
 31
0.0
  0
LINE
  5
2745C
  8
SU
 10
653.87789582150117
 20
400.47466685742552
 30
0.0
 11
653.87789582150117
 21
372.97466709823118
 31
0.0
  0
LINE
  5
27460
  8
SU
 10
653.87789582150117
 20
372.97466709823118
 30
0.0
 11
653.87789582150117
 21
363.47466764189329
 31
0.0
  0
LINE
  5
27463
  8
SU
 10
527.37789582150106
 20
109.47466685852049
 30
0.0
 11
636.87789582150117
 21
109.47466685852049
 31
0.0
  0
LINE
  5
27464
  8
SU
 10
633.87789582150106
 20
109.47466685852049
 30
0.0
 11
633.87789582150106
 21
104.47466685852049
 31
0.0
  0
LINE
  5
27465
  8
SU
 10
633.87789582150106
 20
104.47466685852049
 30
0.0
 11
633.87789582150106
 21
88.401333525187212
 31
0.0
  0
LINE
  5
27469
  8
SU
 10
614.87789582150106
 20
400.47466685742558
 30
0.0
 11
676.87789582150106
 21
400.47466685742552
 31
0.0
  0
LINE
  5
2746A
  8
SU
 10
614.87789582150106
 20
104.47466685852049
 30
0.0
 11
676.87789582150094
 21
104.47466685852049
 31
0.0
  0
LINE
  5
2746B
  8
SU
 10
673.87789582150106
 20
400.47466685742552
 30
0.0
 11
673.87789582150094
 21
104.47466685852049
 31
0.0
  0
LINE
  5
2746D
  8
SU
 10
539.37789582157052
 20
113.47466685852
 30
0.0
 11
656.87789582150117
 21
113.4746668585199
 31
0.0
  0
LINE
  5
2746E
  8
SU
 10
539.37788703981926
 20
363.4746676418934
 30
0.0
 11
656.87789582150128
 21
363.47466764189329
 31
0.0
  0
LINE
  5
2746F
  8
SU
 10
653.87789582150106
 20
113.4746668585199
 30
0.0
 11
653.87789582150117
 21
363.47466764189329
 31
0.0
  0
LINE
  5
27473
  8
SU
 10
505.37788825489451
 20
329.97466526678352
 30
0.0
 11
505.37788825489451
 21
310.97466526678261
 31
0.0
  0
LINE
  5
27474
  8
SU
 10
538.37788825489474
 20
329.97466526678352
 30
0.0
 11
538.37788825489474
 21
310.97466526678261
 31
0.0
  0
LINE
  5
27475
  8
SU
 10
505.37788825489451
 20
313.97466526678261
 30
0.0
 11
538.37788825489474
 21
313.97466526678261
 31
0.0
  0
LINE
  5
27479
  8
SU
 10
190.35878694559639
 20
313.97466526678261
 30
0.0
 11
193.35878694559639
 21
313.97466526678261
 31
0.0
  0
LINE
  5
2747B
  8
SU
 10
193.35878694559639
 20
329.97466526678352
 30
0.0
 11
193.35878694559639
 21
310.97466526678261
 31
0.0
  0
LINE
  5
2747C
  8
SU
 10
226.3587945122031
 20
329.97466526678352
 30
0.0
 11
226.3587945122031
 21
310.97466526678261
 31
0.0
  0
LINE
  5
2747D
  8
SU
 10
193.35878694559639
 20
313.97466526678261
 30
0.0
 11
226.3587945122031
 21
313.97466526678261
 31
0.0
  0
LINE
  5
27481
  8
SU
 10
157.35878694559639
 20
329.97466526678352
 30
0.0
 11
157.35878694559639
 21
310.97466526678261
 31
0.0
  0
LINE
  5
27482
  8
SU
 10
190.3587945122031
 20
329.97466526678352
 30
0.0
 11
190.3587945122031
 21
310.97466526678261
 31
0.0
  0
LINE
  5
27483
  8
SU
 10
157.35878694559639
 20
313.97466526678261
 30
0.0
 11
190.3587945122031
 21
313.97466526678261
 31
0.0
  0
LINE
  5
27487
  8
SU
 10
981.56718801747274
 20
383.92661430465893
 30
0.0
 11
910.12703338152733
 21
383.92661430465893
 31
0.0
  0
LINE
  5
27488
  8
SU
 10
913.12703338152721
 20
418.92661430465881
 30
0.0
 11
913.12703338152721
 21
383.92661430465893
 31
0.0
  0
LINE
  5
2748C
  8
SU
 10
1019.0671881351039
 20
700.92661347754654
 30
0.0
 11
1129.6961116036071
 21
700.92661347754654
 31
0.0
  0
LINE
  5
2748D
  8
SU
 10
1047.067187853384
 20
206.92661430465961
 30
0.0
 11
1129.6961116036059
 21
206.92661430465949
 31
0.0
  0
LINE
  5
2748E
  8
SU
 10
1126.6961116036071
 20
700.92661347754654
 30
0.0
 11
1126.6961116036059
 21
206.92661430465949
 31
0.0
  0
LINE
  5
27492
  8
SU
 10
1019.0671881351039
 20
589.92661347754654
 30
0.0
 11
1109.6961116036059
 21
589.92661347754654
 31
0.0
  0
LINE
  5
27493
  8
SU
 10
1106.6961116036059
 20
589.92661347754654
 30
0.0
 11
1106.6961116036059
 21
700.92661347754654
 31
0.0
  0
LINE
  5
27496
  8
SU
 10
1016.567186901653
 20
592.92661430465932
 30
0.0
 11
1089.6961116036071
 21
592.92661430465932
 31
0.0
  0
LINE
  5
2749C
  8
SU
 10
1015.567186901653
 20
626.92661335293406
 30
0.0
 11
1015.567186901653
 21
755.24077860380396
 31
0.0
  0
LINE
  5
2749D
  8
SU
 10
1018.0671881351039
 20
752.24077860380407
 30
0.0
 11
1027.667188135104
 21
752.24077860380407
 31
0.0
  0
LINE
  5
2749E
  8
SU
 10
1015.567186901653
 20
752.24077860380407
 30
0.0
 11
981.59385356832001
 21
752.24077860380407
 31
0.0
  0
LINE
  5
2749F
  8
SU
 10
1018.0671881351039
 20
752.24077860380407
 30
0.0
 11
1015.567186901653
 21
752.24077860380407
 31
0.0
  0
LINE
  5
274A3
  8
SU
 10
703.06718690165189
 20
627.92661335292826
 30
0.0
 11
703.06718690165189
 21
549.71366894745574
 31
0.0
  0
LINE
  5
274A4
  8
SU
 10
738.06718690165178
 20
591.92661335292826
 30
0.0
 11
738.06718690165178
 21
549.71366894745574
 31
0.0
  0
LINE
  5
274A5
  8
SU
 10
703.06718690165189
 20
552.71366894745574
 30
0.0
 11
738.06718690165178
 21
552.71366894745574
 31
0.0
  0
LINE
  5
274A9
  8
SU
 10
1008.0671881351039
 20
778.24077860380396
 30
0.0
 11
1018.0671881351039
 21
772.24077860380407
 31
0.0
  0
LINE
  5
274AA
  8
SU
 10
1008.0671881351039
 20
766.24077860380396
 30
0.0
 11
1018.0671881351039
 21
772.24077860380407
 31
0.0
  0
LINE
  5
274AB
  8
SU
 10
1008.0671881351039
 20
778.24077860380396
 30
0.0
 11
1008.0671881351039
 21
766.24077860380396
 31
0.0
  0
LINE
  5
274AC
  8
SU
 10
1017.999460190537
 20
772.28141537054466
 30
0.0
 11
1017.999460190537
 21
772.20014183706371
 31
0.0
  0
LINE
  5
274AD
  8
SU
 10
1017.799460190537
 20
772.40141537054456
 30
0.0
 11
1017.799460190537
 21
772.08014183706382
 31
0.0
  0
LINE
  5
274AE
  8
SU
 10
1017.599460190537
 20
772.52141537054456
 30
0.0
 11
1017.599460190537
 21
771.9601418370637
 31
0.0
  0
LINE
  5
274AF
  8
SU
 10
1017.399460190537
 20
772.64141537054445
 30
0.0
 11
1017.399460190537
 21
771.84014183706347
 31
0.0
  0
LINE
  5
274B0
  8
SU
 10
1017.199460190537
 20
772.76141537054446
 30
0.0
 11
1017.199460190537
 21
771.72014183706369
 31
0.0
  0
LINE
  5
274B1
  8
SU
 10
1016.999460190537
 20
772.88141537054446
 30
0.0
 11
1016.999460190537
 21
771.6001418370638
 31
0.0
  0
LINE
  5
274B2
  8
SU
 10
1016.799460190537
 20
773.00141537054469
 30
0.0
 11
1016.799460190537
 21
771.48014183706368
 31
0.0
  0
LINE
  5
274B3
  8
SU
 10
1016.599460190537
 20
773.12141537054458
 30
0.0
 11
1016.599460190537
 21
771.36014183706345
 31
0.0
  0
LINE
  5
274B4
  8
SU
 10
1016.399460190537
 20
773.24141537054447
 30
0.0
 11
1016.399460190537
 21
771.24014183706356
 31
0.0
  0
LINE
  5
274B5
  8
SU
 10
1016.199460190537
 20
773.36141537054436
 30
0.0
 11
1016.199460190537
 21
771.12014183706367
 31
0.0
  0
LINE
  5
274B6
  8
SU
 10
1015.999460190537
 20
773.48141537054471
 30
0.0
 11
1015.999460190537
 21
771.00014183706355
 31
0.0
  0
LINE
  5
274B7
  8
SU
 10
1015.799460190537
 20
773.6014153705446
 30
0.0
 11
1015.799460190537
 21
770.88014183706355
 31
0.0
  0
LINE
  5
274B8
  8
SU
 10
1015.599460190537
 20
773.72141537054449
 30
0.0
 11
1015.599460190537
 21
770.76014183706366
 31
0.0
  0
LINE
  5
274B9
  8
SU
 10
1015.399460190537
 20
773.84141537054461
 30
0.0
 11
1015.399460190537
 21
770.64014183706377
 31
0.0
  0
LINE
  5
274BA
  8
SU
 10
1015.199460190537
 20
773.9614153705445
 30
0.0
 11
1015.199460190537
 21
770.52014183706365
 31
0.0
  0
LINE
  5
274BB
  8
SU
 10
1014.999460190537
 20
774.08141537054462
 30
0.0
 11
1014.999460190537
 21
770.40014183706376
 31
0.0
  0
LINE
  5
274BC
  8
SU
 10
1014.799460190537
 20
774.2014153705444
 30
0.0
 11
1014.799460190537
 21
770.28014183706364
 31
0.0
  0
LINE
  5
274BD
  8
SU
 10
1014.599460190537
 20
774.32141537054463
 30
0.0
 11
1014.599460190537
 21
770.16014183706375
 31
0.0
  0
LINE
  5
274BE
  8
SU
 10
1014.399460190537
 20
774.44141537054452
 30
0.0
 11
1014.399460190537
 21
770.04014183706363
 31
0.0
  0
LINE
  5
274BF
  8
SU
 10
1014.199460190537
 20
774.56141537054464
 30
0.0
 11
1014.199460190537
 21
769.92014183706374
 31
0.0
  0
LINE
  5
274C0
  8
SU
 10
1013.999460190537
 20
774.68141537054453
 30
0.0
 11
1013.999460190537
 21
769.80014183706362
 31
0.0
  0
LINE
  5
274C1
  8
SU
 10
1013.799460190537
 20
774.80141537054442
 30
0.0
 11
1013.799460190537
 21
769.68014183706373
 31
0.0
  0
LINE
  5
274C2
  8
SU
 10
1013.599460190537
 20
774.92141537054454
 30
0.0
 11
1013.599460190537
 21
769.56014183706361
 31
0.0
  0
LINE
  5
274C3
  8
SU
 10
1013.399460190537
 20
775.04141537054466
 30
0.0
 11
1013.399460190537
 21
769.44014183706372
 31
0.0
  0
LINE
  5
274C4
  8
SU
 10
1013.199460190537
 20
775.16141537054455
 30
0.0
 11
1013.199460190537
 21
769.3201418370636
 31
0.0
  0
LINE
  5
274C5
  8
SU
 10
1012.999460190537
 20
775.28141537054455
 30
0.0
 11
1012.999460190537
 21
769.20014183706371
 31
0.0
  0
LINE
  5
274C6
  8
SU
 10
1012.799460190537
 20
775.40141537054456
 30
0.0
 11
1012.799460190537
 21
769.08014183706382
 31
0.0
  0
LINE
  5
274C7
  8
SU
 10
1012.599460190537
 20
775.52141537054467
 30
0.0
 11
1012.599460190537
 21
768.9601418370637
 31
0.0
  0
LINE
  5
274C8
  8
SU
 10
1012.399460190537
 20
775.64141537054456
 30
0.0
 11
1012.399460190537
 21
768.84014183706347
 31
0.0
  0
LINE
  5
274C9
  8
SU
 10
1012.199460190537
 20
775.76141537054446
 30
0.0
 11
1012.199460190537
 21
768.72014183706358
 31
0.0
  0
LINE
  5
274CA
  8
SU
 10
1011.999460190537
 20
775.88141537054446
 30
0.0
 11
1011.999460190537
 21
768.60014183706369
 31
0.0
  0
LINE
  5
274CB
  8
SU
 10
1011.799460190537
 20
776.00141537054469
 30
0.0
 11
1011.799460190537
 21
768.48014183706368
 31
0.0
  0
LINE
  5
274CC
  8
SU
 10
1011.599460190537
 20
776.12141537054458
 30
0.0
 11
1011.599460190537
 21
768.36014183706357
 31
0.0
  0
LINE
  5
274CD
  8
SU
 10
1011.399460190537
 20
776.24141537054436
 30
0.0
 11
1011.399460190537
 21
768.24014183706367
 31
0.0
  0
LINE
  5
274CE
  8
SU
 10
1011.199460190537
 20
776.36141537054425
 30
0.0
 11
1011.199460190537
 21
768.12014183706378
 31
0.0
  0
LINE
  5
274CF
  8
SU
 10
1010.999460190537
 20
776.4814153705446
 30
0.0
 11
1010.999460190537
 21
768.00014183706355
 31
0.0
  0
LINE
  5
274D0
  8
SU
 10
1010.799460190537
 20
776.60141537054449
 30
0.0
 11
1010.799460190537
 21
767.88014183706355
 31
0.0
  0
LINE
  5
274D1
  8
SU
 10
1010.599460190537
 20
776.72141537054438
 30
0.0
 11
1010.599460190537
 21
767.76014183706366
 31
0.0
  0
LINE
  5
274D2
  8
SU
 10
1010.399460190537
 20
776.84141537054461
 30
0.0
 11
1010.399460190537
 21
767.64014183706365
 31
0.0
  0
LINE
  5
274D3
  8
SU
 10
1010.199460190537
 20
776.9614153705445
 30
0.0
 11
1010.199460190537
 21
767.52014183706365
 31
0.0
  0
LINE
  5
274D4
  8
SU
 10
1009.999460190537
 20
777.08141537054462
 30
0.0
 11
1009.999460190537
 21
767.40014183706376
 31
0.0
  0
LINE
  5
274D5
  8
SU
 10
1009.799460190537
 20
777.20141537054451
 30
0.0
 11
1009.799460190537
 21
767.28014183706364
 31
0.0
  0
LINE
  5
274D6
  8
SU
 10
1009.599460190537
 20
777.32141537054463
 30
0.0
 11
1009.599460190537
 21
767.16014183706375
 31
0.0
  0
LINE
  5
274D7
  8
SU
 10
1009.399460190537
 20
777.44141537054441
 30
0.0
 11
1009.399460190537
 21
767.04014183706363
 31
0.0
  0
LINE
  5
274D8
  8
SU
 10
1009.199460190537
 20
777.56141537054464
 30
0.0
 11
1009.199460190537
 21
766.92014183706374
 31
0.0
  0
LINE
  5
274D9
  8
SU
 10
1008.999460190537
 20
777.68141537054453
 30
0.0
 11
1008.999460190537
 21
766.80014183706362
 31
0.0
  0
LINE
  5
274DA
  8
SU
 10
1008.799460190537
 20
777.80141537054442
 30
0.0
 11
1008.799460190537
 21
766.68014183706373
 31
0.0
  0
LINE
  5
274DB
  8
SU
 10
1008.599460190537
 20
777.92141537054454
 30
0.0
 11
1008.599460190537
 21
766.56014183706361
 31
0.0
  0
LINE
  5
274DC
  8
SU
 10
1008.399460190537
 20
778.04141537054466
 30
0.0
 11
1008.399460190537
 21
766.44014183706372
 31
0.0
  0
LINE
  5
274DD
  8
SU
 10
1008.199460190537
 20
778.16141537054455
 30
0.0
 11
1008.199460190537
 21
766.32014183706349
 31
0.0
  0
LINE
  5
274DE
  8
SU
 10
564.56718690165189
 20
778.24077860380396
 30
0.0
 11
554.56718690165178
 21
772.24077860380407
 31
0.0
  0
LINE
  5
274DF
  8
SU
 10
564.56718690165189
 20
766.24077860380396
 30
0.0
 11
554.56718690165178
 21
772.24077860380407
 31
0.0
  0
LINE
  5
274E0
  8
SU
 10
564.56718690165189
 20
778.24077860380396
 30
0.0
 11
564.56718690165189
 21
766.24077860380396
 31
0.0
  0
LINE
  5
274E1
  8
SU
 10
554.63491484621909
 20
772.28141537054466
 30
0.0
 11
554.63491484621909
 21
772.20014183706371
 31
0.0
  0
LINE
  5
274E2
  8
SU
 10
554.83491484621891
 20
772.40141537054456
 30
0.0
 11
554.83491484621891
 21
772.08014183706382
 31
0.0
  0
LINE
  5
274E3
  8
SU
 10
555.03491484621907
 20
772.52141537054456
 30
0.0
 11
555.03491484621907
 21
771.9601418370637
 31
0.0
  0
LINE
  5
274E4
  8
SU
 10
555.234914846219
 20
772.64141537054445
 30
0.0
 11
555.234914846219
 21
771.84014183706347
 31
0.0
  0
LINE
  5
274E5
  8
SU
 10
555.43491484621916
 20
772.76141537054446
 30
0.0
 11
555.43491484621916
 21
771.72014183706369
 31
0.0
  0
LINE
  5
274E6
  8
SU
 10
555.63491484621898
 20
772.88141537054446
 30
0.0
 11
555.63491484621898
 21
771.6001418370638
 31
0.0
  0
LINE
  5
274E7
  8
SU
 10
555.83491484621879
 20
773.00141537054469
 30
0.0
 11
555.83491484621879
 21
771.48014183706368
 31
0.0
  0
LINE
  5
274E8
  8
SU
 10
556.03491484621918
 20
773.12141537054458
 30
0.0
 11
556.03491484621918
 21
771.36014183706345
 31
0.0
  0
LINE
  5
274E9
  8
SU
 10
556.234914846219
 20
773.24141537054447
 30
0.0
 11
556.234914846219
 21
771.24014183706356
 31
0.0
  0
LINE
  5
274EA
  8
SU
 10
556.43491484621916
 20
773.36141537054436
 30
0.0
 11
556.43491484621916
 21
771.12014183706367
 31
0.0
  0
LINE
  5
274EB
  8
SU
 10
556.63491484621898
 20
773.48141537054471
 30
0.0
 11
556.63491484621898
 21
771.00014183706355
 31
0.0
  0
LINE
  5
274EC
  8
SU
 10
556.83491484621879
 20
773.6014153705446
 30
0.0
 11
556.83491484621879
 21
770.88014183706355
 31
0.0
  0
LINE
  5
274ED
  8
SU
 10
557.03491484621918
 20
773.72141537054449
 30
0.0
 11
557.03491484621918
 21
770.76014183706366
 31
0.0
  0
LINE
  5
274EE
  8
SU
 10
557.234914846219
 20
773.84141537054461
 30
0.0
 11
557.234914846219
 21
770.64014183706377
 31
0.0
  0
LINE
  5
274EF
  8
SU
 10
557.43491484621916
 20
773.9614153705445
 30
0.0
 11
557.43491484621916
 21
770.52014183706365
 31
0.0
  0
LINE
  5
274F0
  8
SU
 10
557.63491484621909
 20
774.08141537054462
 30
0.0
 11
557.63491484621909
 21
770.40014183706376
 31
0.0
  0
LINE
  5
274F1
  8
SU
 10
557.83491484621891
 20
774.2014153705444
 30
0.0
 11
557.83491484621891
 21
770.28014183706364
 31
0.0
  0
LINE
  5
274F2
  8
SU
 10
558.03491484621907
 20
774.32141537054463
 30
0.0
 11
558.03491484621907
 21
770.16014183706375
 31
0.0
  0
LINE
  5
274F3
  8
SU
 10
558.23491484621889
 20
774.44141537054452
 30
0.0
 11
558.23491484621889
 21
770.04014183706363
 31
0.0
  0
LINE
  5
274F4
  8
SU
 10
558.43491484621927
 20
774.56141537054464
 30
0.0
 11
558.43491484621927
 21
769.92014183706374
 31
0.0
  0
LINE
  5
274F5
  8
SU
 10
558.63491484621909
 20
774.68141537054453
 30
0.0
 11
558.63491484621909
 21
769.80014183706362
 31
0.0
  0
LINE
  5
274F6
  8
SU
 10
558.83491484621891
 20
774.80141537054442
 30
0.0
 11
558.83491484621891
 21
769.68014183706373
 31
0.0
  0
LINE
  5
274F7
  8
SU
 10
559.03491484621907
 20
774.92141537054454
 30
0.0
 11
559.03491484621907
 21
769.56014183706361
 31
0.0
  0
LINE
  5
274F8
  8
SU
 10
559.23491484621889
 20
775.04141537054466
 30
0.0
 11
559.23491484621889
 21
769.44014183706372
 31
0.0
  0
LINE
  5
274F9
  8
SU
 10
559.43491484621916
 20
775.16141537054455
 30
0.0
 11
559.43491484621916
 21
769.3201418370636
 31
0.0
  0
LINE
  5
274FA
  8
SU
 10
559.63491484621909
 20
775.28141537054455
 30
0.0
 11
559.63491484621909
 21
769.20014183706371
 31
0.0
  0
LINE
  5
274FB
  8
SU
 10
559.83491484621891
 20
775.40141537054456
 30
0.0
 11
559.83491484621891
 21
769.08014183706382
 31
0.0
  0
LINE
  5
274FC
  8
SU
 10
560.03491484621918
 20
775.52141537054467
 30
0.0
 11
560.03491484621918
 21
768.9601418370637
 31
0.0
  0
LINE
  5
274FD
  8
SU
 10
560.234914846219
 20
775.64141537054456
 30
0.0
 11
560.234914846219
 21
768.84014183706347
 31
0.0
  0
LINE
  5
274FE
  8
SU
 10
560.43491484621916
 20
775.76141537054446
 30
0.0
 11
560.43491484621916
 21
768.72014183706358
 31
0.0
  0
LINE
  5
274FF
  8
SU
 10
560.63491484621898
 20
775.88141537054446
 30
0.0
 11
560.63491484621898
 21
768.60014183706369
 31
0.0
  0
LINE
  5
27500
  8
SU
 10
560.83491484621879
 20
776.00141537054469
 30
0.0
 11
560.83491484621879
 21
768.48014183706368
 31
0.0
  0
LINE
  5
27501
  8
SU
 10
561.03491484621918
 20
776.12141537054458
 30
0.0
 11
561.03491484621918
 21
768.36014183706357
 31
0.0
  0
LINE
  5
27502
  8
SU
 10
561.234914846219
 20
776.24141537054436
 30
0.0
 11
561.234914846219
 21
768.24014183706367
 31
0.0
  0
LINE
  5
27503
  8
SU
 10
561.43491484621916
 20
776.36141537054425
 30
0.0
 11
561.43491484621916
 21
768.12014183706378
 31
0.0
  0
LINE
  5
27504
  8
SU
 10
561.63491484621898
 20
776.4814153705446
 30
0.0
 11
561.63491484621898
 21
768.00014183706355
 31
0.0
  0
LINE
  5
27505
  8
SU
 10
561.83491484621891
 20
776.60141537054449
 30
0.0
 11
561.83491484621891
 21
767.88014183706355
 31
0.0
  0
LINE
  5
27506
  8
SU
 10
562.03491484621907
 20
776.72141537054438
 30
0.0
 11
562.03491484621907
 21
767.76014183706366
 31
0.0
  0
LINE
  5
27507
  8
SU
 10
562.23491484621889
 20
776.84141537054461
 30
0.0
 11
562.23491484621889
 21
767.64014183706365
 31
0.0
  0
LINE
  5
27508
  8
SU
 10
562.43491484621927
 20
776.9614153705445
 30
0.0
 11
562.43491484621927
 21
767.52014183706365
 31
0.0
  0
LINE
  5
27509
  8
SU
 10
562.63491484621909
 20
777.08141537054462
 30
0.0
 11
562.63491484621909
 21
767.40014183706376
 31
0.0
  0
LINE
  5
2750A
  8
SU
 10
562.83491484621891
 20
777.20141537054451
 30
0.0
 11
562.83491484621891
 21
767.28014183706364
 31
0.0
  0
LINE
  5
2750B
  8
SU
 10
563.03491484621907
 20
777.32141537054463
 30
0.0
 11
563.03491484621907
 21
767.16014183706375
 31
0.0
  0
LINE
  5
2750C
  8
SU
 10
563.23491484621889
 20
777.44141537054441
 30
0.0
 11
563.23491484621889
 21
767.04014183706363
 31
0.0
  0
LINE
  5
2750D
  8
SU
 10
563.43491484621927
 20
777.56141537054464
 30
0.0
 11
563.43491484621927
 21
766.92014183706374
 31
0.0
  0
LINE
  5
2750E
  8
SU
 10
563.63491484621909
 20
777.68141537054453
 30
0.0
 11
563.63491484621909
 21
766.80014183706362
 31
0.0
  0
LINE
  5
2750F
  8
SU
 10
563.83491484621891
 20
777.80141537054442
 30
0.0
 11
563.83491484621891
 21
766.68014183706373
 31
0.0
  0
LINE
  5
27510
  8
SU
 10
564.03491484621907
 20
777.92141537054454
 30
0.0
 11
564.03491484621907
 21
766.56014183706361
 31
0.0
  0
LINE
  5
27511
  8
SU
 10
564.234914846219
 20
778.04141537054466
 30
0.0
 11
564.234914846219
 21
766.44014183706372
 31
0.0
  0
LINE
  5
27512
  8
SU
 10
564.43491484621916
 20
778.16141537054455
 30
0.0
 11
564.43491484621916
 21
766.32014183706349
 31
0.0
  0
LINE
  5
27513
  8
SU
 10
563.56718690165178
 20
752.24077860380453
 30
0.0
 11
554.56718690165178
 21
752.24077860380453
 31
0.0
  0
LINE
  5
27516
  8
SU
 10
563.56718690165178
 20
698.92661240120151
 30
0.0
 11
563.56718690165178
 21
755.24077860380396
 31
0.0
  0
LINE
  5
27517
  8
SU
 10
738.06718690165178
 20
698.9266124012031
 30
0.0
 11
738.06718690165178
 21
755.24077860380396
 31
0.0
  0
LINE
  5
27518
  8
SU
 10
563.56718690165178
 20
752.24077860380407
 30
0.0
 11
738.06718690165178
 21
752.24077860380407
 31
0.0
  0
LINE
  5
2751C
  8
SU
 10
1018.0671881351039
 20
701.92661347754654
 30
0.0
 11
1018.0671881351039
 21
775.24077860380396
 31
0.0
  0
LINE
  5
2751D
  8
SU
 10
554.56718690165178
 20
723.4266133529311
 30
0.0
 11
554.56718690165178
 21
775.24077860380396
 31
0.0
  0
LINE
  5
2751E
  8
SU
 10
1018.0671881351039
 20
772.24077860380407
 30
0.0
 11
554.56718690165178
 21
772.24077860380407
 31
0.0
  0
LINE
  5
27520
  8
SU
 10
841.06718690165235
 20
591.92661430465932
 30
0.0
 11
841.06718690165235
 21
549.71366894745574
 31
0.0
  0
LINE
  5
27521
  8
SU
 10
876.06718690165235
 20
627.92661335292826
 30
0.0
 11
876.06718690165235
 21
549.71366894745574
 31
0.0
  0
LINE
  5
27522
  8
SU
 10
841.06718690165235
 20
552.71366894745574
 30
0.0
 11
876.06718690165235
 21
552.71366894745574
 31
0.0
  0
LINE
  5
27526
  8
SU
 10
810.67236142334889
 20
661.92661240120287
 30
0.0
 11
810.67236142334889
 21
664.92661335292814
 31
0.0
  0
LINE
  5
27528
  8
SU
 10
739.06718690165189
 20
697.92661240120299
 30
0.0
 11
813.67236142334866
 21
697.92661240120287
 31
0.0
  0
LINE
  5
27529
  8
SU
 10
739.06718690165189
 20
664.92661335292826
 30
0.0
 11
813.67236142334866
 21
664.92661335292814
 31
0.0
  0
LINE
  5
2752A
  8
SU
 10
810.67236142334866
 20
697.92661240120287
 30
0.0
 11
810.67236142334866
 21
664.92661335292814
 31
0.0
  0
LINE
  5
2752E
  8
SU
 10
840.06718690165235
 20
625.92661335293406
 30
0.0
 11
807.67236142334878
 21
625.92661335293406
 31
0.0
  0
LINE
  5
2752F
  8
SU
 10
840.17236142334934
 20
592.92661430465932
 30
0.0
 11
807.67236142334878
 21
592.92661430465932
 31
0.0
  0
LINE
  5
27530
  8
SU
 10
810.67236142334866
 20
625.92661335293406
 30
0.0
 11
810.67236142334866
 21
592.92661430465932
 31
0.0
  0
LINE
  5
27534
  8
SU
 10
810.67236142334889
 20
628.92661335292814
 30
0.0
 11
810.67236142334889
 21
625.9266133529394
 31
0.0
  0
LINE
  5
27536
  8
SU
 10
739.06718690165189
 20
628.92661335292837
 30
0.0
 11
813.67236142334866
 21
628.92661335292814
 31
0.0
  0
LINE
  5
27537
  8
SU
 10
739.06718690165189
 20
661.9266124012031
 30
0.0
 11
813.67236142334866
 21
661.92661240120287
 31
0.0
  0
LINE
  5
27538
  8
SU
 10
810.67236142334866
 20
628.92661335292814
 30
0.0
 11
810.67236142334866
 21
661.92661240120287
 31
0.0
  0
LINE
  5
2753C
  8
SU
 10
1112.6961116036071
 20
579.92661347754654
 30
0.0
 11
1106.6961116036071
 21
589.92661347754654
 31
0.0
  0
LINE
  5
2753D
  8
SU
 10
1100.6961116036071
 20
579.92661347754654
 30
0.0
 11
1106.6961116036071
 21
589.92661347754654
 31
0.0
  0
LINE
  5
2753E
  8
SU
 10
1112.6961116036071
 20
579.92661347754654
 30
0.0
 11
1100.6961116036071
 21
579.92661347754654
 31
0.0
  0
LINE
  5
2753F
  8
SU
 10
1106.736748370347
 20
589.85888553297934
 30
0.0
 11
1106.655474836866
 21
589.85888553297934
 31
0.0
  0
LINE
  5
27540
  8
SU
 10
1106.8567483703471
 20
589.65888553297941
 30
0.0
 11
1106.5354748368659
 21
589.65888553297941
 31
0.0
  0
LINE
  5
27541
  8
SU
 10
1106.976748370347
 20
589.45888553297925
 30
0.0
 11
1106.415474836866
 21
589.45888553297925
 31
0.0
  0
LINE
  5
27542
  8
SU
 10
1107.0967483703471
 20
589.25888553297943
 30
0.0
 11
1106.2954748368661
 21
589.25888553297943
 31
0.0
  0
LINE
  5
27543
  8
SU
 10
1107.216748370347
 20
589.05888553297916
 30
0.0
 11
1106.175474836866
 21
589.05888553297916
 31
0.0
  0
LINE
  5
27544
  8
SU
 10
1107.3367483703471
 20
588.85888553297934
 30
0.0
 11
1106.0554748368661
 21
588.85888553297934
 31
0.0
  0
LINE
  5
27545
  8
SU
 10
1107.456748370347
 20
588.65888553297953
 30
0.0
 11
1105.935474836866
 21
588.65888553297953
 31
0.0
  0
LINE
  5
27546
  8
SU
 10
1107.5767483703471
 20
588.45888553297925
 30
0.0
 11
1105.8154748368661
 21
588.45888553297925
 31
0.0
  0
LINE
  5
27547
  8
SU
 10
1107.696748370347
 20
588.25888553297943
 30
0.0
 11
1105.695474836866
 21
588.25888553297943
 31
0.0
  0
LINE
  5
27548
  8
SU
 10
1107.8167483703471
 20
588.05888553297905
 30
0.0
 11
1105.5754748368661
 21
588.05888553297905
 31
0.0
  0
LINE
  5
27549
  8
SU
 10
1107.936748370347
 20
587.85888553297934
 30
0.0
 11
1105.455474836866
 21
587.85888553297934
 31
0.0
  0
LINE
  5
2754A
  8
SU
 10
1108.0567483703469
 20
587.65888553297953
 30
0.0
 11
1105.3354748368661
 21
587.65888553297953
 31
0.0
  0
LINE
  5
2754B
  8
SU
 10
1108.176748370347
 20
587.45888553297925
 30
0.0
 11
1105.215474836866
 21
587.45888553297925
 31
0.0
  0
LINE
  5
2754C
  8
SU
 10
1108.2967483703469
 20
587.25888553297943
 30
0.0
 11
1105.0954748368661
 21
587.25888553297943
 31
0.0
  0
LINE
  5
2754D
  8
SU
 10
1108.416748370347
 20
587.05888553297905
 30
0.0
 11
1104.9754748368659
 21
587.05888553297905
 31
0.0
  0
LINE
  5
2754E
  8
SU
 10
1108.5367483703469
 20
586.85888553297934
 30
0.0
 11
1104.8554748368661
 21
586.85888553297934
 31
0.0
  0
LINE
  5
2754F
  8
SU
 10
1108.656748370347
 20
586.65888553297953
 30
0.0
 11
1104.7354748368659
 21
586.65888553297953
 31
0.0
  0
LINE
  5
27550
  8
SU
 10
1108.7767483703469
 20
586.45888553297925
 30
0.0
 11
1104.615474836866
 21
586.45888553297925
 31
0.0
  0
LINE
  5
27551
  8
SU
 10
1108.896748370347
 20
586.25888553297943
 30
0.0
 11
1104.4954748368659
 21
586.25888553297943
 31
0.0
  0
LINE
  5
27552
  8
SU
 10
1109.0167483703469
 20
586.05888553297905
 30
0.0
 11
1104.375474836866
 21
586.05888553297905
 31
0.0
  0
LINE
  5
27553
  8
SU
 10
1109.136748370347
 20
585.85888553297934
 30
0.0
 11
1104.2554748368659
 21
585.85888553297934
 31
0.0
  0
LINE
  5
27554
  8
SU
 10
1109.2567483703469
 20
585.65888553297953
 30
0.0
 11
1104.135474836866
 21
585.65888553297953
 31
0.0
  0
LINE
  5
27555
  8
SU
 10
1109.3767483703471
 20
585.45888553297925
 30
0.0
 11
1104.0154748368659
 21
585.45888553297925
 31
0.0
  0
LINE
  5
27556
  8
SU
 10
1109.4967483703469
 20
585.25888553297943
 30
0.0
 11
1103.895474836866
 21
585.25888553297943
 31
0.0
  0
LINE
  5
27557
  8
SU
 10
1109.6167483703471
 20
585.05888553297916
 30
0.0
 11
1103.7754748368659
 21
585.05888553297916
 31
0.0
  0
LINE
  5
27558
  8
SU
 10
1109.736748370347
 20
584.85888553297934
 30
0.0
 11
1103.655474836866
 21
584.85888553297934
 31
0.0
  0
LINE
  5
27559
  8
SU
 10
1109.8567483703471
 20
584.65888553297953
 30
0.0
 11
1103.5354748368659
 21
584.65888553297953
 31
0.0
  0
LINE
  5
2755A
  8
SU
 10
1109.976748370347
 20
584.45888553297925
 30
0.0
 11
1103.415474836866
 21
584.45888553297925
 31
0.0
  0
LINE
  5
2755B
  8
SU
 10
1110.0967483703471
 20
584.25888553297943
 30
0.0
 11
1103.2954748368661
 21
584.25888553297943
 31
0.0
  0
LINE
  5
2755C
  8
SU
 10
1110.216748370347
 20
584.05888553297905
 30
0.0
 11
1103.175474836866
 21
584.05888553297905
 31
0.0
  0
LINE
  5
2755D
  8
SU
 10
1110.3367483703471
 20
583.85888553297934
 30
0.0
 11
1103.0554748368661
 21
583.85888553297934
 31
0.0
  0
LINE
  5
2755E
  8
SU
 10
1110.456748370347
 20
583.65888553297953
 30
0.0
 11
1102.935474836866
 21
583.65888553297953
 31
0.0
  0
LINE
  5
2755F
  8
SU
 10
1110.5767483703471
 20
583.45888553297925
 30
0.0
 11
1102.8154748368661
 21
583.45888553297925
 31
0.0
  0
LINE
  5
27560
  8
SU
 10
1110.696748370347
 20
583.25888553297943
 30
0.0
 11
1102.695474836866
 21
583.25888553297943
 31
0.0
  0
LINE
  5
27561
  8
SU
 10
1110.8167483703471
 20
583.05888553297905
 30
0.0
 11
1102.5754748368661
 21
583.05888553297905
 31
0.0
  0
LINE
  5
27562
  8
SU
 10
1110.936748370347
 20
582.85888553297934
 30
0.0
 11
1102.455474836866
 21
582.85888553297934
 31
0.0
  0
LINE
  5
27563
  8
SU
 10
1111.0567483703469
 20
582.65888553297953
 30
0.0
 11
1102.3354748368661
 21
582.65888553297953
 31
0.0
  0
LINE
  5
27564
  8
SU
 10
1111.176748370347
 20
582.45888553297925
 30
0.0
 11
1102.215474836866
 21
582.45888553297925
 31
0.0
  0
LINE
  5
27565
  8
SU
 10
1111.2967483703469
 20
582.25888553297943
 30
0.0
 11
1102.0954748368661
 21
582.25888553297943
 31
0.0
  0
LINE
  5
27566
  8
SU
 10
1111.416748370347
 20
582.05888553297905
 30
0.0
 11
1101.9754748368659
 21
582.05888553297905
 31
0.0
  0
LINE
  5
27567
  8
SU
 10
1111.5367483703469
 20
581.85888553297934
 30
0.0
 11
1101.8554748368661
 21
581.85888553297934
 31
0.0
  0
LINE
  5
27568
  8
SU
 10
1111.656748370347
 20
581.65888553297953
 30
0.0
 11
1101.7354748368659
 21
581.65888553297953
 31
0.0
  0
LINE
  5
27569
  8
SU
 10
1111.7767483703469
 20
581.45888553297925
 30
0.0
 11
1101.615474836866
 21
581.45888553297925
 31
0.0
  0
LINE
  5
2756A
  8
SU
 10
1111.896748370347
 20
581.25888553297943
 30
0.0
 11
1101.4954748368659
 21
581.25888553297943
 31
0.0
  0
LINE
  5
2756B
  8
SU
 10
1112.0167483703469
 20
581.05888553297905
 30
0.0
 11
1101.375474836866
 21
581.05888553297905
 31
0.0
  0
LINE
  5
2756C
  8
SU
 10
1112.136748370347
 20
580.85888553297934
 30
0.0
 11
1101.2554748368659
 21
580.85888553297934
 31
0.0
  0
LINE
  5
2756D
  8
SU
 10
1112.2567483703469
 20
580.65888553297953
 30
0.0
 11
1101.135474836866
 21
580.65888553297953
 31
0.0
  0
LINE
  5
2756E
  8
SU
 10
1112.3767483703471
 20
580.45888553297925
 30
0.0
 11
1101.0154748368659
 21
580.45888553297925
 31
0.0
  0
LINE
  5
2756F
  8
SU
 10
1112.4967483703469
 20
580.25888553297943
 30
0.0
 11
1100.895474836866
 21
580.25888553297943
 31
0.0
  0
LINE
  5
27570
  8
SU
 10
1112.6167483703471
 20
580.05888553297905
 30
0.0
 11
1100.7754748368659
 21
580.05888553297905
 31
0.0
  0
LINE
  5
27571
  8
SU
 10
1112.6961116036071
 20
216.92661430465949
 30
0.0
 11
1106.6961116036071
 21
206.92661430465961
 31
0.0
  0
LINE
  5
27572
  8
SU
 10
1100.6961116036071
 20
216.92661430465949
 30
0.0
 11
1106.6961116036071
 21
206.92661430465961
 31
0.0
  0
LINE
  5
27573
  8
SU
 10
1112.6961116036071
 20
216.92661430465949
 30
0.0
 11
1100.6961116036071
 21
216.92661430465949
 31
0.0
  0
LINE
  5
27574
  8
SU
 10
1106.736748370347
 20
206.9943422492268
 30
0.0
 11
1106.655474836866
 21
206.9943422492268
 31
0.0
  0
LINE
  5
27575
  8
SU
 10
1106.8567483703471
 20
207.19434224922659
 30
0.0
 11
1106.5354748368659
 21
207.19434224922659
 31
0.0
  0
LINE
  5
27576
  8
SU
 10
1106.976748370347
 20
207.3943422492269
 30
0.0
 11
1106.415474836866
 21
207.3943422492269
 31
0.0
  0
LINE
  5
27577
  8
SU
 10
1107.0967483703471
 20
207.59434224922671
 30
0.0
 11
1106.2954748368661
 21
207.59434224922671
 31
0.0
  0
LINE
  5
27578
  8
SU
 10
1107.216748370347
 20
207.7943422492269
 30
0.0
 11
1106.175474836866
 21
207.7943422492269
 31
0.0
  0
LINE
  5
27579
  8
SU
 10
1107.3367483703471
 20
207.99434224922669
 30
0.0
 11
1106.0554748368661
 21
207.99434224922669
 31
0.0
  0
LINE
  5
2757A
  8
SU
 10
1107.456748370347
 20
208.19434224922651
 30
0.0
 11
1105.935474836866
 21
208.19434224922651
 31
0.0
  0
LINE
  5
2757B
  8
SU
 10
1107.5767483703471
 20
208.39434224922681
 30
0.0
 11
1105.8154748368661
 21
208.39434224922681
 31
0.0
  0
LINE
  5
2757C
  8
SU
 10
1107.696748370347
 20
208.5943422492266
 30
0.0
 11
1105.695474836866
 21
208.5943422492266
 31
0.0
  0
LINE
  5
2757D
  8
SU
 10
1107.8167483703471
 20
208.7943422492269
 30
0.0
 11
1105.5754748368661
 21
208.7943422492269
 31
0.0
  0
LINE
  5
2757E
  8
SU
 10
1107.936748370347
 20
208.9943422492268
 30
0.0
 11
1105.455474836866
 21
208.9943422492268
 31
0.0
  0
LINE
  5
2757F
  8
SU
 10
1108.0567483703469
 20
209.19434224922659
 30
0.0
 11
1105.3354748368661
 21
209.19434224922659
 31
0.0
  0
LINE
  5
27580
  8
SU
 10
1108.176748370347
 20
209.3943422492269
 30
0.0
 11
1105.215474836866
 21
209.3943422492269
 31
0.0
  0
LINE
  5
27581
  8
SU
 10
1108.2967483703469
 20
209.59434224922671
 30
0.0
 11
1105.0954748368661
 21
209.59434224922671
 31
0.0
  0
LINE
  5
27582
  8
SU
 10
1108.416748370347
 20
209.7943422492269
 30
0.0
 11
1104.9754748368659
 21
209.7943422492269
 31
0.0
  0
LINE
  5
27583
  8
SU
 10
1108.5367483703469
 20
209.99434224922669
 30
0.0
 11
1104.8554748368661
 21
209.99434224922669
 31
0.0
  0
LINE
  5
27584
  8
SU
 10
1108.656748370347
 20
210.19434224922651
 30
0.0
 11
1104.7354748368659
 21
210.19434224922651
 31
0.0
  0
LINE
  5
27585
  8
SU
 10
1108.7767483703469
 20
210.39434224922681
 30
0.0
 11
1104.615474836866
 21
210.39434224922681
 31
0.0
  0
LINE
  5
27586
  8
SU
 10
1108.896748370347
 20
210.5943422492266
 30
0.0
 11
1104.4954748368659
 21
210.5943422492266
 31
0.0
  0
LINE
  5
27587
  8
SU
 10
1109.0167483703469
 20
210.7943422492269
 30
0.0
 11
1104.375474836866
 21
210.7943422492269
 31
0.0
  0
LINE
  5
27588
  8
SU
 10
1109.136748370347
 20
210.99434224922669
 30
0.0
 11
1104.2554748368659
 21
210.99434224922669
 31
0.0
  0
LINE
  5
27589
  8
SU
 10
1109.2567483703469
 20
211.19434224922659
 30
0.0
 11
1104.135474836866
 21
211.19434224922659
 31
0.0
  0
LINE
  5
2758A
  8
SU
 10
1109.3767483703471
 20
211.3943422492269
 30
0.0
 11
1104.0154748368659
 21
211.3943422492269
 31
0.0
  0
LINE
  5
2758B
  8
SU
 10
1109.4967483703469
 20
211.59434224922671
 30
0.0
 11
1103.895474836866
 21
211.59434224922671
 31
0.0
  0
LINE
  5
2758C
  8
SU
 10
1109.6167483703471
 20
211.7943422492269
 30
0.0
 11
1103.7754748368659
 21
211.7943422492269
 31
0.0
  0
LINE
  5
2758D
  8
SU
 10
1109.736748370347
 20
211.99434224922669
 30
0.0
 11
1103.655474836866
 21
211.99434224922669
 31
0.0
  0
LINE
  5
2758E
  8
SU
 10
1109.8567483703471
 20
212.19434224922651
 30
0.0
 11
1103.5354748368659
 21
212.19434224922651
 31
0.0
  0
LINE
  5
2758F
  8
SU
 10
1109.976748370347
 20
212.39434224922681
 30
0.0
 11
1103.415474836866
 21
212.39434224922681
 31
0.0
  0
LINE
  5
27590
  8
SU
 10
1110.0967483703471
 20
212.5943422492266
 30
0.0
 11
1103.2954748368661
 21
212.5943422492266
 31
0.0
  0
LINE
  5
27591
  8
SU
 10
1110.216748370347
 20
212.7943422492269
 30
0.0
 11
1103.175474836866
 21
212.7943422492269
 31
0.0
  0
LINE
  5
27592
  8
SU
 10
1110.3367483703471
 20
212.99434224922669
 30
0.0
 11
1103.0554748368661
 21
212.99434224922669
 31
0.0
  0
LINE
  5
27593
  8
SU
 10
1110.456748370347
 20
213.19434224922659
 30
0.0
 11
1102.935474836866
 21
213.19434224922659
 31
0.0
  0
LINE
  5
27594
  8
SU
 10
1110.5767483703471
 20
213.3943422492269
 30
0.0
 11
1102.8154748368661
 21
213.3943422492269
 31
0.0
  0
LINE
  5
27595
  8
SU
 10
1110.696748370347
 20
213.59434224922671
 30
0.0
 11
1102.695474836866
 21
213.59434224922671
 31
0.0
  0
LINE
  5
27596
  8
SU
 10
1110.8167483703471
 20
213.7943422492269
 30
0.0
 11
1102.5754748368661
 21
213.7943422492269
 31
0.0
  0
LINE
  5
27597
  8
SU
 10
1110.936748370347
 20
213.99434224922669
 30
0.0
 11
1102.455474836866
 21
213.99434224922669
 31
0.0
  0
LINE
  5
27598
  8
SU
 10
1111.0567483703469
 20
214.19434224922651
 30
0.0
 11
1102.3354748368661
 21
214.19434224922651
 31
0.0
  0
LINE
  5
27599
  8
SU
 10
1111.176748370347
 20
214.39434224922681
 30
0.0
 11
1102.215474836866
 21
214.39434224922681
 31
0.0
  0
LINE
  5
2759A
  8
SU
 10
1111.2967483703469
 20
214.5943422492266
 30
0.0
 11
1102.0954748368661
 21
214.5943422492266
 31
0.0
  0
LINE
  5
2759B
  8
SU
 10
1111.416748370347
 20
214.7943422492269
 30
0.0
 11
1101.9754748368659
 21
214.7943422492269
 31
0.0
  0
LINE
  5
2759C
  8
SU
 10
1111.5367483703469
 20
214.99434224922669
 30
0.0
 11
1101.8554748368661
 21
214.99434224922669
 31
0.0
  0
LINE
  5
2759D
  8
SU
 10
1111.656748370347
 20
215.19434224922659
 30
0.0
 11
1101.7354748368659
 21
215.19434224922659
 31
0.0
  0
LINE
  5
2759E
  8
SU
 10
1111.7767483703469
 20
215.39434224922681
 30
0.0
 11
1101.615474836866
 21
215.39434224922681
 31
0.0
  0
LINE
  5
2759F
  8
SU
 10
1111.896748370347
 20
215.59434224922671
 30
0.0
 11
1101.4954748368659
 21
215.59434224922671
 31
0.0
  0
LINE
  5
275A0
  8
SU
 10
1112.0167483703469
 20
215.79434224922699
 30
0.0
 11
1101.375474836866
 21
215.79434224922699
 31
0.0
  0
LINE
  5
275A1
  8
SU
 10
1112.136748370347
 20
215.9943422492268
 30
0.0
 11
1101.2554748368659
 21
215.9943422492268
 31
0.0
  0
LINE
  5
275A2
  8
SU
 10
1112.2567483703469
 20
216.19434224922659
 30
0.0
 11
1101.135474836866
 21
216.19434224922659
 31
0.0
  0
LINE
  5
275A3
  8
SU
 10
1112.3767483703471
 20
216.39434224922681
 30
0.0
 11
1101.0154748368659
 21
216.39434224922681
 31
0.0
  0
LINE
  5
275A4
  8
SU
 10
1112.4967483703469
 20
216.5943422492266
 30
0.0
 11
1100.895474836866
 21
216.5943422492266
 31
0.0
  0
LINE
  5
275A5
  8
SU
 10
1112.6167483703471
 20
216.7943422492269
 30
0.0
 11
1100.7754748368659
 21
216.7943422492269
 31
0.0
  0
LINE
  5
275A6
  8
SU
 10
915.06718785338398
 20
206.92661430465969
 30
0.0
 11
890.12703338152744
 21
206.92661430465969
 31
0.0
  0
LINE
  5
275A7
  8
SU
 10
893.12703338152755
 20
215.92661430465819
 30
0.0
 11
893.12703338152755
 21
206.92661430465969
 31
0.0
  0
LINE
  5
275AA
  8
SU
 10
1016.567186901656
 20
587.42661430465932
 30
0.0
 11
1089.6961116036071
 21
587.42661430465932
 31
0.0
  0
LINE
  5
275AB
  8
SU
 10
1086.6961116036071
 20
589.92661347754654
 30
0.0
 11
1086.6961116036071
 21
608.9999476379927
 31
0.0
  0
LINE
  5
275AC
  8
SU
 10
1086.6961116036071
 20
587.42661430465932
 30
0.0
 11
1086.6961116036071
 21
546.25994763799247
 31
0.0
  0
LINE
  5
275AD
  8
SU
 10
1086.6961116036071
 20
589.92661347754654
 30
0.0
 11
1086.6961116036071
 21
587.42661430465932
 31
0.0
  0
LINE
  5
275B0
  8
SU
 10
982.56718690165587
 20
419.92661430465859
 30
0.0
 11
982.56718690165587
 21
457.92661430465859
 31
0.0
  0
LINE
  5
275B1
  8
SU
 10
1015.567185949925
 20
419.92661430465859
 30
0.0
 11
1015.567185949925
 21
457.92661430465859
 31
0.0
  0
LINE
  5
275B2
  8
SU
 10
982.56718690165587
 20
454.92661430465859
 30
0.0
 11
1015.567185949925
 21
454.92661430465859
 31
0.0
  0
LINE
  5
275B6
  8
SU
 10
979.5671878533866
 20
454.92661430465893
 30
0.0
 11
982.56718690165042
 21
454.92661430465893
 31
0.0
  0
LINE
  5
275B8
  8
SU
 10
979.5671878533866
 20
419.92661430465881
 30
0.0
 11
979.5671878533866
 21
457.92661430465881
 31
0.0
  0
LINE
  5
275B9
  8
SU
 10
946.56718880511187
 20
419.92661430465881
 30
0.0
 11
946.56718880511187
 21
457.92661430465881
 31
0.0
  0
LINE
  5
275BA
  8
SU
 10
979.5671878533866
 20
454.92661430465893
 30
0.0
 11
946.56718880511187
 21
454.92661430465893
 31
0.0
  0
LINE
  5
275BE
  8
SU
 10
945.56718880511391
 20
215.92661430465819
 30
0.0
 11
890.12703338152744
 21
215.92661430465819
 31
0.0
  0
LINE
  5
275BF
  8
SU
 10
945.56718880511391
 20
418.92661430465881
 30
0.0
 11
890.12703338152744
 21
418.92661430465893
 31
0.0
  0
LINE
  5
275C0
  8
SU
 10
893.12703338152733
 20
215.92661430465819
 30
0.0
 11
893.12703338152755
 21
418.92661430465893
 31
0.0
  0
LINE
  5
275C4
  8
SU
 10
1106.6961116036071
 20
589.92661347754654
 30
0.0
 11
1106.6961116036059
 21
206.92661430465949
 31
0.0
  0
LINE
  5
275C6
  8
SU
 10
466.87789582150111
 20
103.4746668585193
 30
0.0
 11
466.87789582150111
 21
68.434950554047873
 31
0.0
  0
LINE
  5
275C7
  8
SU
 10
540.87789582150117
 20
103.47466685852049
 30
0.0
 11
540.87789582150117
 21
68.434950554047873
 31
0.0
  0
LINE
  5
275C8
  8
SU
 10
466.87789582150111
 20
71.434950554047873
 30
0.0
 11
540.87789582150117
 21
71.434950554047873
 31
0.0
  0
LINE
  5
275CC
  8
SU
 10
118.3587869456651
 20
103.4746648657997
 30
0.0
 11
118.3587869456651
 21
68.474664865799696
 31
0.0
  0
LINE
  5
275CD
  8
SU
 10
229.35878694566509
 20
103.4746648657997
 30
0.0
 11
229.35878694566509
 21
68.474664865799696
 31
0.0
  0
LINE
  5
275CE
  8
SU
 10
118.3587869456651
 20
71.474664865799696
 30
0.0
 11
229.35878694566509
 21
71.474664865799696
 31
0.0
  0
LINE
  5
275D2
  8
SU
 10
333.85884392836817
 20
113.4746648657994
 30
0.0
 11
333.85884392836817
 21
104.4746648657997
 31
0.0
  0
LINE
  5
275D5
  8
SU
 10
121.35878694559641
 20
329.97466526678352
 30
0.0
 11
121.35878694559641
 21
310.97466526678261
 31
0.0
  0
LINE
  5
275D6
  8
SU
 10
154.3587945122031
 20
329.97466526678352
 30
0.0
 11
154.3587945122031
 21
310.97466526678261
 31
0.0
  0
LINE
  5
275D7
  8
SU
 10
121.35878694559641
 20
313.97466526678261
 30
0.0
 11
154.3587945122031
 21
313.97466526678261
 31
0.0
  0
LINE
  5
275DB
  8
SU
 10
502.37789582150111
 20
313.97466526678261
 30
0.0
 11
505.37788825489451
 21
313.97466526678261
 31
0.0
  0
LINE
  5
275DD
  8
SU
 10
469.37788825489451
 20
329.97466526678352
 30
0.0
 11
469.37788825489451
 21
310.97466526678261
 31
0.0
  0
LINE
  5
275DE
  8
SU
 10
502.37788825489469
 20
329.97466526678352
 30
0.0
 11
502.37788825489469
 21
310.97466526678261
 31
0.0
  0
LINE
  5
275DF
  8
SU
 10
469.37788825489451
 20
313.97466526678261
 30
0.0
 11
502.37788825489469
 21
313.97466526678261
 31
0.0
  0
LINE
  5
275E3
  8
SU
 10
359.85884392843877
 20
390.47466486470478
 30
0.0
 11
353.85884392843877
 21
400.47466486470472
 31
0.0
  0
LINE
  5
275E4
  8
SU
 10
347.85884392843877
 20
390.47466486470478
 30
0.0
 11
353.85884392843877
 21
400.47466486470472
 31
0.0
  0
LINE
  5
275E5
  8
SU
 10
359.85884392843877
 20
390.47466486470478
 30
0.0
 11
347.85884392843877
 21
390.47466486470478
 31
0.0
  0
LINE
  5
275E6
  8
SU
 10
353.89948069517942
 20
400.40693692013753
 30
0.0
 11
353.81820716169841
 21
400.40693692013753
 31
0.0
  0
LINE
  5
275E7
  8
SU
 10
354.01948069517931
 20
400.20693692013771
 30
0.0
 11
353.69820716169852
 21
400.20693692013771
 31
0.0
  0
LINE
  5
275E8
  8
SU
 10
354.13948069517937
 20
400.00693692013749
 30
0.0
 11
353.5782071616984
 21
400.00693692013749
 31
0.0
  0
LINE
  5
275E9
  8
SU
 10
354.25948069517932
 20
399.80693692013767
 30
0.0
 11
353.45820716169828
 21
399.80693692013767
 31
0.0
  0
LINE
  5
275EA
  8
SU
 10
354.37948069517921
 20
399.6069369201374
 30
0.0
 11
353.33820716169839
 21
399.6069369201374
 31
0.0
  0
LINE
  5
275EB
  8
SU
 10
354.49948069517927
 20
399.40693692013758
 30
0.0
 11
353.2182071616985
 21
399.40693692013758
 31
0.0
  0
LINE
  5
275EC
  8
SU
 10
354.61948069517939
 20
399.20693692013782
 30
0.0
 11
353.09820716169838
 21
399.20693692013782
 31
0.0
  0
LINE
  5
275ED
  8
SU
 10
354.73948069517928
 20
399.00693692013749
 30
0.0
 11
352.97820716169821
 21
399.00693692013749
 31
0.0
  0
LINE
  5
275EE
  8
SU
 10
354.85948069517917
 20
398.80693692013767
 30
0.0
 11
352.85820716169837
 21
398.80693692013767
 31
0.0
  0
LINE
  5
275EF
  8
SU
 10
354.97948069517912
 20
398.6069369201374
 30
0.0
 11
352.73820716169848
 21
398.6069369201374
 31
0.0
  0
LINE
  5
275F0
  8
SU
 10
355.09948069517941
 20
398.40693692013758
 30
0.0
 11
352.61820716169842
 21
398.40693692013758
 31
0.0
  0
LINE
  5
275F1
  8
SU
 10
355.2194806951793
 20
398.20693692013771
 30
0.0
 11
352.4982071616983
 21
398.20693692013771
 31
0.0
  0
LINE
  5
275F2
  8
SU
 10
355.33948069517919
 20
398.00693692013749
 30
0.0
 11
352.37820716169841
 21
398.00693692013749
 31
0.0
  0
LINE
  5
275F3
  8
SU
 10
355.45948069517931
 20
397.80693692013767
 30
0.0
 11
352.25820716169852
 21
397.80693692013767
 31
0.0
  0
LINE
  5
275F4
  8
SU
 10
355.5794806951792
 20
397.6069369201374
 30
0.0
 11
352.13820716169829
 21
397.6069369201374
 31
0.0
  0
LINE
  5
275F5
  8
SU
 10
355.69948069517932
 20
397.40693692013758
 30
0.0
 11
352.0182071616984
 21
397.40693692013758
 31
0.0
  0
LINE
  5
275F6
  8
SU
 10
355.81948069517921
 20
397.20693692013782
 30
0.0
 11
351.89820716169828
 21
397.20693692013782
 31
0.0
  0
LINE
  5
275F7
  8
SU
 10
355.93948069517933
 20
397.00693692013749
 30
0.0
 11
351.7782071616985
 21
397.00693692013749
 31
0.0
  0
LINE
  5
275F8
  8
SU
 10
356.05948069517922
 20
396.80693692013767
 30
0.0
 11
351.65820716169827
 21
396.80693692013767
 31
0.0
  0
LINE
  5
275F9
  8
SU
 10
356.17948069517928
 20
396.6069369201374
 30
0.0
 11
351.53820716169849
 21
396.6069369201374
 31
0.0
  0
LINE
  5
275FA
  8
SU
 10
356.29948069517923
 20
396.40693692013758
 30
0.0
 11
351.41820716169832
 21
396.40693692013758
 31
0.0
  0
LINE
  5
275FB
  8
SU
 10
356.41948069517912
 20
396.20693692013782
 30
0.0
 11
351.29820716169837
 21
396.20693692013782
 31
0.0
  0
LINE
  5
275FC
  8
SU
 10
356.53948069517918
 20
396.00693692013749
 30
0.0
 11
351.17820716169831
 21
396.00693692013749
 31
0.0
  0
LINE
  5
275FD
  8
SU
 10
356.65948069517941
 20
395.80693692013767
 30
0.0
 11
351.05820716169842
 21
395.80693692013767
 31
0.0
  0
LINE
  5
275FE
  8
SU
 10
356.7794806951793
 20
395.6069369201374
 30
0.0
 11
350.9382071616983
 21
395.6069369201374
 31
0.0
  0
LINE
  5
275FF
  8
SU
 10
356.89948069517942
 20
395.40693692013758
 30
0.0
 11
350.81820716169841
 21
395.40693692013758
 31
0.0
  0
LINE
  5
27600
  8
SU
 10
357.01948069517931
 20
395.20693692013782
 30
0.0
 11
350.69820716169852
 21
395.20693692013782
 31
0.0
  0
LINE
  5
27601
  8
SU
 10
357.13948069517937
 20
395.00693692013749
 30
0.0
 11
350.5782071616984
 21
395.00693692013749
 31
0.0
  0
LINE
  5
27602
  8
SU
 10
357.25948069517921
 20
394.80693692013767
 30
0.0
 11
350.45820716169828
 21
394.80693692013767
 31
0.0
  0
LINE
  5
27603
  8
SU
 10
357.3794806951791
 20
394.6069369201374
 30
0.0
 11
350.33820716169839
 21
394.6069369201374
 31
0.0
  0
LINE
  5
27604
  8
SU
 10
357.49948069517927
 20
394.40693692013758
 30
0.0
 11
350.2182071616985
 21
394.40693692013758
 31
0.0
  0
LINE
  5
27605
  8
SU
 10
357.61948069517939
 20
394.20693692013771
 30
0.0
 11
350.09820716169838
 21
394.20693692013771
 31
0.0
  0
LINE
  5
27606
  8
SU
 10
357.73948069517928
 20
394.00693692013749
 30
0.0
 11
349.97820716169832
 21
394.00693692013749
 31
0.0
  0
LINE
  5
27607
  8
SU
 10
357.85948069517917
 20
393.80693692013767
 30
0.0
 11
349.85820716169837
 21
393.80693692013767
 31
0.0
  0
LINE
  5
27608
  8
SU
 10
357.97948069517912
 20
393.6069369201374
 30
0.0
 11
349.73820716169848
 21
393.6069369201374
 31
0.0
  0
LINE
  5
27609
  8
SU
 10
358.09948069517941
 20
393.40693692013758
 30
0.0
 11
349.61820716169842
 21
393.40693692013758
 31
0.0
  0
LINE
  5
2760A
  8
SU
 10
358.2194806951793
 20
393.20693692013782
 30
0.0
 11
349.49820716169819
 21
393.20693692013782
 31
0.0
  0
LINE
  5
2760B
  8
SU
 10
358.33948069517919
 20
393.00693692013749
 30
0.0
 11
349.37820716169841
 21
393.00693692013749
 31
0.0
  0
LINE
  5
2760C
  8
SU
 10
358.45948069517931
 20
392.80693692013767
 30
0.0
 11
349.25820716169852
 21
392.80693692013767
 31
0.0
  0
LINE
  5
2760D
  8
SU
 10
358.5794806951792
 20
392.6069369201374
 30
0.0
 11
349.1382071616984
 21
392.6069369201374
 31
0.0
  0
LINE
  5
2760E
  8
SU
 10
358.69948069517932
 20
392.40693692013758
 30
0.0
 11
349.01820716169851
 21
392.40693692013758
 31
0.0
  0
LINE
  5
2760F
  8
SU
 10
358.81948069517921
 20
392.20693692013782
 30
0.0
 11
348.89820716169828
 21
392.20693692013782
 31
0.0
  0
LINE
  5
27610
  8
SU
 10
358.93948069517933
 20
392.00693692013749
 30
0.0
 11
348.77820716169839
 21
392.00693692013749
 31
0.0
  0
LINE
  5
27611
  8
SU
 10
359.05948069517922
 20
391.80693692013767
 30
0.0
 11
348.65820716169827
 21
391.80693692013767
 31
0.0
  0
LINE
  5
27612
  8
SU
 10
359.17948069517928
 20
391.6069369201374
 30
0.0
 11
348.53820716169838
 21
391.6069369201374
 31
0.0
  0
LINE
  5
27613
  8
SU
 10
359.29948069517923
 20
391.40693692013758
 30
0.0
 11
348.41820716169832
 21
391.40693692013758
 31
0.0
  0
LINE
  5
27614
  8
SU
 10
359.41948069517912
 20
391.20693692013782
 30
0.0
 11
348.29820716169837
 21
391.20693692013782
 31
0.0
  0
LINE
  5
27615
  8
SU
 10
359.53948069517918
 20
391.00693692013749
 30
0.0
 11
348.17820716169831
 21
391.00693692013749
 31
0.0
  0
LINE
  5
27616
  8
SU
 10
359.6594806951793
 20
390.80693692013767
 30
0.0
 11
348.05820716169842
 21
390.80693692013767
 31
0.0
  0
LINE
  5
27617
  8
SU
 10
359.77948069517919
 20
390.6069369201374
 30
0.0
 11
347.9382071616983
 21
390.6069369201374
 31
0.0
  0
LINE
  5
27618
  8
SU
 10
359.8588439284386
 20
114.4746648657997
 30
0.0
 11
353.8588439284386
 21
104.4746648657997
 31
0.0
  0
LINE
  5
27619
  8
SU
 10
347.85884392843849
 20
114.4746648657997
 30
0.0
 11
353.8588439284386
 21
104.4746648657997
 31
0.0
  0
LINE
  5
2761A
  8
SU
 10
359.8588439284386
 20
114.4746648657997
 30
0.0
 11
347.85884392843849
 21
114.4746648657997
 31
0.0
  0
LINE
  5
2761B
  8
SU
 10
353.89948069517908
 20
104.54239281036691
 30
0.0
 11
353.81820716169818
 21
104.54239281036691
 31
0.0
  0
LINE
  5
2761C
  8
SU
 10
354.01948069517903
 20
104.7423928103667
 30
0.0
 11
353.69820716169829
 21
104.7423928103667
 31
0.0
  0
LINE
  5
2761D
  8
SU
 10
354.13948069517909
 20
104.942392810367
 30
0.0
 11
353.57820716169817
 21
104.942392810367
 31
0.0
  0
LINE
  5
2761E
  8
SU
 10
354.25948069517898
 20
105.1423928103668
 30
0.0
 11
353.45820716169811
 21
105.1423928103668
 31
0.0
  0
LINE
  5
2761F
  8
SU
 10
354.37948069517893
 20
105.3423928103671
 30
0.0
 11
353.33820716169822
 21
105.3423928103671
 31
0.0
  0
LINE
  5
27620
  8
SU
 10
354.4994806951791
 20
105.54239281036691
 30
0.0
 11
353.21820716169827
 21
105.54239281036691
 31
0.0
  0
LINE
  5
27621
  8
SU
 10
354.61948069517922
 20
105.7423928103667
 30
0.0
 11
353.0982071616981
 21
105.7423928103667
 31
0.0
  0
LINE
  5
27622
  8
SU
 10
354.739480695179
 20
105.942392810367
 30
0.0
 11
352.97820716169798
 21
105.942392810367
 31
0.0
  0
LINE
  5
27623
  8
SU
 10
354.85948069517889
 20
106.1423928103668
 30
0.0
 11
352.85820716169809
 21
106.1423928103668
 31
0.0
  0
LINE
  5
27624
  8
SU
 10
354.97948069517878
 20
106.3423928103671
 30
0.0
 11
352.73820716169831
 21
106.3423928103671
 31
0.0
  0
LINE
  5
27625
  8
SU
 10
355.09948069517918
 20
106.54239281036691
 30
0.0
 11
352.61820716169819
 21
106.54239281036691
 31
0.0
  0
LINE
  5
27626
  8
SU
 10
355.21948069517907
 20
106.7423928103667
 30
0.0
 11
352.49820716169802
 21
106.7423928103667
 31
0.0
  0
LINE
  5
27627
  8
SU
 10
355.33948069517902
 20
106.942392810367
 30
0.0
 11
352.37820716169813
 21
106.942392810367
 31
0.0
  0
LINE
  5
27628
  8
SU
 10
355.45948069517908
 20
107.1423928103668
 30
0.0
 11
352.25820716169818
 21
107.1423928103668
 31
0.0
  0
LINE
  5
27629
  8
SU
 10
355.57948069517897
 20
107.3423928103671
 30
0.0
 11
352.13820716169812
 21
107.3423928103671
 31
0.0
  0
LINE
  5
2762A
  8
SU
 10
355.69948069517909
 20
107.54239281036691
 30
0.0
 11
352.01820716169817
 21
107.54239281036691
 31
0.0
  0
LINE
  5
2762B
  8
SU
 10
355.81948069517898
 20
107.7423928103667
 30
0.0
 11
351.89820716169811
 21
107.7423928103667
 31
0.0
  0
LINE
  5
2762C
  8
SU
 10
355.9394806951791
 20
107.942392810367
 30
0.0
 11
351.77820716169822
 21
107.942392810367
 31
0.0
  0
LINE
  5
2762D
  8
SU
 10
356.05948069517899
 20
108.1423928103668
 30
0.0
 11
351.6582071616981
 21
108.1423928103668
 31
0.0
  0
LINE
  5
2762E
  8
SU
 10
356.17948069517911
 20
108.3423928103671
 30
0.0
 11
351.53820716169821
 21
108.3423928103671
 31
0.0
  0
LINE
  5
2762F
  8
SU
 10
356.299480695179
 20
108.54239281036691
 30
0.0
 11
351.41820716169809
 21
108.54239281036691
 31
0.0
  0
LINE
  5
27630
  8
SU
 10
356.41948069517889
 20
108.7423928103667
 30
0.0
 11
351.2982071616982
 21
108.7423928103667
 31
0.0
  0
LINE
  5
27631
  8
SU
 10
356.53948069517901
 20
108.942392810367
 30
0.0
 11
351.17820716169808
 21
108.942392810367
 31
0.0
  0
LINE
  5
27632
  8
SU
 10
356.65948069517913
 20
109.1423928103668
 30
0.0
 11
351.05820716169819
 21
109.1423928103668
 31
0.0
  0
LINE
  5
27633
  8
SU
 10
356.77948069517902
 20
109.3423928103671
 30
0.0
 11
350.93820716169807
 21
109.3423928103671
 31
0.0
  0
LINE
  5
27634
  8
SU
 10
356.89948069517919
 20
109.54239281036691
 30
0.0
 11
350.81820716169818
 21
109.54239281036691
 31
0.0
  0
LINE
  5
27635
  8
SU
 10
357.01948069517903
 20
109.7423928103667
 30
0.0
 11
350.69820716169829
 21
109.7423928103667
 31
0.0
  0
LINE
  5
27636
  8
SU
 10
357.13948069517909
 20
109.942392810367
 30
0.0
 11
350.57820716169817
 21
109.942392810367
 31
0.0
  0
LINE
  5
27637
  8
SU
 10
357.25948069517898
 20
110.1423928103668
 30
0.0
 11
350.458207161698
 21
110.1423928103668
 31
0.0
  0
LINE
  5
27638
  8
SU
 10
357.37948069517893
 20
110.3423928103671
 30
0.0
 11
350.33820716169822
 21
110.3423928103671
 31
0.0
  0
LINE
  5
27639
  8
SU
 10
357.49948069517899
 20
110.54239281036691
 30
0.0
 11
350.21820716169827
 21
110.54239281036691
 31
0.0
  0
LINE
  5
2763A
  8
SU
 10
357.61948069517922
 20
110.7423928103667
 30
0.0
 11
350.09820716169821
 21
110.7423928103667
 31
0.0
  0
LINE
  5
2763B
  8
SU
 10
357.73948069517911
 20
110.9423928103669
 30
0.0
 11
349.97820716169798
 21
110.9423928103669
 31
0.0
  0
LINE
  5
2763C
  8
SU
 10
357.859480695179
 20
111.1423928103668
 30
0.0
 11
349.85820716169809
 21
111.1423928103668
 31
0.0
  0
LINE
  5
2763D
  8
SU
 10
357.97948069517889
 20
111.3423928103671
 30
0.0
 11
349.73820716169831
 21
111.3423928103671
 31
0.0
  0
LINE
  5
2763E
  8
SU
 10
358.09948069517918
 20
111.54239281036691
 30
0.0
 11
349.61820716169808
 21
111.54239281036691
 31
0.0
  0
LINE
  5
2763F
  8
SU
 10
358.21948069517907
 20
111.7423928103667
 30
0.0
 11
349.49820716169802
 21
111.7423928103667
 31
0.0
  0
LINE
  5
27640
  8
SU
 10
358.33948069517902
 20
111.9423928103669
 30
0.0
 11
349.37820716169813
 21
111.9423928103669
 31
0.0
  0
LINE
  5
27641
  8
SU
 10
358.45948069517908
 20
112.1423928103668
 30
0.0
 11
349.25820716169829
 21
112.1423928103668
 31
0.0
  0
LINE
  5
27642
  8
SU
 10
358.57948069517897
 20
112.3423928103671
 30
0.0
 11
349.13820716169812
 21
112.3423928103671
 31
0.0
  0
LINE
  5
27643
  8
SU
 10
358.69948069517909
 20
112.54239281036691
 30
0.0
 11
349.01820716169817
 21
112.54239281036691
 31
0.0
  0
LINE
  5
27644
  8
SU
 10
358.81948069517898
 20
112.7423928103667
 30
0.0
 11
348.89820716169811
 21
112.7423928103667
 31
0.0
  0
LINE
  5
27645
  8
SU
 10
358.9394806951791
 20
112.9423928103669
 30
0.0
 11
348.77820716169822
 21
112.9423928103669
 31
0.0
  0
LINE
  5
27646
  8
SU
 10
359.05948069517899
 20
113.1423928103668
 30
0.0
 11
348.6582071616981
 21
113.1423928103668
 31
0.0
  0
LINE
  5
27647
  8
SU
 10
359.17948069517911
 20
113.342392810367
 30
0.0
 11
348.53820716169821
 21
113.342392810367
 31
0.0
  0
LINE
  5
27648
  8
SU
 10
359.299480695179
 20
113.54239281036691
 30
0.0
 11
348.41820716169809
 21
113.54239281036691
 31
0.0
  0
LINE
  5
27649
  8
SU
 10
359.41948069517889
 20
113.7423928103667
 30
0.0
 11
348.2982071616982
 21
113.7423928103667
 31
0.0
  0
LINE
  5
2764A
  8
SU
 10
359.53948069517901
 20
113.9423928103669
 30
0.0
 11
348.17820716169808
 21
113.9423928103669
 31
0.0
  0
LINE
  5
2764B
  8
SU
 10
359.65948069517913
 20
114.1423928103668
 30
0.0
 11
348.05820716169819
 21
114.1423928103668
 31
0.0
  0
LINE
  5
2764C
  8
SU
 10
359.77948069517902
 20
114.342392810367
 30
0.0
 11
347.93820716169807
 21
114.342392810367
 31
0.0
  0
LINE
  5
2764D
  8
SU
 10
230.7087793789901
 20
374.47466486470472
 30
0.0
 11
230.7087793789901
 21
442.97466232851411
 31
0.0
  0
LINE
  5
2764E
  8
SU
 10
225.10877937898999
 20
439.97466232851423
 30
0.0
 11
230.7087793789901
 21
439.97466232851423
 31
0.0
  0
LINE
  5
2764F
  8
SU
 10
230.7087793789901
 20
439.97466232851423
 30
0.0
 11
255.08211271232349
 21
439.97466232851423
 31
0.0
  0
LINE
  5
27652
  8
SU
 10
117.0087793789898
 20
374.47466486470472
 30
0.0
 11
117.0087793789898
 21
442.97466232851411
 31
0.0
  0
LINE
  5
27653
  8
SU
 10
122.60877937898999
 20
439.97466232851423
 30
0.0
 11
117.0087793789898
 21
439.97466232851423
 31
0.0
  0
LINE
  5
27654
  8
SU
 10
117.0087793789898
 20
439.97466232851423
 30
0.0
 11
92.635446045656536
 21
439.97466232851423
 31
0.0
  0
LINE
  5
27657
  8
SU
 10
117.0087793789898
 20
359.47466516295123
 30
0.0
 11
117.0087793789898
 21
310.97466526678261
 31
0.0
  0
LINE
  5
27658
  8
SU
 10
121.35878694559641
 20
313.97466526678261
 30
0.0
 11
117.0087793789898
 21
313.97466526678261
 31
0.0
  0
LINE
  5
27659
  8
SU
 10
117.0087793789898
 20
313.97466526678261
 30
0.0
 11
85.442112712323194
 21
313.97466526678261
 31
0.0
  0
LINE
  5
2765C
  8
SU
 10
117.0087793789898
 20
333.97466526678352
 30
0.0
 11
230.70871600043029
 21
333.97466526678352
 31
0.0
  0
LINE
  5
27660
  8
SU
 10
230.70871600043029
 20
359.47466516295123
 30
0.0
 11
230.70871600043029
 21
310.97466526678261
 31
0.0
  0
LINE
  5
27661
  8
SU
 10
226.35878694559639
 20
313.97466526678261
 30
0.0
 11
230.70871600043029
 21
313.97466526678261
 31
0.0
  0
LINE
  5
27662
  8
SU
 10
230.70871600043029
 20
313.97466526678261
 30
0.0
 11
262.27538266709689
 21
313.97466526678261
 31
0.0
  0
LINE
  5
27665
  8
OS
 10
122.60877937898999
 20
409.97466486470461
 30
0.0
 11
225.10877937898999
 21
409.97466486470461
 31
0.0
1001
GENIUS_GENREC_14
1002
{
1000
PYDIR
1011
122.60877937898999
1021
0.0
1031
0.0
1021
400.47466486470472
1031
0.0
1002
}
1002
{
1000
PXDIR
1011
225.10877937898999
1021
0.0
1031
0.0
1021
409.97466486470461
1031
0.0
1002
}
1002
{
1000
PORI
1011
122.60877937898999
1021
0.0
1031
0.0
1021
409.97466486470461
1031
0.0
1002
}
1002
{
1000
PINS
1011
122.60877937898999
1021
0.0
1031
0.0
1021
409.97466486470461
1031
0.0
1002
}
1002
{
1000
PINS2
1011
225.10877937898999
1021
0.0
1031
0.0
1021
400.47466486470472
1031
0.0
1002
}
1002
{
1000
C
1070
     1
1002
}
1001
GENIUS_GENODEF_13
1002
{
1000
HIER
1070
     0
1002
}
1002
{
1000
MANEDIT
1070
     0
1002
}
1002
{
1000
NOSEL
1070
     0
1002
}
1002
{
1000
BEHIND
1070
     0
1002
}
1002
{
1000
OTHER
1070
     0
1002
}
1002
{
1000
REACTOR
1002
}
1001
GENIUS_GENOBJ-N-REC_13
1002
{
1000
OWNER
1000
GEN
1002
}
  0
LINE
  5
27666
  8
OS
 10
225.10877937898999
 20
409.97466486470461
 30
0.0
 11
225.10877937898999
 21
400.47466486470472
 31
0.0
1001
GENIUS_GENREC_14
1002
{
1000
PYDIR
1011
122.60877937898999
1021
0.0
1031
0.0
1021
400.47466486470472
1031
0.0
1002
}
1002
{
1000
PXDIR
1011
225.10877937898999
1021
0.0
1031
0.0
1021
409.97466486470461
1031
0.0
1002
}
1002
{
1000
PORI
1011
122.60877937898999
1021
0.0
1031
0.0
1021
409.97466486470461
1031
0.0
1002
}
1002
{
1000
PINS
1011
122.60877937898999
1021
0.0
1031
0.0
1021
409.97466486470461
1031
0.0
1002
}
1002
{
1000
PINS2
1011
225.10877937898999
1021
0.0
1031
0.0
1021
400.47466486470472
1031
0.0
1002
}
1002
{
1000
C
1070
     1
1002
}
1001
GENIUS_GENODEF_13
1002
{
1000
HIER
1070
     0
1002
}
1002
{
1000
MANEDIT
1070
     0
1002
}
1002
{
1000
NOSEL
1070
     0
1002
}
1002
{
1000
BEHIND
1070
     0
1002
}
1002
{
1000
OTHER
1070
     0
1002
}
1002
{
1000
REACTOR
1002
}
1001
GENIUS_GENOBJ-N-REC_13
1002
{
1000
OWNER
1000
GEN
1002
}
  0
LINE
  5
27667
  8
OS
 10
225.10877937898999
 20
400.47466486470472
 30
0.0
 11
122.60877937898999
 21
400.47466486470472
 31
0.0
1001
GENIUS_GENREC_14
1002
{
1000
PYDIR
1011
122.60877937898999
1021
0.0
1031
0.0
1021
400.47466486470472
1031
0.0
1002
}
1002
{
1000
PXDIR
1011
225.10877937898999
1021
0.0
1031
0.0
1021
409.97466486470461
1031
0.0
1002
}
1002
{
1000
PORI
1011
122.60877937898999
1021
0.0
1031
0.0
1021
409.97466486470461
1031
0.0
1002
}
1002
{
1000
PINS
1011
122.60877937898999
1021
0.0
1031
0.0
1021
409.97466486470461
1031
0.0
1002
}
1002
{
1000
PINS2
1011
225.10877937898999
1021
0.0
1031
0.0
1021
400.47466486470472
1031
0.0
1002
}
1002
{
1000
C
1070
     1
1002
}
1001
GENIUS_GENODEF_13
1002
{
1000
HIER
1070
     0
1002
}
1002
{
1000
MANEDIT
1070
     0
1002
}
1002
{
1000
NOSEL
1070
     0
1002
}
1002
{
1000
BEHIND
1070
     0
1002
}
1002
{
1000
OTHER
1070
     0
1002
}
1002
{
1000
REACTOR
1002
}
1001
GENIUS_GENOBJ-N-REC_13
1002
{
1000
OWNER
1000
GEN
1002
}
  0
LINE
  5
27668
  8
OS
 10
122.60877937898999
 20
400.47466486470472
 30
0.0
 11
122.60877937898999
 21
409.97466486470461
 31
0.0
1001
GENIUS_GENREC_14
1002
{
1000
PYDIR
1011
122.60877937898999
1021
0.0
1031
0.0
1021
400.47466486470472
1031
0.0
1002
}
1002
{
1000
PXDIR
1011
225.10877937898999
1021
0.0
1031
0.0
1021
409.97466486470461
1031
0.0
1002
}
1002
{
1000
PORI
1011
122.60877937898999
1021
0.0
1031
0.0
1021
409.97466486470461
1031
0.0
1002
}
1002
{
1000
PINS
1011
122.60877937898999
1021
0.0
1031
0.0
1021
409.97466486470461
1031
0.0
1002
}
1002
{
1000
PINS2
1011
225.10877937898999
1021
0.0
1031
0.0
1021
400.47466486470472
1031
0.0
1002
}
1002
{
1000
C
1070
     1
1002
}
1001
GENIUS_GENODEF_13
1002
{
1000
HIER
1070
     0
1002
}
1002
{
1000
MANEDIT
1070
     0
1002
}
1002
{
1000
NOSEL
1070
     0
1002
}
1002
{
1000
BEHIND
1070
     0
1002
}
1002
{
1000
OTHER
1070
     0
1002
}
1002
{
1000
REACTOR
1002
}
1001
GENIUS_GENOBJ-N-REC_13
1002
{
1000
OWNER
1000
GEN
1002
}
  0
LINE
  5
27669
  8
SU
 10
225.10877937898999
 20
410.97466486470461
 30
0.0
 11
225.10877937898999
 21
442.97466232851411
 31
0.0
  0
LINE
  5
2766A
  8
SU
 10
122.60877937898999
 20
410.97466486470461
 30
0.0
 11
122.60877937898999
 21
442.97466232851411
 31
0.0
  0
LINE
  5
2766B
  8
SU
 10
225.10877937898999
 20
439.97466232851423
 30
0.0
 11
122.60877937898999
 21
439.97466232851423
 31
0.0
  0
LINE
  5
2766F
  8
SU
 10
154.35878694559639
 20
313.97466526678261
 30
0.0
 11
157.35878694559639
 21
313.97466526678261
 31
0.0
  0
LINE
  5
27671
  8
SU
 10
231.2087793789901
 20
359.97466486470472
 30
0.0
 11
316.85884392843769
 21
359.97466486470472
 31
0.0
  0
LINE
  5
27672
  8
SU
 10
313.85884392843781
 20
363.47466534448841
 30
0.0
 11
313.85884392843781
 21
359.97466486470472
 31
0.0
  0
LINE
  5
27673
  8
SU
 10
313.85884392843781
 20
359.97466486470472
 30
0.0
 11
313.85884392843781
 21
335.60133153137127
 31
0.0
  0
LINE
  5
27677
  8
SU
 10
230.40877937899
 20
372.97466486470472
 30
0.0
 11
336.85884392843889
 21
372.97466486470472
 31
0.0
  0
LINE
  5
27678
  8
SU
 10
333.85884392843889
 20
400.47466486470472
 30
0.0
 11
333.85884392843889
 21
372.97466486470472
 31
0.0
  0
LINE
  5
2767C
  8
SU
 10
333.85884392843889
 20
372.97466486470472
 30
0.0
 11
333.85884392843889
 21
363.47466534448841
 31
0.0
  0
LINE
  5
2767F
  8
SU
 10
215.858786945665
 20
109.4746648657997
 30
0.0
 11
316.85884392843877
 21
109.4746648657996
 31
0.0
  0
LINE
  5
27680
  8
SU
 10
313.85884392843877
 20
109.4746648657996
 30
0.0
 11
313.85884392843877
 21
104.4746648657997
 31
0.0
  0
LINE
  5
27681
  8
SU
 10
313.85884392843877
 20
104.4746648657997
 30
0.0
 11
313.85884392843877
 21
88.401331532466386
 31
0.0
  0
LINE
  5
27685
  8
SU
 10
294.85884392843877
 20
400.47466486470472
 30
0.0
 11
356.85884392843872
 21
400.47466486470472
 31
0.0
  0
LINE
  5
27686
  8
SU
 10
294.85884392843877
 20
104.4746648657997
 30
0.0
 11
356.85884392843849
 21
104.4746648657997
 31
0.0
  0
LINE
  5
27687
  8
SU
 10
353.8588439284386
 20
400.47466486470472
 30
0.0
 11
353.8588439284386
 21
104.4746648657997
 31
0.0
  0
LINE
  5
27689
  8
SU
 10
227.35878694559639
 20
113.4746648657994
 30
0.0
 11
336.85884392843877
 21
113.4746648657994
 31
0.0
  0
LINE
  5
2768A
  8
SU
 10
227.35878694559639
 20
363.47466534448841
 30
0.0
 11
336.85884392843877
 21
363.47466534448841
 31
0.0
  0
LINE
  5
2768B
  8
SU
 10
333.85884392843877
 20
113.4746648657994
 30
0.0
 11
333.85884392843877
 21
363.47466534448841
 31
0.0
  0
LINE
  5
2768F
  8
SU
 10
542.72783186854303
 20
374.47466715567111
 30
0.0
 11
542.72783186854303
 21
442.97466232851411
 31
0.0
  0
LINE
  5
27690
  8
SU
 10
537.12783127205239
 20
439.97466232851423
 30
0.0
 11
542.72783186854303
 21
439.97466232851423
 31
0.0
  0
LINE
  5
27691
  8
SU
 10
542.72783186854303
 20
439.97466232851423
 30
0.0
 11
567.10116520187626
 21
439.97466232851423
 31
0.0
  0
LINE
  5
27694
  8
SU
 10
465.0278318685431
 20
374.4746637225353
 30
0.0
 11
465.0278318685431
 21
442.97466232851411
 31
0.0
  0
LINE
  5
27695
  8
SU
 10
470.62783127205239
 20
439.97466232851423
 30
0.0
 11
465.0278318685431
 21
439.97466232851423
 31
0.0
  0
LINE
  5
27696
  8
SU
 10
465.0278318685431
 20
439.97466232851423
 30
0.0
 11
440.65449853520983
 21
439.97466232851423
 31
0.0
  0
LINE
  5
27699
  8
SU
 10
465.02783244294181
 20
333.97466526678352
 30
0.0
 11
542.72783244294158
 21
333.97466526678352
 31
0.0
  0
LINE
  5
2769D
  8
SU
 10
465.02783244294181
 20
359.47466372253541
 30
0.0
 11
465.02783244294181
 21
310.97466526678261
 31
0.0
  0
LINE
  5
2769E
  8
SU
 10
469.37789582150123
 20
313.97466526678261
 30
0.0
 11
465.02783244294181
 21
313.97466526678261
 31
0.0
  0
LINE
  5
2769F
  8
SU
 10
465.02783244294181
 20
313.97466526678261
 30
0.0
 11
433.46116577627521
 21
313.97466526678261
 31
0.0
  0
LINE
  5
276A2
  8
SU
 10
542.72783244294158
 20
359.47466715567111
 30
0.0
 11
542.72783244294158
 21
310.98435355452119
 31
0.0
  0
LINE
  5
276A3
  8
SU
 10
538.37789582150106
 20
313.98435355452119
 30
0.0
 11
542.72783244294158
 21
313.98435355452119
 31
0.0
  0
LINE
  5
276A4
  8
SU
 10
542.72783244294158
 20
313.98435355452119
 30
0.0
 11
574.2944991096083
 21
313.98435355452119
 31
0.0
  0
LINE
  5
276A7
  8
OS
 10
470.62783127205239
 20
409.97466486470461
 30
0.0
 11
537.12783127205239
 21
409.97466486470461
 31
0.0
1001
GENIUS_GENREC_14
1002
{
1000
PYDIR
1011
470.62783127205239
1021
0.0
1031
0.0
1021
400.47466486470472
1031
0.0
1002
}
1002
{
1000
PXDIR
1011
537.12783127205239
1021
0.0
1031
0.0
1021
409.97466486470461
1031
0.0
1002
}
1002
{
1000
PORI
1011
470.62783127205239
1021
0.0
1031
0.0
1021
409.97466486470461
1031
0.0
1002
}
1002
{
1000
PINS
1011
470.62783127205239
1021
0.0
1031
0.0
1021
409.97466486470461
1031
0.0
1002
}
1002
{
1000
PINS2
1011
537.12783127205239
1021
0.0
1031
0.0
1021
400.47466486470472
1031
0.0
1002
}
1002
{
1000
C
1070
     1
1002
}
1001
GENIUS_GENODEF_13
1002
{
1000
HIER
1070
     0
1002
}
1002
{
1000
MANEDIT
1070
     0
1002
}
1002
{
1000
NOSEL
1070
     0
1002
}
1002
{
1000
BEHIND
1070
     0
1002
}
1002
{
1000
OTHER
1070
     0
1002
}
1002
{
1000
REACTOR
1002
}
1001
GENIUS_GENOBJ-N-REC_13
1002
{
1000
OWNER
1000
GEN
1002
}
  0
LINE
  5
276A8
  8
OS
 10
537.12783127205239
 20
409.97466486470461
 30
0.0
 11
537.12783127205239
 21
400.47466486470472
 31
0.0
1001
GENIUS_GENREC_14
1002
{
1000
PYDIR
1011
470.62783127205239
1021
0.0
1031
0.0
1021
400.47466486470472
1031
0.0
1002
}
1002
{
1000
PXDIR
1011
537.12783127205239
1021
0.0
1031
0.0
1021
409.97466486470461
1031
0.0
1002
}
1002
{
1000
PORI
1011
470.62783127205239
1021
0.0
1031
0.0
1021
409.97466486470461
1031
0.0
1002
}
1002
{
1000
PINS
1011
470.62783127205239
1021
0.0
1031
0.0
1021
409.97466486470461
1031
0.0
1002
}
1002
{
1000
PINS2
1011
537.12783127205239
1021
0.0
1031
0.0
1021
400.47466486470472
1031
0.0
1002
}
1002
{
1000
C
1070
     1
1002
}
1001
GENIUS_GENODEF_13
1002
{
1000
HIER
1070
     0
1002
}
1002
{
1000
MANEDIT
1070
     0
1002
}
1002
{
1000
NOSEL
1070
     0
1002
}
1002
{
1000
BEHIND
1070
     0
1002
}
1002
{
1000
OTHER
1070
     0
1002
}
1002
{
1000
REACTOR
1002
}
1001
GENIUS_GENOBJ-N-REC_13
1002
{
1000
OWNER
1000
GEN
1002
}
  0
LINE
  5
276A9
  8
OS
 10
537.12783127205239
 20
400.47466486470472
 30
0.0
 11
470.62783127205239
 21
400.47466486470472
 31
0.0
1001
GENIUS_GENREC_14
1002
{
1000
PYDIR
1011
470.62783127205239
1021
0.0
1031
0.0
1021
400.47466486470472
1031
0.0
1002
}
1002
{
1000
PXDIR
1011
537.12783127205239
1021
0.0
1031
0.0
1021
409.97466486470461
1031
0.0
1002
}
1002
{
1000
PORI
1011
470.62783127205239
1021
0.0
1031
0.0
1021
409.97466486470461
1031
0.0
1002
}
1002
{
1000
PINS
1011
470.62783127205239
1021
0.0
1031
0.0
1021
409.97466486470461
1031
0.0
1002
}
1002
{
1000
PINS2
1011
537.12783127205239
1021
0.0
1031
0.0
1021
400.47466486470472
1031
0.0
1002
}
1002
{
1000
C
1070
     1
1002
}
1001
GENIUS_GENODEF_13
1002
{
1000
HIER
1070
     0
1002
}
1002
{
1000
MANEDIT
1070
     0
1002
}
1002
{
1000
NOSEL
1070
     0
1002
}
1002
{
1000
BEHIND
1070
     0
1002
}
1002
{
1000
OTHER
1070
     0
1002
}
1002
{
1000
REACTOR
1002
}
1001
GENIUS_GENOBJ-N-REC_13
1002
{
1000
OWNER
1000
GEN
1002
}
  0
LINE
  5
276AA
  8
OS
 10
470.62783127205239
 20
400.47466486470472
 30
0.0
 11
470.62783127205239
 21
409.97466486470461
 31
0.0
1001
GENIUS_GENREC_14
1002
{
1000
PYDIR
1011
470.62783127205239
1021
0.0
1031
0.0
1021
400.47466486470472
1031
0.0
1002
}
1002
{
1000
PXDIR
1011
537.12783127205239
1021
0.0
1031
0.0
1021
409.97466486470461
1031
0.0
1002
}
1002
{
1000
PORI
1011
470.62783127205239
1021
0.0
1031
0.0
1021
409.97466486470461
1031
0.0
1002
}
1002
{
1000
PINS
1011
470.62783127205239
1021
0.0
1031
0.0
1021
409.97466486470461
1031
0.0
1002
}
1002
{
1000
PINS2
1011
537.12783127205239
1021
0.0
1031
0.0
1021
400.47466486470472
1031
0.0
1002
}
1002
{
1000
C
1070
     1
1002
}
1001
GENIUS_GENODEF_13
1002
{
1000
HIER
1070
     0
1002
}
1002
{
1000
MANEDIT
1070
     0
1002
}
1002
{
1000
NOSEL
1070
     0
1002
}
1002
{
1000
BEHIND
1070
     0
1002
}
1002
{
1000
OTHER
1070
     0
1002
}
1002
{
1000
REACTOR
1002
}
1001
GENIUS_GENOBJ-N-REC_13
1002
{
1000
OWNER
1000
GEN
1002
}
  0
LINE
  5
276AB
  8
SU
 10
537.12783127205239
 20
410.97466486470472
 30
0.0
 11
537.12783127205239
 21
442.9746593902446
 31
0.0
  0
LINE
  5
276AC
  8
SU
 10
470.62783127205239
 20
410.97466486470472
 30
0.0
 11
470.62783127205239
 21
442.9746593902446
 31
0.0
  0
LINE
  5
276AD
  8
SU
 10
537.12783127205239
 20
439.97465939024471
 30
0.0
 11
470.62783127205239
 21
439.97465939024471
 31
0.0
  0
TEXT
  5
276B1
  8
SU
 10
652.5778958214305
 20
106.34633352518701
 30
0.0
 40
7.0
  1
9
 50
90.0
 41
0.8299999999999999
  0
TEXT
  5
276B3
  8
SU
 10
632.57789582150008
 20
336.07133380024572
 30
0.0
 40
7.0
  1
3.5
 50
90.0
 41
0.8299999999999999
  0
TEXT
  5
276B6
  8
SU
 10
652.57789582150122
 20
377.04133352409229
 30
0.0
 40
7.0
  1
27.5
 50
90.0
 41
0.8299999999999999
  0
TEXT
  5
276B9
  8
SU
 10
652.57789582150122
 20
339.5713343085601
 30
0.0
 40
7.0
  1
9.5
 50
90.0
 41
0.8299999999999999
  0
TEXT
  5
276BA
  8
SU
 10
632.5778958215011
 20
88.87133352518731
 30
0.0
 40
7.0
  1
5
 50
90.0
 41
0.8299999999999999
  0
TEXT
  5
276BD
  8
SU
 10
672.57789582150087
 20
248.0803580492931
 30
0.0
 40
10.0
  1
H
 50
90.0
 41
0.8299999999999999
  0
TEXT
  5
276BE
  8
SU
 10
652.57789582150122
 20
230.9683679317445
 30
0.0
 40
7.0
  1
DH
 50
90.0
 41
0.8299999999999999
  0
TEXT
  5
276C1
  8
SU
 10
516.3445549215611
 20
315.27466526678262
 30
0.0
 40
7.0
  1
33
 41
0.8299999999999999
  0
TEXT
  5
276C4
  8
SU
 10
195.82878694559639
 20
305.47466526678261
 30
0.0
 40
7.0
  1
3
 41
0.8299999999999999
  0
TEXT
  5
276C5
  8
SU
 10
204.32545739556639
 20
315.27466526678262
 30
0.0
 40
7.0
  1
33
 41
0.8299999999999999
  0
TEXT
  5
276C8
  8
SU
 10
168.32545739556639
 20
315.27466526678262
 30
0.0
 40
7.0
  1
33
 41
0.8299999999999999
  0
TEXT
  5
276CB
  8
SU
 10
911.82703338152726
 20
395.89328097132579
 30
0.0
 40
7.0
  1
35
 50
90.0
 41
0.8299999999999999
  0
TEXT
  5
276CE
  8
SU
 10
1125.396111603606
 20
440.75728055776977
 30
0.0
 40
7.0
  1
外々寸法
 50
90.0
 41
0.8299999999999999
  0
TEXT
  5
276D1
  8
SU
 10
1105.396111603606
 20
637.54161347754655
 30
0.0
 40
7.0
  1
111
 50
90.0
 41
0.8299999999999999
  0
TEXT
  5
276D3
  8
SU
 10
1085.396111603606
 20
602.99661430465937
 30
0.0
 40
7.0
  1
3
 50
90.0
 41
0.8299999999999999
  0
TEXT
  5
276D6
  8
SU
 10
982.06385356831981
 20
753.54077860380403
 30
0.0
 40
7.0
  1
2.5
 41
0.8299999999999999
  0
TEXT
  5
276D9
  8
SU
 10
715.03385356831836
 20
554.01366894745559
 30
0.0
 40
7.0
  1
35
 41
0.8299999999999999
  0
TEXT
  5
276DC
  8
SU
 10
556.43885356831845
 20
753.54077860380437
 30
0.0
 40
7.0
  1
9
 41
0.8299999999999999
  0
TEXT
  5
276DE
  8
SU
 10
644.31552023498523
 20
753.54077860380403
 30
0.0
 40
7.0
  1
DW
 41
0.8299999999999999
  0
TEXT
  5
276E1
  8
SU
 10
753.27528275647342
 20
773.54077860380403
 30
0.0
 40
10.0
  1
W1=外々寸法
 41
0.8299999999999999
  0
TEXT
  5
276E2
  8
SU
 10
853.03385356831882
 20
554.01366894745559
 30
0.0
 40
7.0
  1
35
 41
0.8299999999999999
  0
TEXT
  5
276E5
  8
SU
 10
819.17236142334878
 20
665.39661335292851
 30
0.0
 40
7.0
  1
3
 50
90.0
 41
0.8299999999999999
  0
TEXT
  5
276E6
  8
SU
 10
809.37236142334871
 20
675.89327954373243
 30
0.0
 40
7.0
  1
33
 50
90.0
 41
0.8299999999999999
  0
TEXT
  5
276E9
  8
SU
 10
809.37236142334871
 20
603.8932804954635
 30
0.0
 40
7.0
  1
33
 50
90.0
 41
0.8299999999999999
  0
TEXT
  5
276EC
  8
SU
 10
809.17236142334866
 20
619.92328001960641
 30
0.0
 40
7.0
  1
3
 50
90.0
 41
0.8299999999999999
  0
TEXT
  5
276ED
  8
SU
 10
809.37236142334871
 20
639.89327954373243
 30
0.0
 40
7.0
  1
33
 50
90.0
 41
0.8299999999999999
  0
TEXT
  5
276F0
  8
SU
 10
891.82703338152749
 20
208.79828097132571
 30
0.0
 40
7.0
  1
9
 50
90.0
 41
0.8299999999999999
  0
TEXT
  5
276F2
  8
SU
 10
1083.0627782702729
 20
546.45328097132608
 30
0.0
 40
7.0
  1
(2.5)
 50
90.0
 41
0.8299999999999999
  0
TEXT
  5
276F4
  8
SU
 10
993.53385309245709
 20
456.2266143046586
 30
0.0
 40
7.0
  1
33
 41
0.8299999999999999
  0
TEXT
  5
276F7
  8
SU
 10
973.56385452005327
 20
456.42661430465881
 30
0.0
 40
7.0
  1
3
 41
0.8299999999999999
  0
TEXT
  5
276F8
  8
SU
 10
957.53385499591593
 20
456.22661430465882
 30
0.0
 40
7.0
  1
33
 41
0.8299999999999999
  0
TEXT
  5
276FB
  8
SU
 10
891.82703338152726
 20
310.92494763799198
 30
0.0
 40
7.0
  1
DW
 50
90.0
 41
0.8299999999999999
  0
TEXT
  5
276FE
  8
SU
 10
1105.3961116036071
 20
389.92899484348419
 30
0.0
 40
10.0
  1
W2
 50
90.0
 41
0.8299999999999999
  0
TEXT
  5
276FF
  8
SU
 10
498.2583470132198
 20
72.73495055404787
 30
0.0
 40
7.0
  1
74
 41
0.8299999999999999
  0
TEXT
  5
27702
  8
SU
 10
165.9737869456651
 20
72.774664865799693
 30
0.0
 40
7.0
  1
111
 41
0.8299999999999999
  0
TEXT
  5
27705
  8
SU
 10
332.55884392836822
 20
106.3463315324661
 30
0.0
 40
7.0
  1
9
 50
90.0
 41
0.8299999999999999
  0
TEXT
  5
27707
  8
SU
 10
132.32545739556639
 20
315.27466526678262
 30
0.0
 40
7.0
  1
33
 41
0.8299999999999999
  0
TEXT
  5
2770A
  8
SU
 10
507.84788825489449
 20
305.47466526678261
 30
0.0
 40
7.0
  1
3
 41
0.8299999999999999
  0
TEXT
  5
2770B
  8
SU
 10
480.34455492156133
 20
315.27466526678262
 30
0.0
 40
7.0
  1
33
 41
0.8299999999999999
  0
TEXT
  5
2770E
  8
SU
 10
240.77877937899009
 20
441.27466232851418
 30
0.0
 40
7.0
  1
5.6
 41
0.8299999999999999
  0
TEXT
  5
27710
  8
SU
 10
93.105446045656535
 20
441.27466232851418
 30
0.0
 40
7.0
  1
5.6
 41
0.8299999999999999
  0
TEXT
  5
27712
  8
SU
 10
85.635446045656508
 20
317.60799860011588
 30
0.0
 40
7.0
  1
(4.4)
 41
0.8299999999999999
  0
TEXT
  5
27714
  8
SU
 10
160.99374768971001
 20
335.27466526678359
 30
0.0
 40
7.0
  1
113.7
 41
0.8299999999999999
  0
TEXT
  5
27717
  8
SU
 10
240.50204933376361
 20
317.60799860011588
 30
0.0
 40
7.0
  1
(4.4)
 41
0.8299999999999999
  0
TEXT
  5
27719
  8
SU
 10
165.63872036109461
 20
441.27466232851418
 30
0.0
 40
7.0
  1
102.5
 41
0.8299999999999999
  0
TEXT
  5
2771C
  8
SU
 10
159.82878694559639
 20
305.47466526678261
 30
0.0
 40
7.0
  1
3
 41
0.8299999999999999
  0
TEXT
  5
2771D
  8
SU
 10
312.55884392843768
 20
336.07133153137141
 30
0.0
 40
7.0
  1
3.5
 50
90.0
 41
0.8299999999999999
  0
TEXT
  5
27720
  8
SU
 10
332.55884392843882
 20
377.04133153137138
 30
0.0
 40
7.0
  1
27.5
 50
90.0
 41
0.8299999999999999
  0
TEXT
  5
27723
  8
SU
 10
332.55884392843882
 20
339.57133201115511
 30
0.0
 40
7.0
  1
9.5
 50
90.0
 41
0.8299999999999999
  0
TEXT
  5
27724
  8
SU
 10
312.55884392843882
 20
88.871331532466414
 30
0.0
 40
7.0
  1
5
 50
90.0
 41
0.8299999999999999
  0
TEXT
  5
27727
  8
SU
 10
352.55884392843848
 20
248.0803560565723
 30
0.0
 40
10.0
  1
H
 50
90.0
 41
0.8299999999999999
  0
TEXT
  5
27728
  8
SU
 10
332.55884392843882
 20
230.96836593902361
 30
0.0
 40
7.0
  1
DH
 50
90.0
 41
0.8299999999999999
  0
TEXT
  5
2772B
  8
SU
 10
552.79783186854297
 20
441.27466232851418
 30
0.0
 40
7.0
  1
5.6
 41
0.8299999999999999
  0
TEXT
  5
2772D
  8
SU
 10
441.12449853520991
 20
441.27466232851418
 30
0.0
 40
7.0
  1
5.6
 41
0.8299999999999999
  0
TEXT
  5
2772F
  8
SU
 10
477.68929132311592
 20
335.27466526678359
 30
0.0
 40
7.0
  1
77.7
 41
0.8299999999999999
  0
TEXT
  5
27732
  8
SU
 10
433.65449910960848
 20
317.60799860011588
 30
0.0
 40
7.0
  1
(4.4)
 41
0.8299999999999999
  0
TEXT
  5
27734
  8
SU
 10
552.5211657762751
 20
317.61768688785452
 30
0.0
 40
7.0
  1
(4.4)
 41
0.8299999999999999
  0
TEXT
  5
27736
  8
SU
 10
490.96780620248558
 20
441.27465939024472
 30
0.0
 40
7.0
  1
66.5
 41
0.8299999999999999
  0
ARC
  5
27739
  8
SU
 10
653.87789582143046
 20
104.47466685852049
 30
0.0
 40
0.5999999999999944
 50
90.0
 51
270.0
  0
ARC
  5
2773A
  8
SU
 10
653.87789582143046
 20
104.47466685852049
 30
0.0
 40
0.5999999999999944
 50
270.0
 51
90.0
  0
ARC
  5
2773B
  8
SU
 10
633.87789582150015
 20
359.97466713357892
 30
0.0
 40
0.6000000000000229
 50
90.0
 51
270.0
  0
ARC
  5
2773C
  8
SU
 10
633.87789582150015
 20
359.97466713357892
 30
0.0
 40
0.6000000000000229
 50
270.0
 51
90.0
  0
ARC
  5
2773D
  8
SU
 10
633.87789582150015
 20
363.4746676418934
 30
0.0
 40
0.6000000000000229
 50
270.0
 51
90.0
  0
ARC
  5
2773E
  8
SU
 10
633.87789582150015
 20
363.4746676418934
 30
0.0
 40
0.6000000000000229
 50
90.0
 51
270.0
  0
ARC
  5
2773F
  8
SU
 10
653.87789582150117
 20
372.97466709823118
 30
0.0
 40
0.6000000000000229
 50
90.0
 51
270.0
  0
ARC
  5
27740
  8
SU
 10
653.87789582150117
 20
372.97466709823118
 30
0.0
 40
0.6000000000000229
 50
270.0
 51
90.0
  0
ARC
  5
27741
  8
SU
 10
653.87789582150117
 20
400.47466685742552
 30
0.0
 40
0.6000000000000229
 50
270.0
 51
90.0
  0
ARC
  5
27742
  8
SU
 10
653.87789582150117
 20
400.47466685742552
 30
0.0
 40
0.6000000000000229
 50
90.0
 51
270.0
  0
ARC
  5
27743
  8
SU
 10
633.87789582150106
 20
104.47466685852049
 30
0.0
 40
0.5999999999999944
 50
90.0
 51
270.0
  0
ARC
  5
27744
  8
SU
 10
633.87789582150106
 20
104.47466685852049
 30
0.0
 40
0.5999999999999944
 50
270.0
 51
90.0
  0
ARC
  5
27745
  8
SU
 10
633.87789582150106
 20
109.47466685852049
 30
0.0
 40
0.5999999999999944
 50
270.0
 51
90.0
  0
ARC
  5
27746
  8
SU
 10
633.87789582150106
 20
109.47466685852049
 30
0.0
 40
0.5999999999999944
 50
90.0
 51
270.0
  0
ARC
  5
27747
  8
SU
 10
653.87789582150117
 20
363.47466764189329
 30
0.0
 40
0.6000000000000229
 50
270.0
 51
90.0
  0
ARC
  5
27748
  8
SU
 10
653.87789582150117
 20
363.47466764189329
 30
0.0
 40
0.6000000000000229
 50
90.0
 51
270.0
  0
ARC
  5
27749
  8
SU
 10
653.87789582150106
 20
113.4746668585199
 30
0.0
 40
0.5999999999999944
 50
90.0
 51
270.0
  0
ARC
  5
2774A
  8
SU
 10
653.87789582150106
 20
113.4746668585199
 30
0.0
 40
0.5999999999999944
 50
270.0
 51
90.0
  0
ARC
  5
2774B
  8
SU
 10
538.37788825489474
 20
313.97466526678261
 30
0.0
 40
0.6000000000000229
 50
180.0
 51
0.0
  0
ARC
  5
2774C
  8
SU
 10
538.37788825489474
 20
313.97466526678261
 30
0.0
 40
0.6000000000000229
 50
0.0
 51
180.0
  0
ARC
  5
2774D
  8
SU
 10
505.37788825489451
 20
313.97466526678261
 30
0.0
 40
0.6000000000000229
 50
0.0
 51
180.0
  0
ARC
  5
2774E
  8
SU
 10
505.37788825489451
 20
313.97466526678261
 30
0.0
 40
0.6000000000000229
 50
180.0
 51
0.0
  0
ARC
  5
2774F
  8
SU
 10
226.3587945122031
 20
313.97466526678261
 30
0.0
 40
0.5999999999999944
 50
180.0
 51
0.0
  0
ARC
  5
27750
  8
SU
 10
226.3587945122031
 20
313.97466526678261
 30
0.0
 40
0.5999999999999944
 50
0.0
 51
180.0
  0
ARC
  5
27751
  8
SU
 10
193.35878694559639
 20
313.97466526678261
 30
0.0
 40
0.5999999999999944
 50
0.0
 51
180.0
  0
ARC
  5
27752
  8
SU
 10
193.35878694559639
 20
313.97466526678261
 30
0.0
 40
0.5999999999999944
 50
180.0
 51
0.0
  0
ARC
  5
27753
  8
SU
 10
190.3587945122031
 20
313.97466526678261
 30
0.0
 40
0.5999999999999944
 50
180.0
 51
0.0
  0
ARC
  5
27754
  8
SU
 10
190.3587945122031
 20
313.97466526678261
 30
0.0
 40
0.5999999999999944
 50
0.0
 51
180.0
  0
ARC
  5
27755
  8
SU
 10
157.35878694559639
 20
313.97466526678261
 30
0.0
 40
0.5999999999999944
 50
0.0
 51
180.0
  0
ARC
  5
27756
  8
SU
 10
157.35878694559639
 20
313.97466526678261
 30
0.0
 40
0.5999999999999944
 50
180.0
 51
0.0
  0
ARC
  5
27757
  8
SU
 10
913.12703338152721
 20
383.92661430465893
 30
0.0
 40
0.6000000000000229
 50
90.0
 51
270.0
  0
ARC
  5
27758
  8
SU
 10
913.12703338152721
 20
383.92661430465893
 30
0.0
 40
0.6000000000000229
 50
270.0
 51
90.0
  0
ARC
  5
27759
  8
SU
 10
913.12703338152721
 20
418.92661430465881
 30
0.0
 40
0.6000000000000229
 50
270.0
 51
90.0
  0
ARC
  5
2775A
  8
SU
 10
913.12703338152721
 20
418.92661430465881
 30
0.0
 40
0.6000000000000229
 50
90.0
 51
270.0
  0
ARC
  5
2775B
  8
SU
 10
1126.6961116036059
 20
206.92661430465949
 30
0.0
 40
0.5999999999999944
 50
90.0
 51
270.0
  0
ARC
  5
2775C
  8
SU
 10
1126.6961116036059
 20
206.92661430465949
 30
0.0
 40
0.5999999999999944
 50
270.0
 51
90.0
  0
ARC
  5
2775D
  8
SU
 10
1126.6961116036071
 20
700.92661347754654
 30
0.0
 40
0.6000000000000229
 50
270.0
 51
90.0
  0
ARC
  5
2775E
  8
SU
 10
1126.6961116036071
 20
700.92661347754654
 30
0.0
 40
0.6000000000000229
 50
90.0
 51
270.0
  0
ARC
  5
2775F
  8
SU
 10
1106.6961116036059
 20
700.92661347754654
 30
0.0
 40
0.6000000000000229
 50
270.0
 51
90.0
  0
ARC
  5
27760
  8
SU
 10
1106.6961116036059
 20
700.92661347754654
 30
0.0
 40
0.6000000000000229
 50
90.0
 51
270.0
  0
ARC
  5
27761
  8
SU
 10
1086.6961116036071
 20
592.92661430465932
 30
0.0
 40
0.6000000000000229
 50
270.0
 51
90.0
  0
ARC
  5
27762
  8
SU
 10
1086.6961116036071
 20
592.92661430465932
 30
0.0
 40
0.6000000000000229
 50
90.0
 51
270.0
  0
ARC
  5
27763
  8
SU
 10
1086.6961116036071
 20
589.92661347754654
 30
0.0
 40
0.6000000000000229
 50
90.0
 51
270.0
  0
ARC
  5
27764
  8
SU
 10
1086.6961116036071
 20
589.92661347754654
 30
0.0
 40
0.6000000000000229
 50
270.0
 51
90.0
  0
ARC
  5
27765
  8
SU
 10
1015.567186901653
 20
752.24077860380407
 30
0.0
 40
0.6000000000000229
 50
180.0
 51
0.0
  0
ARC
  5
27766
  8
SU
 10
1015.567186901653
 20
752.24077860380407
 30
0.0
 40
0.6000000000000229
 50
0.0
 51
180.0
  0
ARC
  5
27767
  8
SU
 10
1018.0671881351039
 20
752.24077860380407
 30
0.0
 40
0.6000000000000229
 50
0.0
 51
180.0
  0
ARC
  5
27768
  8
SU
 10
1018.0671881351039
 20
752.24077860380407
 30
0.0
 40
0.6000000000000229
 50
180.0
 51
0.0
  0
ARC
  5
27769
  8
SU
 10
738.06718690165178
 20
552.71366894745574
 30
0.0
 40
0.6000000000000229
 50
180.0
 51
0.0
  0
ARC
  5
2776A
  8
SU
 10
738.06718690165178
 20
552.71366894745574
 30
0.0
 40
0.6000000000000229
 50
0.0
 51
180.0
  0
ARC
  5
2776B
  8
SU
 10
703.06718690165189
 20
552.71366894745574
 30
0.0
 40
0.6000000000000229
 50
0.0
 51
180.0
  0
ARC
  5
2776C
  8
SU
 10
703.06718690165189
 20
552.71366894745574
 30
0.0
 40
0.6000000000000229
 50
180.0
 51
0.0
  0
ARC
  5
2776D
  8
SU
 10
554.56718690165178
 20
752.24077860380453
 30
0.0
 40
0.6000000000000229
 50
0.0
 51
180.0
  0
ARC
  5
2776E
  8
SU
 10
554.56718690165178
 20
752.24077860380453
 30
0.0
 40
0.6000000000000229
 50
180.0
 51
0.0
  0
ARC
  5
2776F
  8
SU
 10
738.06718690165178
 20
752.24077860380407
 30
0.0
 40
0.6000000000000229
 50
180.0
 51
0.0
  0
ARC
  5
27770
  8
SU
 10
738.06718690165178
 20
752.24077860380407
 30
0.0
 40
0.6000000000000229
 50
0.0
 51
180.0
  0
ARC
  5
27771
  8
SU
 10
563.56718690165178
 20
752.24077860380407
 30
0.0
 40
0.6000000000000229
 50
0.0
 51
180.0
  0
ARC
  5
27772
  8
SU
 10
563.56718690165178
 20
752.24077860380407
 30
0.0
 40
0.6000000000000229
 50
180.0
 51
0.0
  0
ARC
  5
27773
  8
SU
 10
876.06718690165235
 20
552.71366894745574
 30
0.0
 40
0.6000000000000229
 50
180.0
 51
0.0
  0
ARC
  5
27774
  8
SU
 10
876.06718690165235
 20
552.71366894745574
 30
0.0
 40
0.6000000000000229
 50
0.0
 51
180.0
  0
ARC
  5
27775
  8
SU
 10
841.06718690165235
 20
552.71366894745574
 30
0.0
 40
0.6000000000000229
 50
0.0
 51
180.0
  0
ARC
  5
27776
  8
SU
 10
841.06718690165235
 20
552.71366894745574
 30
0.0
 40
0.6000000000000229
 50
180.0
 51
0.0
  0
ARC
  5
27777
  8
SU
 10
810.67236142334866
 20
664.92661335292814
 30
0.0
 40
0.6000000000000229
 50
90.0
 51
270.0
  0
ARC
  5
27778
  8
SU
 10
810.67236142334866
 20
664.92661335292814
 30
0.0
 40
0.6000000000000229
 50
270.0
 51
90.0
  0
ARC
  5
27779
  8
SU
 10
810.67236142334866
 20
697.92661240120287
 30
0.0
 40
0.6000000000000229
 50
270.0
 51
90.0
  0
ARC
  5
2777A
  8
SU
 10
810.67236142334866
 20
697.92661240120287
 30
0.0
 40
0.6000000000000229
 50
90.0
 51
270.0
  0
ARC
  5
2777B
  8
SU
 10
810.67236142334866
 20
592.92661430465932
 30
0.0
 40
0.6000000000000229
 50
90.0
 51
270.0
  0
ARC
  5
2777C
  8
SU
 10
810.67236142334866
 20
592.92661430465932
 30
0.0
 40
0.6000000000000229
 50
270.0
 51
90.0
  0
ARC
  5
2777D
  8
SU
 10
810.67236142334866
 20
625.92661335293406
 30
0.0
 40
0.6000000000000229
 50
270.0
 51
90.0
  0
ARC
  5
2777E
  8
SU
 10
810.67236142334866
 20
625.92661335293406
 30
0.0
 40
0.6000000000000229
 50
90.0
 51
270.0
  0
ARC
  5
2777F
  8
SU
 10
810.67236142334866
 20
661.92661240120287
 30
0.0
 40
0.6000000000000229
 50
270.0
 51
90.0
  0
ARC
  5
27780
  8
SU
 10
810.67236142334866
 20
661.92661240120287
 30
0.0
 40
0.6000000000000229
 50
90.0
 51
270.0
  0
ARC
  5
27781
  8
SU
 10
810.67236142334866
 20
628.92661335292814
 30
0.0
 40
0.6000000000000229
 50
90.0
 51
270.0
  0
ARC
  5
27782
  8
SU
 10
810.67236142334866
 20
628.92661335292814
 30
0.0
 40
0.6000000000000229
 50
270.0
 51
90.0
  0
ARC
  5
27783
  8
SU
 10
893.12703338152755
 20
206.92661430465969
 30
0.0
 40
0.5999999999999944
 50
90.0
 51
270.0
  0
ARC
  5
27784
  8
SU
 10
893.12703338152755
 20
206.92661430465969
 30
0.0
 40
0.5999999999999944
 50
270.0
 51
90.0
  0
ARC
  5
27785
  8
SU
 10
1086.6961116036071
 20
587.42661430465932
 30
0.0
 40
0.6000000000000229
 50
270.0
 51
90.0
  0
ARC
  5
27786
  8
SU
 10
1086.6961116036071
 20
587.42661430465932
 30
0.0
 40
0.6000000000000229
 50
90.0
 51
270.0
  0
ARC
  5
27787
  8
SU
 10
1015.567185949925
 20
454.92661430465859
 30
0.0
 40
0.6000000000000229
 50
180.0
 51
0.0
  0
ARC
  5
27788
  8
SU
 10
1015.567185949925
 20
454.92661430465859
 30
0.0
 40
0.6000000000000229
 50
0.0
 51
180.0
  0
ARC
  5
27789
  8
SU
 10
982.56718690165587
 20
454.92661430465859
 30
0.0
 40
0.6000000000000229
 50
0.0
 51
180.0
  0
ARC
  5
2778A
  8
SU
 10
982.56718690165587
 20
454.92661430465859
 30
0.0
 40
0.6000000000000229
 50
180.0
 51
0.0
  0
ARC
  5
2778B
  8
SU
 10
946.56718880511187
 20
454.92661430465893
 30
0.0
 40
0.6000000000000229
 50
0.0
 51
180.0
  0
ARC
  5
2778C
  8
SU
 10
946.56718880511187
 20
454.92661430465893
 30
0.0
 40
0.6000000000000229
 50
180.0
 51
0.0
  0
ARC
  5
2778D
  8
SU
 10
979.5671878533866
 20
454.92661430465893
 30
0.0
 40
0.6000000000000229
 50
180.0
 51
0.0
  0
ARC
  5
2778E
  8
SU
 10
979.5671878533866
 20
454.92661430465893
 30
0.0
 40
0.6000000000000229
 50
0.0
 51
180.0
  0
ARC
  5
2778F
  8
SU
 10
893.12703338152755
 20
418.92661430465893
 30
0.0
 40
0.6000000000000229
 50
270.0
 51
90.0
  0
ARC
  5
27790
  8
SU
 10
893.12703338152755
 20
418.92661430465893
 30
0.0
 40
0.6000000000000229
 50
90.0
 51
270.0
  0
ARC
  5
27791
  8
SU
 10
893.12703338152733
 20
215.92661430465819
 30
0.0
 40
0.5999999999999944
 50
90.0
 51
270.0
  0
ARC
  5
27792
  8
SU
 10
893.12703338152733
 20
215.92661430465819
 30
0.0
 40
0.5999999999999944
 50
270.0
 51
90.0
  0
ARC
  5
27793
  8
SU
 10
540.87789582150117
 20
71.434950554047873
 30
0.0
 40
0.6000000000000229
 50
180.0
 51
0.0
  0
ARC
  5
27794
  8
SU
 10
540.87789582150117
 20
71.434950554047873
 30
0.0
 40
0.6000000000000229
 50
0.0
 51
180.0
  0
ARC
  5
27795
  8
SU
 10
466.87789582150111
 20
71.434950554047873
 30
0.0
 40
0.6000000000000229
 50
0.0
 51
180.0
  0
ARC
  5
27796
  8
SU
 10
466.87789582150111
 20
71.434950554047873
 30
0.0
 40
0.6000000000000229
 50
180.0
 51
0.0
  0
ARC
  5
27797
  8
SU
 10
229.35878694566509
 20
71.474664865799696
 30
0.0
 40
0.5999999999999944
 50
180.0
 51
0.0
  0
ARC
  5
27798
  8
SU
 10
229.35878694566509
 20
71.474664865799696
 30
0.0
 40
0.5999999999999944
 50
0.0
 51
180.0
  0
ARC
  5
27799
  8
SU
 10
118.3587869456651
 20
71.474664865799696
 30
0.0
 40
0.5999999999999944
 50
0.0
 51
180.0
  0
ARC
  5
2779A
  8
SU
 10
118.3587869456651
 20
71.474664865799696
 30
0.0
 40
0.5999999999999944
 50
180.0
 51
0.0
  0
ARC
  5
2779B
  8
SU
 10
333.85884392836817
 20
104.4746648657997
 30
0.0
 40
0.5999999999999944
 50
90.0
 51
270.0
  0
ARC
  5
2779C
  8
SU
 10
333.85884392836817
 20
104.4746648657997
 30
0.0
 40
0.5999999999999944
 50
270.0
 51
90.0
  0
ARC
  5
2779D
  8
SU
 10
154.3587945122031
 20
313.97466526678261
 30
0.0
 40
0.5999999999999944
 50
180.0
 51
0.0
  0
ARC
  5
2779E
  8
SU
 10
154.3587945122031
 20
313.97466526678261
 30
0.0
 40
0.5999999999999944
 50
0.0
 51
180.0
  0
ARC
  5
2779F
  8
SU
 10
121.35878694559641
 20
313.97466526678261
 30
0.0
 40
0.5999999999999944
 50
0.0
 51
180.0
  0
ARC
  5
277A0
  8
SU
 10
121.35878694559641
 20
313.97466526678261
 30
0.0
 40
0.5999999999999944
 50
180.0
 51
0.0
  0
ARC
  5
277A1
  8
SU
 10
502.37788825489469
 20
313.97466526678261
 30
0.0
 40
0.6000000000000229
 50
180.0
 51
0.0
  0
ARC
  5
277A2
  8
SU
 10
502.37788825489469
 20
313.97466526678261
 30
0.0
 40
0.6000000000000229
 50
0.0
 51
180.0
  0
ARC
  5
277A3
  8
SU
 10
469.37788825489451
 20
313.97466526678261
 30
0.0
 40
0.6000000000000229
 50
0.0
 51
180.0
  0
ARC
  5
277A4
  8
SU
 10
469.37788825489451
 20
313.97466526678261
 30
0.0
 40
0.6000000000000229
 50
180.0
 51
0.0
  0
ARC
  5
277A5
  8
SU
 10
230.7087793789901
 20
439.97466232851423
 30
0.0
 40
0.5999999999999944
 50
180.0
 51
0.0
  0
ARC
  5
277A6
  8
SU
 10
230.7087793789901
 20
439.97466232851423
 30
0.0
 40
0.5999999999999944
 50
0.0
 51
180.0
  0
ARC
  5
277A7
  8
SU
 10
117.0087793789898
 20
439.97466232851423
 30
0.0
 40
0.5999999999999944
 50
0.0
 51
180.0
  0
ARC
  5
277A8
  8
SU
 10
117.0087793789898
 20
439.97466232851423
 30
0.0
 40
0.5999999999999944
 50
180.0
 51
0.0
  0
ARC
  5
277A9
  8
SU
 10
117.0087793789898
 20
313.97466526678261
 30
0.0
 40
0.5999999999999944
 50
0.0
 51
180.0
  0
ARC
  5
277AA
  8
SU
 10
117.0087793789898
 20
313.97466526678261
 30
0.0
 40
0.5999999999999944
 50
180.0
 51
0.0
  0
ARC
  5
277AB
  8
SU
 10
230.70871600043029
 20
333.97466526678352
 30
0.0
 40
0.5999999999999944
 50
180.0
 51
0.0
  0
ARC
  5
277AC
  8
SU
 10
230.70871600043029
 20
333.97466526678352
 30
0.0
 40
0.5999999999999944
 50
0.0
 51
180.0
  0
ARC
  5
277AD
  8
SU
 10
117.0087793789898
 20
333.97466526678352
 30
0.0
 40
0.5999999999999944
 50
0.0
 51
180.0
  0
ARC
  5
277AE
  8
SU
 10
117.0087793789898
 20
333.97466526678352
 30
0.0
 40
0.5999999999999944
 50
180.0
 51
0.0
  0
ARC
  5
277AF
  8
SU
 10
230.70871600043029
 20
313.97466526678261
 30
0.0
 40
0.5999999999999944
 50
180.0
 51
0.0
  0
ARC
  5
277B0
  8
SU
 10
230.70871600043029
 20
313.97466526678261
 30
0.0
 40
0.5999999999999944
 50
0.0
 51
180.0
  0
ARC
  5
277B1
  8
SU
 10
122.60877937898999
 20
439.97466232851423
 30
0.0
 40
0.5999999999999944
 50
0.0
 51
180.0
  0
ARC
  5
277B2
  8
SU
 10
122.60877937898999
 20
439.97466232851423
 30
0.0
 40
0.5999999999999944
 50
180.0
 51
0.0
  0
ARC
  5
277B3
  8
SU
 10
225.10877937898999
 20
439.97466232851423
 30
0.0
 40
0.5999999999999944
 50
180.0
 51
0.0
  0
ARC
  5
277B4
  8
SU
 10
225.10877937898999
 20
439.97466232851423
 30
0.0
 40
0.5999999999999944
 50
0.0
 51
180.0
  0
ARC
  5
277B5
  8
SU
 10
313.85884392843781
 20
359.97466486470472
 30
0.0
 40
0.6000000000000229
 50
90.0
 51
270.0
  0
ARC
  5
277B6
  8
SU
 10
313.85884392843781
 20
359.97466486470472
 30
0.0
 40
0.6000000000000229
 50
270.0
 51
90.0
  0
ARC
  5
277B7
  8
SU
 10
313.85884392843781
 20
363.47466534448841
 30
0.0
 40
0.6000000000000229
 50
270.0
 51
90.0
  0
ARC
  5
277B8
  8
SU
 10
313.85884392843781
 20
363.47466534448841
 30
0.0
 40
0.6000000000000229
 50
90.0
 51
270.0
  0
ARC
  5
277B9
  8
SU
 10
333.85884392843889
 20
372.97466486470472
 30
0.0
 40
0.6000000000000229
 50
90.0
 51
270.0
  0
ARC
  5
277BA
  8
SU
 10
333.85884392843889
 20
372.97466486470472
 30
0.0
 40
0.6000000000000229
 50
270.0
 51
90.0
  0
ARC
  5
277BB
  8
SU
 10
333.85884392843889
 20
400.47466486470472
 30
0.0
 40
0.6000000000000229
 50
270.0
 51
90.0
  0
ARC
  5
277BC
  8
SU
 10
333.85884392843889
 20
400.47466486470472
 30
0.0
 40
0.6000000000000229
 50
90.0
 51
270.0
  0
ARC
  5
277BD
  8
SU
 10
313.85884392843877
 20
104.4746648657997
 30
0.0
 40
0.5999999999999944
 50
90.0
 51
270.0
  0
ARC
  5
277BE
  8
SU
 10
313.85884392843877
 20
104.4746648657997
 30
0.0
 40
0.5999999999999944
 50
270.0
 51
90.0
  0
ARC
  5
277BF
  8
SU
 10
313.85884392843877
 20
109.4746648657996
 30
0.0
 40
0.5999999999999944
 50
270.0
 51
90.0
  0
ARC
  5
277C0
  8
SU
 10
313.85884392843877
 20
109.4746648657996
 30
0.0
 40
0.5999999999999944
 50
90.0
 51
270.0
  0
ARC
  5
277C1
  8
SU
 10
333.85884392843877
 20
363.47466534448841
 30
0.0
 40
0.6000000000000229
 50
270.0
 51
90.0
  0
ARC
  5
277C2
  8
SU
 10
333.85884392843877
 20
363.47466534448841
 30
0.0
 40
0.6000000000000229
 50
90.0
 51
270.0
  0
ARC
  5
277C3
  8
SU
 10
333.85884392843877
 20
113.4746648657994
 30
0.0
 40
0.5999999999999944
 50
90.0
 51
270.0
  0
ARC
  5
277C4
  8
SU
 10
333.85884392843877
 20
113.4746648657994
 30
0.0
 40
0.5999999999999944
 50
270.0
 51
90.0
  0
ARC
  5
277C5
  8
SU
 10
542.72783186854303
 20
439.97466232851423
 30
0.0
 40
0.6000000000000229
 50
180.0
 51
0.0
  0
ARC
  5
277C6
  8
SU
 10
542.72783186854303
 20
439.97466232851423
 30
0.0
 40
0.6000000000000229
 50
0.0
 51
180.0
  0
ARC
  5
277C7
  8
SU
 10
465.0278318685431
 20
439.97466232851423
 30
0.0
 40
0.6000000000000229
 50
0.0
 51
180.0
  0
ARC
  5
277C8
  8
SU
 10
465.0278318685431
 20
439.97466232851423
 30
0.0
 40
0.6000000000000229
 50
180.0
 51
0.0
  0
ARC
  5
277C9
  8
SU
 10
542.72783244294158
 20
333.97466526678352
 30
0.0
 40
0.6000000000000229
 50
180.0
 51
0.0
  0
ARC
  5
277CA
  8
SU
 10
542.72783244294158
 20
333.97466526678352
 30
0.0
 40
0.6000000000000229
 50
0.0
 51
180.0
  0
ARC
  5
277CB
  8
SU
 10
465.02783244294181
 20
333.97466526678352
 30
0.0
 40
0.6000000000000229
 50
0.0
 51
180.0
  0
ARC
  5
277CC
  8
SU
 10
465.02783244294181
 20
333.97466526678352
 30
0.0
 40
0.6000000000000229
 50
180.0
 51
0.0
  0
ARC
  5
277CD
  8
SU
 10
465.02783244294181
 20
313.97466526678261
 30
0.0
 40
0.6000000000000229
 50
0.0
 51
180.0
  0
ARC
  5
277CE
  8
SU
 10
465.02783244294181
 20
313.97466526678261
 30
0.0
 40
0.6000000000000229
 50
180.0
 51
0.0
  0
ARC
  5
277CF
  8
SU
 10
542.72783244294158
 20
313.98435355452119
 30
0.0
 40
0.6000000000000229
 50
180.0
 51
0.0
  0
ARC
  5
277D0
  8
SU
 10
542.72783244294158
 20
313.98435355452119
 30
0.0
 40
0.6000000000000229
 50
0.0
 51
180.0
  0
ARC
  5
277D1
  8
SU
 10
470.62783127205239
 20
439.97465939024471
 30
0.0
 40
0.6000000000000229
 50
0.0
 51
180.0
  0
ARC
  5
277D2
  8
SU
 10
470.62783127205239
 20
439.97465939024471
 30
0.0
 40
0.6000000000000229
 50
180.0
 51
0.0
  0
ARC
  5
277D3
  8
SU
 10
537.12783127205239
 20
439.97465939024471
 30
0.0
 40
0.6000000000000229
 50
180.0
 51
0.0
  0
ARC
  5
277D4
  8
SU
 10
537.12783127205239
 20
439.97465939024471
 30
0.0
 40
0.6000000000000229
 50
0.0
 51
180.0
  0
ENDSEC
  0
EOF
