  0
SECTION
  2
HEADER
  9
$ACADVER
  1
AC1009
  9
$INSBASE
 10
0.0
 20
0.0
 30
0.0
  9
$EXTMIN
 10
19.300000000000001
 20
16.25
 30
-0.0000000000000027
  9
$EXTMAX
 10
1165.5
 20
830.74999999999989
 30
0.0
  9
$LIMMIN
 10
0.0
 20
0.0
  9
$LIMMAX
 10
1189.0
 20
841.0
  9
$ORTHOMODE
 70
     0
  9
$REGENMODE
 70
     1
  9
$FILLMODE
 70
     1
  9
$QTEXTMODE
 70
     0
  9
$MIRRTEXT
 70
     0
  9
$DRAGMODE
 70
     2
  9
$LTSCALE
 40
1.0
  9
$OSMODE
 70
  3071
  9
$ATTMODE
 70
     1
  9
$TEXTSIZE
 40
12.5
  9
$TRACEWID
 40
1.0
  9
$TEXTSTYLE
  7
STANDARD
  9
$CLAYER
  8
0
  9
$CELTYPE
  6
BYLAYER
  9
$CECOLOR
 62
   256
  9
$DIMSCALE
 40
1.0
  9
$DIMASZ
 40
7.0
  9
$DIMEXO
 40
1.0
  9
$DIMDLI
 40
7.0
  9
$DIMRND
 40
0.0
  9
$DIMDLE
 40
0.0
  9
$DIMEXE
 40
3.0
  9
$DIMTP
 40
0.1
  9
$DIMTM
 40
0.1
  9
$DIMTXT
 40
7.0
  9
$DIMCEN
 40
0.0
  9
$DIMTSZ
 40
0.0
  9
$DIMTOL
 70
     0
  9
$DIMLIM
 70
     0
  9
$DIMTIH
 70
     0
  9
$DIMTOH
 70
     0
  9
$DIMSE1
 70
     0
  9
$DIMSE2
 70
     0
  9
$DIMTAD
 70
     1
  9
$DIMZIN
 70
     8
  9
$DIMBLK
  1
DOTSMALL
  9
$DIMASO
 70
     1
  9
$DIMSHO
 70
     1
  9
$DIMPOST
  1

  9
$DIMAPOST
  1
"
  9
$DIMALT
 70
     0
  9
$DIMALTD
 70
     2
  9
$DIMALTF
 40
0.0393701
  9
$DIMLFAC
 40
1.0
  9
$DIMTOFL
 70
     1
  9
$DIMTVP
 40
0.0
  9
$DIMTIX
 70
     0
  9
$DIMSOXD
 70
     0
  9
$DIMSAH
 70
     0
  9
$DIMBLK1
  1

  9
$DIMBLK2
  1

  9
$DIMSTYLE
  2
SANKYO
  9
$DIMCLRD
 70
   256
  9
$DIMCLRE
 70
   256
  9
$DIMCLRT
 70
   256
  9
$DIMTFAC
 40
0.71
  9
$DIMGAP
 40
1.3
  9
$LUNITS
 70
     2
  9
$LUPREC
 70
     4
  9
$SKETCHINC
 40
1.0
  9
$FILLETRAD
 40
0.4
  9
$AUNITS
 70
     0
  9
$AUPREC
 70
     0
  9
$MENU
  1
.
  9
$ELEVATION
 40
0.0
  9
$PELEVATION
 40
0.0
  9
$THICKNESS
 40
0.0
  9
$LIMCHECK
 70
     0
  9
$BLIPMODE
 70
     0
  9
$CHAMFERA
 40
10.0
  9
$CHAMFERB
 40
10.0
  9
$SKPOLY
 70
     0
  9
$TDCREATE
 40
2455110.561913426
  9
$TDUPDATE
 40
2459033.488829074
  9
$TDINDWG
 40
1.9143353241000001
  9
$TDUSRTIMER
 40
1.9141396759
  9
$USRTIMER
 70
     1
  9
$ANGBASE
 50
0.0
  9
$ANGDIR
 70
     0
  9
$PDMODE
 70
     0
  9
$PDSIZE
 40
0.0
  9
$PLINEWID
 40
0.0
  9
$COORDS
 70
     2
  9
$SPLFRAME
 70
     0
  9
$SPLINETYPE
 70
     6
  9
$SPLINESEGS
 70
     8
  9
$ATTDIA
 70
     1
  9
$ATTREQ
 70
     1
  9
$HANDLING
 70
     1
  9
$HANDSEED
  5
20966
  9
$SURFTAB1
 70
     6
  9
$SURFTAB2
 70
     6
  9
$SURFTYPE
 70
     6
  9
$SURFU
 70
     6
  9
$SURFV
 70
     6
  9
$UCSNAME
  2

  9
$UCSORG
 10
0.0
 20
0.0
 30
0.0
  9
$UCSXDIR
 10
1.0
 20
0.0
 30
0.0
  9
$UCSYDIR
 10
0.0
 20
1.0
 30
0.0
  9
$PUCSNAME
  2

  9
$PUCSORG
 10
0.0
 20
0.0
 30
0.0
  9
$PUCSXDIR
 10
1.0
 20
0.0
 30
0.0
  9
$PUCSYDIR
 10
0.0
 20
1.0
 30
0.0
  9
$USERI1
 70
     0
  9
$USERI2
 70
     0
  9
$USERI3
 70
     0
  9
$USERI4
 70
     0
  9
$USERI5
 70
     0
  9
$USERR1
 40
0.0
  9
$USERR2
 40
0.0
  9
$USERR3
 40
0.0
  9
$USERR4
 40
0.0
  9
$USERR5
 40
0.0
  9
$WORLDVIEW
 70
     1
  9
$SHADEDGE
 70
     3
  9
$SHADEDIF
 70
    70
  9
$TILEMODE
 70
     1
  9
$MAXACTVP
 70
    48
  9
$PLIMCHECK
 70
     0
  9
$PEXTMIN
 10
1.0000000000000000E+020
 20
1.0000000000000000E+020
 30
1.0000000000000000E+020
  9
$PEXTMAX
 10
-1.0000000000000000E+020
 20
-1.0000000000000000E+020
 30
-1.0000000000000000E+020
  9
$PLIMMIN
 10
0.0
 20
0.0
  9
$PLIMMAX
 10
420.0
 20
297.0
  9
$UNITMODE
 70
     0
  9
$VISRETAIN
 70
     1
  9
$PLINEGEN
 70
     0
  9
$PSLTSCALE
 70
     1
  0
ENDSEC
  0
SECTION
  2
TABLES
  0
TABLE
  2
VPORT
 70
     1
  0
VPORT
  2
*ACTIVE
 70
     0
 10
0.0
 20
0.0
 11
1.0
 21
1.0
 12
589.19805261456486
 22
424.5554363404043
 13
0.0
 23
0.0
 14
2.5
 24
2.5
 15
10.0
 25
10.0
 16
0.0
 26
0.0
 36
1.0
 17
0.0
 27
0.0
 37
0.0
 40
821.03423085954432
 41
2.050913838120104
 42
50.0
 43
0.0
 44
0.0
 50
0.0
 51
0.0
 71
     0
 72
   100
 73
     1
 74
     1
 75
     0
 76
     0
 77
     0
 78
     0
  0
ENDTAB
  0
TABLE
  2
LTYPE
 70
    26
  0
LTYPE
  2
CONTINUOUS
 70
     0
  3
Solid line
 72
    65
 73
     0
 40
0.0
  0
LTYPE
  2
CENTER
 70
     0
  3
Center ____ _ ____ _ ____ _ ____ _ ____ _ ____
 72
    65
 73
     4
 40
50.799999999999997
 49
31.75
 49
-6.3499999999999988
 49
6.3499999999999988
 49
-6.3499999999999988
  0
LTYPE
  2
CENTER2
 70
     0
  3
Center (.5x) ___ _ ___ _ ___ _ ___ _ ___ _ ___
 72
    65
 73
     4
 40
28.574999999999999
 49
19.050000000000001
 49
-3.1749999999999989
 49
3.1749999999999989
 49
-3.1749999999999989
  0
LTYPE
  2
PHANTOM
 70
     0
  3
Phantom ______  __  __  ______  __  __  ______
 72
    65
 73
     6
 40
63.5
 49
31.75
 49
-6.3499999999999988
 49
6.3499999999999988
 49
-6.3499999999999988
 49
6.3499999999999988
 49
-6.3499999999999988
  0
LTYPE
  2
PHANTOM2
 70
     0
  3
Phantom (.5x) ___ _ _ ___ _ _ ___ _ _ ___ _ _
 72
    65
 73
     6
 40
31.75
 49
15.875
 49
-3.1749999999999989
 49
3.1749999999999989
 49
-3.1749999999999989
 49
3.1749999999999989
 49
-3.1749999999999989
  0
LTYPE
  2
DASHED
 70
     0
  3
Dashed __ __ __ __ __ __ __ __ __ __ __ __ __ _
 72
    65
 73
     2
 40
19.050000000000001
 49
12.699999999999999
 49
-6.3499999999999988
  0
LTYPE
  2
DASHED2
 70
     0
  3
Dashed (.5x) _ _ _ _ _ _ _ _ _ _ _ _ _ _ _ _ _
 72
    65
 73
     2
 40
9.5249999999999986
 49
6.3499999999999988
 49
-3.1749999999999989
  0
LTYPE
  2
ZIGZAG
 70
     0
  3
Zig zag /\/\/\/\/\/\/\/\/\/\/\/\/\/\/\/\/\/\/\/
 72
    65
 73
     4
 40
20.32254
 49
0.00254
 49
-5.0800000000000001
 49
-10.16
 49
-5.0800000000000001
  0
LTYPE
  2
AM_ISO02W050
 70
     0
  3
__ __ __ __ __ __ __ __ __ __ __ __ __ __ __
 72
    65
 73
     2
 40
7.5
 49
6.0
 49
-1.5
  0
LTYPE
  2
AMCONSTR
 70
     0
  3
_______________________
 72
    65
 73
     2
 40
9999.0
 49
9999.0
 49
0.0
  0
LTYPE
  2
AMZIGZAG
 70
     0
  3
/\/-/\/-/\/-/\/-/\/-/\/
 72
    65
 73
     2
 40
11.0001
 49
0.0001
 49
-11.0
  0
LTYPE
  2
ACJISTGB
 70
     0
  3
__ . . __ . .
 72
    65
 73
     6
 40
9.0
 49
4.0
 49
-1.0
 49
1.0
 49
-1.0
 49
1.0
 49
-1.0
  0
LTYPE
  2
ACJISTGL
 70
     0
  3
_ _ _ _ _
 72
    65
 73
     2
 40
3.0
 49
2.0
 49
-1.0
  0
LTYPE
  2
ACISOWELD
 70
     0
  3
_ _ _ _ _
 72
    65
 73
     2
 40
2.0
 49
2.0
 49
-1.0
  0
LTYPE
  2
ACISOTGB
 70
     0
  3
__ . . __ . .
 72
    65
 73
     6
 40
9.0
 49
4.0
 49
-1.0
 49
1.0
 49
-1.0
 49
1.0
 49
-1.0
  0
LTYPE
  2
ACISOTGL
 70
     0
  3
_ _ _ _ _
 72
    65
 73
     2
 40
3.0
 49
2.0
 49
-1.0
  0
LTYPE
  2
HIDDEN
 70
     0
  3
Hidden __ __ __ __ __ __ __ __ __ __ __ __ __ _
 72
    65
 73
     2
 40
9.5249999999999986
 49
6.3499999999999988
 49
-3.1749999999999989
  0
LTYPE
  2
AM_ISO08W050
 70
     0
  3
____ . ____ . ____ . ____ . ____ . ____ . ____
 72
    65
 73
     4
 40
18.0
 49
12.0
 49
-1.5
 49
3.0
 49
-1.5
  0
LTYPE
  2
AM_ISO09W050
 70
     0
  3
_____ . . _____ . . _____ . . ____ .. ____
 72
    65
 73
     6
 40
22.5
 49
12.0
 49
-1.5
 49
3.0
 49
-1.5
 49
3.0
 49
-1.5
  0
LTYPE
  2
AM_ISO08W050X2
 70
     0
  3
__ . __ . __ . __ . __ . __
 72
    65
 73
     4
 40
9.0
 49
6.0
 49
-0.75
 49
1.5
 49
-0.75
  0
LTYPE
  2
AM_ISO02W050X2
 70
     0
  3
 _ _ _ _ _ _ _ _ _ _ _ _
 72
    65
 73
     2
 40
3.75
 49
3.0
 49
-0.75
  0
LTYPE
  2
DDM
 70
     0
  3
中点線
 72
    65
 73
     2
 40
3.0
 49
2.0
 49
-1.0
  0
LTYPE
  2
DD2
 70
     0
  3
二点鎖線
 72
    65
 73
     6
 40
12.0
 49
6.0
 49
-1.1999999999999991
 49
1.1999999999999991
 49
-1.1999999999999991
 49
1.1999999999999991
 49
-1.1999999999999991
  0
LTYPE
  2
HIDDEN2
 70
     0
  3
Hidden (.5x) _ _ _ _ _ _ _ _ _ _ _ _ _ _ _ _ _
 72
    65
 73
     2
 40
0.1875
 49
0.125
 49
-0.0625
  0
LTYPE
  2
ACANSTGB
 70
     0
  3
__ . . __ . .
 72
    65
 73
     6
 40
0.35433070866
 49
0.15748031496
 49
-0.03937007874
 49
0.03937007874
 49
-0.03937007874
 49
0.03937007874
 49
-0.03937007874
  0
LTYPE
  2
ACANSTGL
 70
     0
  3
_ _ _ _ _
 72
    65
 73
     2
 40
0.11811023622
 49
0.07874015748
 49
-0.03937007874
  0
ENDTAB
  0
TABLE
  2
LAYER
 70
    11
  0
LAYER
  2
0
 70
     0
 62
     7
  6
CONTINUOUS
  0
LAYER
  2
KI1
 70
     0
 62
     7
  6
CONTINUOUS
  0
LAYER
  2
SU
 70
     0
 62
     3
  6
CONTINUOUS
  0
LAYER
  2
MJ
 70
     0
 62
     2
  6
CONTINUOUS
  0
LAYER
  2
OS
 70
     0
 62
     2
  6
CONTINUOUS
  0
LAYER
  2
KI2
 70
     0
 62
     4
  6
CONTINUOUS
  0
LAYER
  2
PH
 70
     0
 62
     6
  6
PHANTOM2
  0
LAYER
  2
WK
 70
     4
 62
     7
  6
CONTINUOUS
  0
LAYER
  2
DEFPOINTS
 70
     1
 62
    -7
  6
CONTINUOUS
  0
LAYER
  2
TS
 70
     0
 62
     6
  6
DASHED2
  0
LAYER
  2
CL
 70
     0
 62
     4
  6
CENTER2
  0
ENDTAB
  0
TABLE
  2
STYLE
 70
     5
  0
STYLE
  2
STANDARD
 70
     0
 40
0.0
 41
0.8299999999999999
 50
0.0
 71
     0
 42
12.5
  3
romans.shx
  4
extfont.shx
  0
STYLE
  2

 70
     1
 40
0.0
 41
1.0
 50
0.0
 71
     0
 42
2.5
  3
ltypeshp.shx
  4

  0
STYLE
  2
ACISOGDT
 70
     0
 40
0.0
 41
1.0
 50
0.0
 71
     0
 42
2.5
  3
amgdt.shx
  4

  0
STYLE
  2
ACANSGDT
 70
     0
 40
0.0
 41
1.0
 50
0.0
 71
     0
 42
12.5
  3
amgdt.shx
  4

  0
STYLE
  2
ACISOTS
 70
     0
 40
1.0
 41
1.0
 50
0.0
 71
     0
 42
12.5
  3
isocp.shx
  4
extfont.shx
  0
ENDTAB
  0
TABLE
  2
VIEW
 70
     6
  0
VIEW
  2
AM_VIEW1
 70
     0
 40
297.5
 10
-194.33547008547001
 20
148.25
 41
457.32905982905982
 11
0.0
 21
0.0
 31
1.0
 12
0.0
 22
0.0
 32
0.0
 42
50.0
 43
0.0
 44
0.0
 50
0.0
 71
     0
  0
VIEW
  2
AM_VIEW2
 70
     0
 40
297.5
 10
189.33547008547001
 20
148.25
 41
457.32905982905982
 11
0.0
 21
0.0
 31
1.0
 12
0.0
 22
0.0
 32
0.0
 42
50.0
 43
0.0
 44
0.0
 50
0.0
 71
     0
  0
VIEW
  2
AM_VIEW3
 70
     0
 40
297.5
 10
-194.33547008547001
 20
-149.25
 41
457.32905982905982
 11
0.0
 21
0.0
 31
1.0
 12
0.0
 22
0.0
 32
0.0
 42
50.0
 43
0.0
 44
0.0
 50
0.0
 71
     0
  0
VIEW
  2
AM_VIEW4
 70
     0
 40
297.5
 10
189.33547008547001
 20
-149.25
 41
457.32905982905982
 11
0.0
 21
0.0
 31
1.0
 12
0.0
 22
0.0
 32
0.0
 42
50.0
 43
0.0
 44
0.0
 50
0.0
 71
     0
  0
VIEW
  2
AM_VIEW5
 70
     0
 40
297.5
 10
-2.5
 20
-0.5
 41
457.32905982905982
 11
0.0
 21
0.0
 31
1.0
 12
0.0
 22
0.0
 32
0.0
 42
50.0
 43
0.0
 44
0.0
 50
0.0
 71
     0
  0
VIEW
  2
AM_VIEW6
 70
     0
 40
594.99405000000002
 10
-2.5
 20
-0.5
 41
914.6489730769232
 11
0.0
 21
0.0
 31
1.0
 12
0.0
 22
0.0
 32
0.0
 42
50.0
 43
0.0
 44
0.0
 50
0.0
 71
     0
  0
ENDTAB
  0
TABLE
  2
UCS
 70
     0
  0
ENDTAB
  0
TABLE
  2
APPID
 70
    49
  0
APPID
  2
ACAD
 70
     0
  0
APPID
  2
MCAD_NO_VIS
 70
     0
  0
APPID
  2
ACAD_TEMP_GRAPHIC
 70
     0
  0
APPID
  2
ACATTRIBSERVICES
 70
     0
  0
APPID
  2
GENIUS_GENDIMSH_14
 70
     0
  0
APPID
  2
GENIUS_GENODEF_13
 70
     0
  0
APPID
  2
GENIUS_GENOENT_13
 70
     0
  0
APPID
  2
GENIUS_GENOBJ-N-TIT_13
 70
     0
  0
APPID
  2
GENIUS_GENOLIS_13
 70
     0
  0
APPID
  2
GENIUS_GENTITLE_13
 70
     0
  0
APPID
  2
GENIUS_GENOREF_13
 70
     0
  0
APPID
  2
GENIUS_GENSCREG_15
 70
     0
  0
APPID
  2
GENIUS_GENOBJ-N-SDF_13
 70
     0
  0
APPID
  2
GENIUS_GENOBJ-N-REV_13
 70
     0
  0
APPID
  2
GENIUS_GENOBJ-N-RSSYM_13
 70
     0
  0
APPID
  2
GENIUS_GENSYMENT_13
 70
     0
  0
APPID
  2
GENIUS_GENSCSYM_13
 70
     0
  0
APPID
  2
GENIUS_GENOBJ-N-CEN_13
 70
     0
  0
APPID
  2
GENIUS_GENOBJ-N-FIL_13
 70
     0
  0
APPID
  2
GENIUS_GENBH_13
 70
     0
  0
APPID
  2
GENIUS_GENOBJ-NBEHI-BHF_13
 70
     0
  0
APPID
  2
GENIUS_GENFIL_13
 70
     0
  0
APPID
  2
GENIUS_GENOBJ-N-CHA_13
 70
     0
  0
APPID
  2
GENIUS_GENOBJ-NBEHI-BHB_13
 70
     0
  0
APPID
  2
GENIUS_GENOBJ-N-CRS_13
 70
     0
  0
APPID
  2
GENIUS_GENDTOL_13
 70
     0
  0
APPID
  2
AD_DRAW
 70
     0
  0
APPID
  2
DESIGNERASSEMBLIES
 70
     0
  0
APPID
  2
ACADM_DIM_EDIT
 70
     0
  0
APPID
  2
AMDT_DM_ADJ
 70
     0
  0
APPID
  2
ACAD_PSEXT
 70
     0
  0
APPID
  2
ACAECLAYERSTANDARD
 70
     0
  0
APPID
  2
DCO15
 70
     0
  0
APPID
  2
GENIUS_GENOBJ-N-HTC_13
 70
     0
  0
APPID
  2
GENIUS_GENHATCH_13
 70
     0
  0
APPID
  2
ACAD_NAV_VCDISPLAY
 70
     0
  0
APPID
  2
ACAD_DSTYLE_DIMARC_LENGTH_
 70
     0
  0
APPID
  2
GENIUS_GENREC_14
 70
     0
  0
APPID
  2
GENIUS_GENOBJ-N-REC_13
 70
     0
  0
APPID
  2
GENIUS_GENCEN_19
 70
     0
  0
APPID
  2
ACAD_DSTYLE_DIMBREAK
 70
     0
  0
APPID
  2
ACAD_DSTYLE_DIMJAG
 70
     0
  0
APPID
  2
ACAD_DSTYLE_DIMINSPECT
 70
     0
  0
APPID
  2
ACAD_EXEMPT_FROM_CAD_STANDARDS
 70
     0
  0
APPID
  2
ACAD_MLEADERVER
 70
     0
  0
APPID
  2
ACAD_DSTYLE_DIM_LINETYPE
 70
     0
  0
APPID
  2
ACAD_DSTYLE_DIM_EXT1_LINETYPE
 70
     0
  0
APPID
  2
ACAD_DSTYLE_DIM_EXT2_LINETYPE
 70
     0
  0
APPID
  2
CONTENTBLOCKICON
 70
     0
  0
ENDTAB
  0
TABLE
  2
DIMSTYLE
 70
    11
  0
DIMSTYLE
  2
SANKYO
 70
     0
  3

  4
"
  5
DOTSMALL
  6

  7

 40
1.0
 41
7.0
 42
1.0
 43
7.0
 44
3.0
 45
0.0
 46
0.0
 47
0.1
 48
0.1
140
7.0
141
0.0
142
0.0
143
0.0393701
144
1.0
145
0.0
146
0.71
147
1.3
 71
     0
 72
     0
 73
     0
 74
     0
 75
     0
 76
     0
 77
     1
 78
     8
170
     0
171
     2
172
     1
173
     0
174
     0
175
     0
176
   256
177
   256
178
   256
  0
DIMSTYLE
  2
AM_ISO
 70
     0
  3

  4
"
  5

  6

  7

 40
1.0
 41
1.6000000000000001
 42
1.0
 43
7.0
 44
1.0
 45
0.0
 46
0.0
 47
0.1
 48
0.1
140
2.5
141
0.0
142
0.0
143
0.0393701
144
1.0
145
0.0
146
0.71
147
0.625
 71
     0
 72
     0
 73
     0
 74
     0
 75
     0
 76
     0
 77
     1
 78
     8
170
     0
171
     2
172
     1
173
     0
174
     0
175
     0
176
   256
177
   256
178
   256
  0
DIMSTYLE
  2
AM_ISO$3
 70
     0
  3

  4
"
  5

  6

  7

 40
1.0
 41
1.6000000000000001
 42
1.0
 43
7.0
 44
1.0
 45
0.0
 46
0.0
 47
0.1
 48
0.1
140
2.5
141
0.0
142
0.0
143
0.0393701
144
1.0
145
0.0
146
0.71
147
0.625
 71
     0
 72
     0
 73
     0
 74
     0
 75
     0
 76
     0
 77
     1
 78
     8
170
     0
171
     2
172
     1
173
     0
174
     0
175
     0
176
   256
177
   256
178
   256
  0
DIMSTYLE
  2
AM_ISO$4
 70
     0
  3

  4
"
  5

  6

  7

 40
1.0
 41
1.6000000000000001
 42
1.0
 43
7.0
 44
1.0
 45
0.0
 46
0.0
 47
0.1
 48
0.1
140
2.5
141
0.0
142
0.0
143
0.0393701
144
1.0
145
0.0
146
0.71
147
0.625
 71
     0
 72
     0
 73
     0
 74
     0
 75
     0
 76
     0
 77
     1
 78
     8
170
     0
171
     2
172
     1
173
     0
174
     0
175
     0
176
   256
177
   256
178
   256
  0
DIMSTYLE
  2
AM_ISO$6
 70
     0
  3

  4
"
  5

  6

  7

 40
1.0
 41
1.6000000000000001
 42
1.0
 43
7.0
 44
1.0
 45
0.0
 46
0.0
 47
0.1
 48
0.1
140
2.5
141
0.0
142
0.0
143
0.0393701
144
1.0
145
0.0
146
0.71
147
0.625
 71
     0
 72
     0
 73
     0
 74
     0
 75
     0
 76
     0
 77
     0
 78
     8
170
     0
171
     2
172
     1
173
     0
174
     0
175
     0
176
   256
177
   256
178
   256
  0
DIMSTYLE
  2
AM_ISO$7
 70
     0
  3

  4
"
  5

  6

  7

 40
1.0
 41
1.6000000000000001
 42
1.0
 43
7.0
 44
1.0
 45
0.0
 46
0.0
 47
0.1
 48
0.1
140
2.5
141
0.0
142
0.0
143
0.0393701
144
1.0
145
0.0
146
0.71
147
0.625
 71
     0
 72
     0
 73
     0
 74
     0
 75
     0
 76
     0
 77
     1
 78
     8
170
     0
171
     2
172
     1
173
     0
174
     0
175
     0
176
   256
177
   256
178
   256
  0
DIMSTYLE
  2
AM_ISO$SF
 70
     0
  3

  4
"
  5

  6

  7

 40
1.0
 41
2.5
 42
1.0
 43
10.0
 44
1.0
 45
0.0
 46
0.0
 47
0.1
 48
0.1
140
3.5
141
0.0
142
0.0
143
0.0393701
144
1.0
145
0.0
146
0.71
147
1.5
 71
     0
 72
     0
 73
     0
 74
     0
 75
     1
 76
     1
 77
     1
 78
     8
170
     0
171
     2
172
     1
173
     0
174
     0
175
     0
176
   256
177
   256
178
     2
  0
DIMSTYLE
  2
AM_ISO$SH
 70
     0
  3

  4
"
  5

  6
GENAXEH
  7

 40
1.0
 41
2.5
 42
1.0
 43
10.0
 44
1.0
 45
0.0
 46
0.0
 47
0.1
 48
0.1
140
3.5
141
0.0
142
0.0
143
0.0393701
144
2.0
145
0.0
146
0.71
147
1.5
 71
     0
 72
     0
 73
     0
 74
     0
 75
     1
 76
     1
 77
     1
 78
     8
170
     0
171
     2
172
     1
173
     1
174
     0
175
     0
176
   256
177
   256
178
     2
  0
DIMSTYLE
  2
AM_ISO$2
 70
     0
  3

  4
"
  5

  6

  7

 40
1.0
 41
1.6000000000000001
 42
1.0
 43
7.0
 44
1.0
 45
0.0
 46
0.0
 47
0.1
 48
0.1
140
2.5
141
0.0
142
0.0
143
0.0393701
144
1.0
145
0.0
146
0.71
147
0.625
 71
     0
 72
     0
 73
     0
 74
     0
 75
     0
 76
     0
 77
     1
 78
     8
170
     0
171
     2
172
     1
173
     0
174
     0
175
     0
176
   256
177
   256
178
   256
  0
DIMSTYLE
  2
AM_ISO$0
 70
     0
  3

  4
"
  5

  6

  7

 40
1.0
 41
1.6000000000000001
 42
1.0
 43
7.0
 44
1.0
 45
0.0
 46
0.0
 47
0.1
 48
0.1
140
2.5
141
0.0
142
0.0
143
0.0393701
144
1.0
145
0.0
146
0.71
147
0.625
 71
     0
 72
     0
 73
     0
 74
     0
 75
     0
 76
     0
 77
     1
 78
     8
170
     0
171
     2
172
     1
173
     0
174
     0
175
     0
176
   256
177
   256
178
   256
  0
DIMSTYLE
  2
SANKYO$0
 70
     0
  3

  4
"
  5
DOTSMALL
  6

  7

 40
1.0
 41
7.0
 42
1.0
 43
7.0
 44
3.0
 45
0.0
 46
0.0
 47
0.1
 48
0.1
140
7.0
141
0.0
142
0.0
143
0.0393701
144
1.0
145
0.0
146
0.71
147
1.3
 71
     0
 72
     0
 73
     0
 74
     0
 75
     0
 76
     0
 77
     1
 78
     8
170
     0
171
     2
172
     1
173
     0
174
     0
175
     0
176
   256
177
   256
178
   256
  0
ENDTAB
  0
ENDSEC
  0
SECTION
  2
BLOCKS
  0
BLOCK
  8
0
  2
$MODEL_SPACE
 70
     0
 10
0.0
 20
0.0
 30
0.0
  3
$MODEL_SPACE
  1

  0
ENDBLK
  5
1A
  8
0
  0
BLOCK
 67
     1
  8
0
  2
$PAPER_SPACE
 70
     0
 10
0.0
 20
0.0
 30
0.0
  3
$PAPER_SPACE
  1

  0
ENDBLK
  5
17
 67
     1
  8
0
  0
BLOCK
  8
0
  2
GENAXEH
 70
     0
 10
0.0
 20
0.0
 30
0.0
  3
GENAXEH
  1

  0
LINE
  5
102
  8
0
 10
-1.0
 20
0.0
 30
0.0
 11
1.0
 21
0.0
 31
0.0
  0
ENDBLK
  5
104
  8
0
  0
BLOCK
  8
0
  2
_OPEN
 70
     0
 10
0.0
 20
0.0
 30
0.0
  3
_OPEN
  1

  0
LINE
  5
30B
  8
0
  6
BYBLOCK
 62
     0
 10
-1.0
 20
0.1666666666666666
 30
0.0
 11
0.0
 21
0.0
 31
0.0
  0
LINE
  5
30C
  8
0
  6
BYBLOCK
 62
     0
 10
-1.0
 20
-0.1666666666666666
 30
0.0
 11
0.0
 21
0.0
 31
0.0
  0
LINE
  5
30D
  8
0
  6
BYBLOCK
 62
     0
 10
0.0
 20
0.0
 30
0.0
 11
-1.0
 21
0.0
 31
0.0
  0
ENDBLK
  5
30F
  8
0
  0
BLOCK
  8
0
  2
_DOTSMALL
 70
     0
 10
0.0
 20
0.0
 30
0.0
  3
_DOTSMALL
  1

  0
POLYLINE
  5
A331
  8
0
  6
BYBLOCK
 62
     0
 66
     1
 10
0.0
 20
0.0
 30
0.0
 70
     1
 40
0.5
 41
0.5
  0
VERTEX
  5
2094D
  8
0
  6
BYBLOCK
 62
     0
 10
-0.0625
 20
0.0
 30
0.0
 42
1.0
  0
VERTEX
  5
2094E
  8
0
  6
BYBLOCK
 62
     0
 10
0.0625
 20
0.0
 30
0.0
 42
1.0
  0
SEQEND
  5
2094F
  8
0
  6
BYBLOCK
 62
     0
  0
ENDBLK
  5
A333
  8
0
  0
ENDSEC
  0
SECTION
  2
ENTITIES
  0
LINE
  5
9B1A
  8
WK
 10
23.5
 20
16.25
 30
0.0
 11
1165.5
 21
16.25
 31
0.0
  0
LINE
  5
9B1C
  8
WK
 10
23.5
 20
824.75
 30
0.0
 11
23.5
 21
16.25
 31
0.0
  0
TEXT
  5
9BE2
  8
WK
 10
22.5
 20
16.25
 30
0.0
 40
3.2000000000000002
  1
A0
 50
90.0
 41
0.8299999999999999
  0
LINE
  5
9C31
  8
WK
 10
1085.5
 20
34.25
 30
0.0
 11
1085.5
 21
16.25
 31
0.0
  0
LINE
  5
9C32
  8
WK
 10
890.49999999999989
 20
34.25
 30
0.0
 11
890.49999999999989
 21
16.25
 31
0.0
  0
LINE
  5
9C34
  8
WK
 10
1045.5
 20
34.25
 30
0.0
 11
1045.5
 21
16.25
 31
0.0
  0
LINE
  5
9C35
  8
WK
 10
1065.5
 20
34.25
 30
0.0
 11
1065.5
 21
16.25
 31
0.0
  0
LINE
  5
9C37
  8
WK
 10
1005.5
 20
34.25
 30
0.0
 11
1005.5
 21
16.25
 31
0.0
  0
LINE
  5
9C38
  8
WK
 10
985.5
 20
34.25
 30
0.0
 11
985.5
 21
16.25
 31
0.0
  0
LINE
  5
9C3A
  8
WK
 10
890.49999999999989
 20
34.25
 30
0.0
 11
1165.5
 21
34.25
 31
0.0
  0
LINE
  5
9C3B
  8
WK
 10
899.5
 20
26.25
 30
0.0
 11
972.49999999999989
 21
26.25
 31
0.0
  0
LINE
  5
9C3E
  8
WK
 10
1005.5
 20
22.25
 30
0.0
 11
1045.5
 21
22.25
 31
0.0
  0
LINE
  5
9C3F
  8
WK
 10
1005.5
 20
28.25
 30
0.0
 11
1045.5
 21
28.25
 31
0.0
  0
LINE
  5
9C46
  8
WK
 10
1151.8094750193111
 20
25.25
 30
0.0
 11
1163.8094750193111
 21
25.25
 31
0.0
  0
CIRCLE
  5
9C47
  8
WK
 10
1157.8094750193111
 20
25.25
 30
0.0
 40
6.0
  0
TEXT
  5
9C56
  8
WK
 10
992.52780952380954
 20
20.649999643948512
 30
0.0
 40
3.2000000000000002
  1
1:1
 41
0.8299999999999999
 72
     4
 11
995.5
 21
22.249999643948509
 31
0.0
  0
TEXT
  5
9C57
  8
WK
 10
1087.8031333333331
 20
30.150000000000009
 30
0.0
 40
3.2000000000000002
  1
図番
 41
0.8299999999999999
  0
TEXT
  5
9C58
  8
WK
 10
1067.9290000000001
 20
30.150000000000009
 30
0.0
 40
3.2000000000000002
  1
検図
 41
0.8299999999999999
  0
TEXT
  5
9C59
  8
WK
 10
1047.9290000000001
 20
30.150000000000009
 30
0.0
 40
3.2000000000000002
  1
作図
 41
0.8299999999999999
  0
TEXT
  5
9C5A
  8
WK
 10
1006.5535725057121
 20
29.149999999999999
 30
0.0
 40
3.2000000000000002
  1
作成
 41
0.8299999999999999
  0
TEXT
  5
9C5B
  8
WK
 10
1006.5535725057121
 20
23.149999999999999
 30
0.0
 40
3.2000000000000002
  1
制定
 41
0.8299999999999999
  0
TEXT
  5
9C5C
  8
WK
 10
1006.5535725057121
 20
17.149999999999999
 30
0.0
 40
3.2000000000000002
  1
廃止
 41
0.8299999999999999
  0
TEXT
  5
9C5D
  8
WK
 10
986.42899999999997
 20
30.149999999999999
 30
0.0
 40
3.2000000000000002
  1
尺度
 41
0.8299999999999999
  0
TEXT
  5
9C5E
  8
WK
 10
973.49999999999989
 20
18.25
 30
0.0
 40
4.0
  1
基準図
 41
0.8
  0
TEXT
  5
9C77
  8
WK
 10
892.30313333333345
 20
30.150000000000009
 30
0.0
 40
3.2000000000000002
  1
図名
 41
0.8299999999999999
  0
LINE
  5
9E0D
  8
WK
 10
23.5
 20
824.75
 30
0.0
 11
1165.5
 21
824.75
 31
0.0
  0
LINE
  5
9E18
  8
WK
 10
1165.5
 20
824.75
 30
0.0
 11
1165.5
 21
16.25
 31
0.0
  0
TEXT
  5
12887
  8
WK
 10
1130.0726417273511
 20
826.75
 30
0.0
 40
4.0
  1
大栄建材株式会社
 41
0.9
 72
     2
 11
1163.672641727351
 21
826.75
 31
0.0
  0
TEXT
  5
13021
  8
MJ
 10
1005.5
 20
42.25
 30
0.0
 40
7.0
  1
cl11a008
 41
0.8299999999999999
  0
TEXT
  5
13022
  8
MJ
 10
1005.5
 20
69.25
 30
0.0
 40
7.0
  1
クレーヴァ25・35　Ｙレール引戸
 41
0.8299999999999999
  0
TEXT
  5
13023
  8
MJ
 10
1005.5
 20
60.25
 30
0.0
 40
7.0
  1
4枚引戸
 41
0.8299999999999999
  0
TEXT
  5
13024
  8
MJ
 10
1005.5
 20
78.25
 30
0.0
 40
7.0
  1
スーパースクリーン　クレーヴァ
 41
0.8299999999999999
  0
TEXT
  5
13025
  8
MJ
 10
1005.5
 20
51.25
 30
0.0
 40
7.0
  1
たて横断面
 41
0.8299999999999999
  0
LINE
  5
16CB2
  8
KI1
 10
202.4470492611749
 20
627.10574473009865
 30
0.0
 11
235.4470404794931
 21
627.10574473009865
 31
0.0
  0
LINE
  5
16CBE
  8
KI1
 10
202.4470492612443
 20
337.1057439467258
 30
0.0
 11
235.4470492611749
 21
337.1057439467258
 31
0.0
  0
LINE
  5
16CC6
  8
KI1
 10
202.4470492611749
 20
627.10574473009865
 30
0.0
 11
202.4470492611749
 21
337.1057439467258
 31
0.0
  0
LINE
  5
16CC7
  8
KI1
 10
235.4470492611749
 20
627.10574473009865
 30
0.0
 11
235.4470492611749
 21
337.1057439467258
 31
0.0
  0
LINE
  5
16CCA
  8
OS
 10
102.1970492614016
 20
112.28300748772079
 30
0.0
 11
372.19704926140162
 21
112.28300748772079
 31
0.0
  0
LINE
  5
16CCE
  8
OS
 10
102.1970492614016
 20
114.28300748772079
 30
0.0
 11
174.6970492611749
 21
114.28300748772079
 31
0.0
  0
LINE
  5
16CCF
  8
OS
 10
299.69704926124717
 20
114.28300748772079
 30
0.0
 11
372.19704926140162
 21
114.28300748772079
 31
0.0
  0
LINE
  5
16CD0
  8
OS
 10
102.1970492614016
 20
118.28300748772079
 30
0.0
 11
174.6970492611749
 21
118.28300748772079
 31
0.0
  0
LINE
  5
16CD1
  8
OS
 10
299.69704926124717
 20
118.28300748772079
 30
0.0
 11
372.19704926140162
 21
118.28300748772079
 31
0.0
  0
LINE
  5
16CD2
  8
OS
 10
102.1970492614016
 20
122.28300748772079
 30
0.0
 11
174.6970492611749
 21
122.28300748772079
 31
0.0
  0
LINE
  5
16CD3
  8
OS
 10
299.69704926124717
 20
122.28300748772079
 30
0.0
 11
372.19704926140162
 21
122.28300748772079
 31
0.0
  0
LINE
  5
16CD5
  8
OS
 10
102.1970492614016
 20
116.28300748772079
 30
0.0
 11
174.6970492611749
 21
116.2830074877206
 31
0.0
  0
LINE
  5
16CD6
  8
OS
 10
299.69704926124717
 20
116.2830074877205
 30
0.0
 11
372.19704926140162
 21
116.2830074877204
 31
0.0
  0
LINE
  5
16CD7
  8
OS
 10
102.1970492614016
 20
120.28300748772079
 30
0.0
 11
174.6970492611749
 21
120.28300748772089
 31
0.0
  0
LINE
  5
16CD8
  8
OS
 10
299.69704926124717
 20
120.28300748772079
 30
0.0
 11
372.19704926140162
 21
120.28300748772079
 31
0.0
  0
LINE
  5
16CD9
  8
OS
 10
102.1970492614016
 20
124.28300748772079
 30
0.0
 11
174.6970492611749
 21
124.28300748772079
 31
0.0
  0
LINE
  5
16CDA
  8
OS
 10
299.69704926124717
 20
124.28300748772079
 30
0.0
 11
372.19704926140162
 21
124.28300748772079
 31
0.0
  0
LINE
  5
16CEA
  8
KI1
 10
202.4470492611749
 20
244.28300748772091
 30
0.0
 11
202.4470492611749
 21
131.28300748772079
 31
0.0
  0
LINE
  5
16CEB
  8
KI1
 10
235.4470492611749
 20
244.28300748772091
 30
0.0
 11
235.4470492611749
 21
131.28300748772079
 31
0.0
  0
LINE
  5
16CEC
  8
KI1
 10
166.4470492611749
 20
627.10574473009865
 30
0.0
 11
199.4470404794931
 21
627.10574473009865
 31
0.0
  0
LINE
  5
16CF7
  8
KI1
 10
166.44704926124419
 20
337.1057439467258
 30
0.0
 11
199.4470492611749
 21
337.1057439467258
 31
0.0
  0
LINE
  5
16CFA
  8
KI1
 10
166.4470492611749
 20
627.10574473009865
 30
0.0
 11
166.4470492611749
 21
337.1057439467258
 31
0.0
  0
LINE
  5
16CFB
  8
KI1
 10
199.4470492611749
 20
627.10574473009865
 30
0.0
 11
199.4470492611749
 21
337.1057439467258
 31
0.0
  0
LINE
  5
16D0A
  8
KI1
 10
166.4470492611749
 20
244.28300748772091
 30
0.0
 11
166.4470492611749
 21
131.28300748772079
 31
0.0
  0
LINE
  5
16D0B
  8
KI1
 10
199.4470492611749
 20
244.28300748772091
 30
0.0
 11
199.4470492611749
 21
131.28300748772079
 31
0.0
  0
LINE
  5
16D23
  8
KI1
 10
238.9470492611749
 20
627.10574473009865
 30
0.0
 11
271.94704047949313
 21
627.10574473009865
 31
0.0
  0
LINE
  5
16D2E
  8
KI1
 10
238.9470492612443
 20
337.1057439467258
 30
0.0
 11
271.94704926117493
 21
337.1057439467258
 31
0.0
  0
LINE
  5
16D31
  8
KI1
 10
238.9470492611749
 20
627.10574473009865
 30
0.0
 11
238.9470492611749
 21
337.1057439467258
 31
0.0
  0
LINE
  5
16D32
  8
KI1
 10
271.94704926117493
 20
627.10574473009865
 30
0.0
 11
271.94704926117493
 21
337.1057439467258
 31
0.0
  0
LINE
  5
16D44
  8
KI1
 10
238.94704926117811
 20
244.28300748772091
 30
0.0
 11
238.94704926117811
 21
131.28300748772079
 31
0.0
  0
LINE
  5
16D45
  8
KI1
 10
271.94704926117811
 20
244.28300748772091
 30
0.0
 11
271.94704926117811
 21
131.28300748772079
 31
0.0
  0
LINE
  5
16D55
  8
OS
 10
135.9470416945685
 20
388.10574593944671
 30
0.0
 11
166.4470492611749
 21
388.10574593944671
 31
0.0
  0
LINE
  5
16D57
  8
OS
 10
167.6970416945685
 20
664.10574394563082
 30
0.0
 11
102.1970492614016
 21
664.10574394563082
 31
0.0
  0
LINE
  5
16D5B
  8
OS
 10
372.19704926140162
 20
671.60574394563071
 30
0.0
 11
306.6970504762503
 21
671.60574394563071
 31
0.0
  0
LINE
  5
16D5C
  8
OS
 10
167.6970416945685
 20
671.60574394563071
 30
0.0
 11
102.1970492614016
 21
671.60574394563071
 31
0.0
  0
LINE
  5
16D5D
  8
OS
 10
372.19704926140162
 20
666.10574394563082
 30
0.0
 11
306.6970504762503
 21
666.10574394563082
 31
0.0
  0
LINE
  5
16D5E
  8
OS
 10
167.6970416945685
 20
666.10574394563082
 30
0.0
 11
102.1970492614016
 21
666.10574394563082
 31
0.0
  0
LINE
  5
16D65
  8
OS
 10
372.19704926140162
 20
664.10574394563093
 30
0.0
 11
306.6970504762503
 21
664.10574394563082
 31
0.0
  0
LINE
  5
16D66
  8
OS
 10
372.19704926140162
 20
673.60574394563082
 30
0.0
 11
306.6970504762503
 21
673.60574394563082
 31
0.0
  0
LINE
  5
16D68
  8
OS
 10
167.6970416945685
 20
664.10574394563082
 30
0.0
 11
306.6970504762503
 21
673.60574394563082
 31
0.0
  0
LINE
  5
16D69
  8
OS
 10
141.9470416945685
 20
664.10574394563082
 30
0.0
 11
141.9470416945685
 21
586.62041032103377
 31
0.0
  0
LINE
  5
16D6A
  8
OS
 10
141.9470416945685
 20
568.62041032103377
 30
0.0
 11
141.9470416945685
 21
388.10574593944671
 31
0.0
  0
LINE
  5
16D6B
  8
TS
 10
141.9470416945685
 20
388.10574593944671
 30
0.0
 11
141.9470416945685
 21
328.10574593944671
 31
0.0
  0
LINE
  5
16D6C
  8
OS
 10
135.9470416945685
 20
388.10574593944671
 30
0.0
 11
135.9470416945685
 21
328.10574593944671
 31
0.0
  0
LINE
  5
16D6D
  8
OS
 10
332.4470504762503
 20
664.10574394563082
 30
0.0
 11
332.4470504762503
 21
586.62041032103377
 31
0.0
  0
LINE
  5
16D6E
  8
OS
 10
332.4470504762503
 20
568.62041032103377
 30
0.0
 11
332.4470504762503
 21
388.10574593944671
 31
0.0
  0
LINE
  5
16D6F
  8
OS
 10
338.4470504762503
 20
388.10574593944671
 30
0.0
 11
307.94705804285672
 21
388.10574593944671
 31
0.0
  0
LINE
  5
16D70
  8
TS
 10
332.4470504762503
 20
388.10574593944671
 30
0.0
 11
332.4470504762503
 21
328.10574593944671
 31
0.0
  0
LINE
  5
16D71
  8
OS
 10
338.4470504762503
 20
388.10574593944671
 30
0.0
 11
338.4470504762503
 21
328.10574593944671
 31
0.0
  0
TEXT
  5
16D73
  8
SU
 10
104.9881392253737
 20
386.48319190087341
 30
0.0
 40
7.9999999999999956
  1
巾木
 41
0.9
  0
LINE
  5
16DAF
  8
OS
 10
135.9470416945685
 20
184.28300948044171
 30
0.0
 11
166.4470492611749
 21
184.28300948044171
 31
0.0
  0
LINE
  5
16DB0
  8
OS
 10
141.9470416945685
 20
244.28300748772091
 30
0.0
 11
141.9470416945685
 21
184.28300948044171
 31
0.0
  0
LINE
  5
16DB1
  8
TS
 10
141.9470416945685
 20
184.28300948044171
 30
0.0
 11
141.9470416945685
 21
124.28300948044171
 31
0.0
  0
LINE
  5
16DB2
  8
OS
 10
135.9470416945685
 20
184.28300948044171
 30
0.0
 11
135.9470416945685
 21
124.28300948044171
 31
0.0
  0
LINE
  5
16DB3
  8
OS
 10
332.4470504762503
 20
244.28300748772091
 30
0.0
 11
332.4470504762503
 21
184.28300948044171
 31
0.0
  0
LINE
  5
16DB4
  8
OS
 10
338.4470504762503
 20
184.28300948044171
 30
0.0
 11
307.94705804285672
 21
184.28300948044171
 31
0.0
  0
LINE
  5
16DB5
  8
TS
 10
332.4470504762503
 20
184.28300948044171
 30
0.0
 11
332.4470504762503
 21
124.28300948044171
 31
0.0
  0
LINE
  5
16DB6
  8
OS
 10
338.4470504762503
 20
184.28300948044171
 30
0.0
 11
338.4470504762503
 21
124.28300948044171
 31
0.0
  0
TEXT
  5
16DB8
  8
SU
 10
104.9881392253737
 20
182.66045544186841
 30
0.0
 40
7.9999999999999956
  1
巾木
 41
0.9
  0
LINE
  5
16DC1
  8
OS
 10
199.4470492611749
 20
388.10574593944671
 30
0.0
 11
202.4470492611749
 21
388.10574593944671
 31
0.0
  0
LINE
  5
16DC2
  8
OS
 10
235.4470492611749
 20
388.10574593944671
 30
0.0
 11
238.94704926117811
 21
388.10574593944671
 31
0.0
  0
LINE
  5
16DC3
  8
OS
 10
199.4470492611749
 20
184.28300948044171
 30
0.0
 11
202.4470492611749
 21
184.28300948044171
 31
0.0
  0
LINE
  5
16DC4
  8
OS
 10
235.4470492611749
 20
184.28300948044171
 30
0.0
 11
238.94704926117811
 21
184.28300948044171
 31
0.0
  0
LINE
  5
17904
  8
SU
 10
134.4470416945685
 20
161.88108569179499
 30
0.0
 11
123.8413179828194
 21
180.25073801158231
 31
0.0
210
0.0
220
0.0
230
-1.0
1001
ACAD
1000
DSTYLE
1002
{
1070
    41
1040
1.5
1070
    77
1070
     0
1070
   371
1070
    13
1002
}
  0
LINE
  5
17905
  8
SU
 10
123.8413179828194
 20
180.25073801158231
 30
0.0
 11
102.4796552965195
 21
180.25073801158231
 31
0.0
210
0.0
220
0.0
230
-1.0
1001
ACAD
1000
DSTYLE
1002
{
1070
    41
1040
1.5
1070
    77
1070
     0
1070
   371
1070
    13
1002
}
  0
LINE
  5
17906
  8
SU
 10
134.01402899267629
 20
161.63108569179499
 30
0.0
 11
135.9470416945685
 21
159.28300948044171
 31
0.0
210
0.0
220
0.0
230
-1.0
  0
LINE
  5
17907
  8
SU
 10
134.88005439646071
 20
162.13108569179499
 30
0.0
 11
135.9470416945685
 21
159.28300948044171
 31
0.0
210
0.0
220
0.0
230
-1.0
  0
LINE
  5
17908
  8
SU
 10
135.9470416945685
 20
159.28300948044171
 30
0.0
 11
134.4470416945685
 21
161.88108569179499
 31
0.0
210
0.0
220
0.0
230
-1.0
  0
LINE
  5
1790B
  8
SU
 10
134.4470416945685
 20
365.70382215080002
 30
0.0
 11
123.8413179828194
 21
384.07347447058743
 31
0.0
210
0.0
220
0.0
230
-1.0
1001
ACAD
1000
DSTYLE
1002
{
1070
    41
1040
1.5
1070
    77
1070
     0
1070
   371
1070
    13
1002
}
  0
LINE
  5
1790C
  8
SU
 10
123.8413179828194
 20
384.07347447058743
 30
0.0
 11
102.4796552965195
 21
384.07347447058743
 31
0.0
210
0.0
220
0.0
230
-1.0
1001
ACAD
1000
DSTYLE
1002
{
1070
    41
1040
1.5
1070
    77
1070
     0
1070
   371
1070
    13
1002
}
  0
LINE
  5
1790D
  8
SU
 10
134.01402899267629
 20
365.45382215080002
 30
0.0
 11
135.9470416945685
 21
363.10574593944671
 31
0.0
210
0.0
220
0.0
230
-1.0
  0
LINE
  5
1790E
  8
SU
 10
134.88005439646071
 20
365.95382215080002
 30
0.0
 11
135.9470416945685
 21
363.10574593944671
 31
0.0
210
0.0
220
0.0
230
-1.0
  0
LINE
  5
1790F
  8
SU
 10
135.9470416945685
 20
363.10574593944671
 30
0.0
 11
134.4470416945685
 21
365.70382215080002
 31
0.0
210
0.0
220
0.0
230
-1.0
  0
LINE
  5
1E111
  8
KI2
 10
181.2270404797209
 20
653.20574473009844
 30
0.0
 11
184.6670404797209
 21
653.20574473009844
 31
0.0
  0
LINE
  5
1E112
  8
KI2
 10
185.1670404797209
 20
652.70574473009844
 30
0.0
 11
180.7270404797209
 21
652.70574473009844
 31
0.0
  0
LINE
  5
1E113
  8
KI2
 10
180.7270404797209
 20
652.70574473009844
 30
0.0
 11
180.7270404797209
 21
644.80574473009847
 31
0.0
  0
LINE
  5
1E114
  8
KI2
 10
181.2270404797209
 20
653.20574473009844
 30
0.0
 11
180.7270404797209
 21
652.70574473009844
 31
0.0
  0
LINE
  5
1E115
  8
KI2
 10
185.1670404797209
 20
652.70574473009844
 30
0.0
 11
185.1670404797209
 21
644.80574473009847
 31
0.0
  0
LINE
  5
1E116
  8
KI2
 10
185.1670404797209
 20
652.70574473009844
 30
0.0
 11
184.6670404797209
 21
653.20574473009844
 31
0.0
  0
LINE
  5
1E117
  8
KI2
 10
186.9470404797209
 20
644.80574473009847
 30
0.0
 11
186.9470404797209
 21
642.99574473009852
 31
0.0
  0
LINE
  5
1E118
  8
KI2
 10
188.8470404797209
 20
642.99574473009852
 30
0.0
 11
188.8470404797209
 21
640.99574473009852
 31
0.0
  0
LINE
  5
1E119
  8
KI2
 10
178.9470404797209
 20
644.80574473009847
 30
0.0
 11
186.9470404797209
 21
644.80574473009847
 31
0.0
  0
LINE
  5
1E11A
  8
KI2
 10
177.04704047972089
 20
640.99574473009852
 30
0.0
 11
188.8470404797209
 21
640.99574473009852
 31
0.0
  0
LINE
  5
1E11B
  8
KI2
 10
177.04704047972089
 20
642.99574473009852
 30
0.0
 11
188.8470404797209
 21
642.99574473009852
 31
0.0
  0
LINE
  5
1E11C
  8
KI2
 10
178.9470404797209
 20
644.80574473009847
 30
0.0
 11
178.9470404797209
 21
642.99574473009852
 31
0.0
  0
LINE
  5
1E11D
  8
KI2
 10
177.04704047972089
 20
642.99574473009852
 30
0.0
 11
177.04704047972089
 21
640.99574473009852
 31
0.0
  0
LINE
  5
1E11E
  8
KI2
 10
185.9470404797209
 20
640.99574473009852
 30
0.0
 11
185.9470404797209
 21
627.10574473009865
 31
0.0
  0
LINE
  5
1E11F
  8
KI2
 10
179.9470404797209
 20
640.99574473009852
 30
0.0
 11
179.9470404797209
 21
627.10574473009865
 31
0.0
  0
LINE
  5
1E120
  8
KI2
 10
179.9470404797209
 20
638.48574473009853
 30
0.0
 11
185.9470404797209
 21
638.48574473009853
 31
0.0
  0
LINE
  5
1E121
  8
KI2
 10
217.22704047972101
 20
653.20574473009844
 30
0.0
 11
220.6670404797209
 21
653.20574473009844
 31
0.0
  0
LINE
  5
1E122
  8
KI2
 10
221.16704047972101
 20
652.70574473009844
 30
0.0
 11
216.72704047972101
 21
652.70574473009844
 31
0.0
  0
LINE
  5
1E123
  8
KI2
 10
216.72704047972101
 20
652.70574473009844
 30
0.0
 11
216.72704047972101
 21
644.80574473009847
 31
0.0
  0
LINE
  5
1E124
  8
KI2
 10
217.22704047972101
 20
653.20574473009844
 30
0.0
 11
216.72704047972101
 21
652.70574473009844
 31
0.0
  0
LINE
  5
1E125
  8
KI2
 10
221.16704047972101
 20
652.70574473009844
 30
0.0
 11
221.16704047972101
 21
644.80574473009847
 31
0.0
  0
LINE
  5
1E126
  8
KI2
 10
221.16704047972101
 20
652.70574473009844
 30
0.0
 11
220.6670404797209
 21
653.20574473009844
 31
0.0
  0
LINE
  5
1E127
  8
KI2
 10
222.94704047972101
 20
644.80574473009847
 30
0.0
 11
222.94704047972101
 21
642.99574473009852
 31
0.0
  0
LINE
  5
1E128
  8
KI2
 10
224.84704047972099
 20
642.99574473009852
 30
0.0
 11
224.84704047972099
 21
640.99574473009852
 31
0.0
  0
LINE
  5
1E129
  8
KI2
 10
214.9470404797209
 20
644.80574473009847
 30
0.0
 11
222.94704047972101
 21
644.80574473009847
 31
0.0
  0
LINE
  5
1E12A
  8
KI2
 10
213.04704047972089
 20
640.99574473009852
 30
0.0
 11
224.84704047972099
 21
640.99574473009852
 31
0.0
  0
LINE
  5
1E12B
  8
KI2
 10
213.04704047972089
 20
642.99574473009852
 30
0.0
 11
224.84704047972099
 21
642.99574473009852
 31
0.0
  0
LINE
  5
1E12C
  8
KI2
 10
214.9470404797209
 20
644.80574473009847
 30
0.0
 11
214.9470404797209
 21
642.99574473009852
 31
0.0
  0
LINE
  5
1E12D
  8
KI2
 10
213.04704047972089
 20
642.99574473009852
 30
0.0
 11
213.04704047972089
 21
640.99574473009852
 31
0.0
  0
LINE
  5
1E12E
  8
KI2
 10
221.94704047972101
 20
640.99574473009852
 30
0.0
 11
221.94704047972101
 21
627.10574473009865
 31
0.0
  0
LINE
  5
1E12F
  8
KI2
 10
215.94704047972101
 20
640.99574473009852
 30
0.0
 11
215.94704047972101
 21
627.10574473009865
 31
0.0
  0
LINE
  5
1E130
  8
KI2
 10
215.94704047972101
 20
638.48574473009853
 30
0.0
 11
221.94704047972101
 21
638.48574473009853
 31
0.0
  0
LINE
  5
1E131
  8
KI1
 10
233.19704169463759
 20
662.40574394563089
 30
0.0
 11
224.44704169463759
 21
662.40574394563089
 31
0.0
  0
ARC
  5
1E132
  8
KI1
 10
231.0470416946375
 20
637.10574394563082
 30
0.0
 40
0.5
 50
270.0
 51
0.0
  0
LINE
  5
1E133
  8
KI1
 10
233.0470416946375
 20
640.10574394563082
 30
0.0
 11
231.5470416946375
 21
640.10574394563082
 31
0.0
  0
LINE
  5
1E134
  8
KI1
 10
230.89704169463761
 20
641.25574394563091
 30
0.0
 11
233.0470416946375
 21
641.25574394563091
 31
0.0
  0
LINE
  5
1E135
  8
KI1
 10
204.69704169463759
 20
662.40574394563089
 30
0.0
 11
213.44704169463759
 21
662.40574394563089
 31
0.0
  0
LINE
  5
1E136
  8
KI1
 10
206.9970416946376
 20
641.25574394563091
 30
0.0
 11
204.8470416946376
 21
641.25574394563091
 31
0.0
  0
LINE
  5
1E137
  8
KI1
 10
204.8470416946376
 20
640.10574394563082
 30
0.0
 11
206.3470416946376
 21
640.10574394563082
 31
0.0
  0
LINE
  5
1E138
  8
KI1
 10
205.3470416946376
 20
661.25574394563091
 30
0.0
 11
232.5470416946375
 21
661.25574394563091
 31
0.0
  0
ARC
  5
1E139
  8
KI1
 10
204.19704169463759
 20
663.60574394563082
 30
0.0
 40
0.5
 50
0.0
 51
180.0
  0
ARC
  5
1E13A
  8
KI1
 10
204.27204169463761
 20
638.33574394563084
 30
0.0
 40
0.575000000000003
 50
180.0
 51
0.0
  0
LINE
  5
1E13B
  8
KI1
 10
203.69704169463759
 20
638.33574394563084
 30
0.0
 11
203.69704169463759
 21
663.60574394563082
 31
0.0
  0
LINE
  5
1E13C
  8
KI1
 10
204.69704169463759
 20
663.60574394563082
 30
0.0
 11
204.69704169463759
 21
662.40574394563089
 31
0.0
  0
LINE
  5
1E13D
  8
KI1
 10
204.8470416946376
 20
641.25574394563091
 30
0.0
 11
204.8470416946376
 21
660.75574394563091
 31
0.0
  0
LINE
  5
1E13E
  8
KI1
 10
204.8470416946376
 20
638.33574394563084
 30
0.0
 11
204.8470416946376
 21
640.10574394563082
 31
0.0
  0
ARC
  5
1E13F
  8
KI1
 10
205.3470416946376
 20
660.75574394563091
 30
0.0
 40
0.4999999999999999
 50
90.0
 51
180.0
  0
LINE
  5
1E140
  8
KI1
 10
214.44704169463759
 20
662.40574394563089
 30
0.0
 11
223.44704169463759
 21
662.40574394563089
 31
0.0
  0
ARC
  5
1E141
  8
KI1
 10
211.8720416946376
 20
645.78074394563089
 30
0.0
 40
0.5749999999999959
 50
0.0
 51
180.0
  0
LINE
  5
1E142
  8
KI1
 10
212.14704169463761
 20
636.60574394563082
 30
0.0
 11
206.8470416946376
 21
636.60574394563082
 31
0.0
  0
LINE
  5
1E143
  8
KI1
 10
210.9970416946376
 20
637.75574394563091
 30
0.0
 11
207.4970416946376
 21
637.75574394563091
 31
0.0
  0
ARC
  5
1E144
  8
KI1
 10
206.9970416946376
 20
640.75574394563091
 30
0.0
 40
0.5
 50
0.0
 51
90.0
  0
ARC
  5
1E145
  8
KI1
 10
206.8470416946376
 20
637.10574394563082
 30
0.0
 40
0.5
 50
180.0
 51
270.0
  0
LINE
  5
1E146
  8
KI1
 10
206.3470416946376
 20
637.10574394563082
 30
0.0
 11
206.3470416946376
 21
640.10574394563082
 31
0.0
  0
LINE
  5
1E147
  8
KI1
 10
207.4970416946376
 20
640.75574394563091
 30
0.0
 11
207.4970416946376
 21
637.75574394563091
 31
0.0
  0
LINE
  5
1E148
  8
KI1
 10
211.2970416946375
 20
638.05574394563087
 30
0.0
 11
211.2970416946375
 21
645.78074394563089
 31
0.0
  0
ARC
  5
1E149
  8
KI1
 10
210.9970416946376
 20
638.05574394563087
 30
0.0
 40
0.2999999999999999
 50
270.0
 51
0.0
  0
LINE
  5
1E14A
  8
KI1
 10
214.1983058339865
 20
643.90574394563066
 30
0.0
 11
212.64704169463769
 21
643.90574394563066
 31
0.0
  0
LINE
  5
1E14B
  8
KI1
 10
214.39704169463769
 20
637.60574394563082
 30
0.0
 11
212.44704169463759
 21
637.60574394563082
 31
0.0
  0
LINE
  5
1E14C
  8
KI1
 10
214.3983058339866
 20
645.05574394563064
 30
0.0
 11
212.44704169463759
 21
645.05574394563064
 31
0.0
  0
LINE
  5
1E14D
  8
KI1
 10
213.5470416946375
 20
639.30574394563064
 30
0.0
 11
214.19704169463759
 21
640.30574394563064
 31
0.0
  0
ARC
  5
1E14E
  8
KI1
 10
213.94704169463759
 20
663.60574394563082
 30
0.0
 40
0.5
 50
0.0
 51
180.0
  0
LINE
  5
1E14F
  8
KI1
 10
212.44704169463759
 20
642.40574394563077
 30
0.0
 11
212.64704169463769
 21
643.90574394563066
 31
0.0
  0
LINE
  5
1E150
  8
KI1
 10
212.44704169463759
 20
638.90574394563066
 30
0.0
 11
212.44704169463759
 21
642.40574394563077
 31
0.0
  0
LINE
  5
1E151
  8
KI1
 10
213.5470416946375
 20
638.90574394563066
 30
0.0
 11
212.44704169463759
 21
638.90574394563066
 31
0.0
  0
LINE
  5
1E152
  8
KI1
 10
213.5470416946375
 20
638.90574394563066
 30
0.0
 11
213.5470416946375
 21
639.30574394563064
 31
0.0
  0
LINE
  5
1E153
  8
KI1
 10
212.44704169463759
 20
645.78074394563089
 30
0.0
 11
212.44704169463759
 21
645.05574394563064
 31
0.0
  0
LINE
  5
1E154
  8
KI1
 10
213.44704169463759
 20
663.60574394563082
 30
0.0
 11
213.44704169463759
 21
662.40574394563089
 31
0.0
  0
ARC
  5
1E155
  8
KI1
 10
212.14704169463761
 20
636.90574394563089
 30
0.0
 40
0.2999999999999999
 50
270.0
 51
0.0
  0
LINE
  5
1E156
  8
KI1
 10
212.44704169463759
 20
636.90574394563089
 30
0.0
 11
212.44704169463759
 21
637.60574394563082
 31
0.0
  0
ARC
  5
1E157
  8
KI1
 10
214.39704169463769
 20
637.90574394563077
 30
0.0
 40
0.2999999999999999
 50
270.0
 51
0.0
  0
ARC
  5
1E158
  8
KI1
 10
214.3983058339866
 20
644.75574394563057
 30
0.0
 40
0.2999999999999999
 50
0.0
 51
90.0
  0
LINE
  5
1E159
  8
KI1
 10
214.6983058339865
 20
644.75574394563057
 30
0.0
 11
214.6983058339865
 21
644.40574394563066
 31
0.0
  0
LINE
  5
1E15A
  8
KI1
 10
214.69704169463759
 20
640.00574394563068
 30
0.0
 11
214.69704169463759
 21
637.90574394563077
 31
0.0
  0
ARC
  5
1E15B
  8
KI1
 10
214.39704169463769
 20
640.00574394563068
 30
0.0
 40
0.2999999999999999
 50
0.0
 51
90.0
  0
LINE
  5
1E15C
  8
KI1
 10
214.39704169463769
 20
640.30574394563064
 30
0.0
 11
214.19704169463759
 21
640.30574394563064
 31
0.0
  0
ARC
  5
1E15D
  8
KI1
 10
214.1983058339865
 20
644.40574394563066
 30
0.0
 40
0.5
 50
270.0
 51
0.0
  0
LINE
  5
1E15E
  8
KI1
 10
214.44704169463759
 20
663.60574394563082
 30
0.0
 11
214.44704169463759
 21
662.40574394563089
 31
0.0
  0
LINE
  5
1E15F
  8
KI1
 10
223.6983058339865
 20
643.90574394563066
 30
0.0
 11
225.2470416946376
 21
643.90574394563066
 31
0.0
  0
LINE
  5
1E160
  8
KI1
 10
223.4970416946376
 20
637.60574394563082
 30
0.0
 11
225.44704169463759
 21
637.60574394563082
 31
0.0
  0
LINE
  5
1E161
  8
KI1
 10
224.3470416946376
 20
638.90574394563066
 30
0.0
 11
225.44704169463759
 21
638.90574394563066
 31
0.0
  0
LINE
  5
1E162
  8
KI1
 10
223.49830583398651
 20
645.05574394563064
 30
0.0
 11
225.44704169463759
 21
645.05574394563064
 31
0.0
  0
ARC
  5
1E163
  8
KI1
 10
223.6983058339865
 20
644.40574394563066
 30
0.0
 40
0.5
 50
180.0
 51
270.0
  0
LINE
  5
1E164
  8
KI1
 10
223.4970416946376
 20
640.30574394563064
 30
0.0
 11
223.69704169463759
 21
640.30574394563064
 31
0.0
  0
ARC
  5
1E165
  8
KI1
 10
223.94704169463759
 20
663.60574394563082
 30
0.0
 40
0.5
 50
0.0
 51
180.0
  0
ARC
  5
1E166
  8
KI1
 10
223.4970416946376
 20
637.90574394563077
 30
0.0
 40
0.2999999999999999
 50
180.0
 51
270.0
  0
ARC
  5
1E167
  8
KI1
 10
223.49830583398651
 20
644.75574394563057
 30
0.0
 40
0.2999999999999999
 50
90.0
 51
180.0
  0
LINE
  5
1E168
  8
KI1
 10
223.1983058339865
 20
644.75574394563057
 30
0.0
 11
223.1983058339865
 21
644.40574394563066
 31
0.0
  0
LINE
  5
1E169
  8
KI1
 10
223.19704169463759
 20
640.00574394563068
 30
0.0
 11
223.19704169463759
 21
637.90574394563077
 31
0.0
  0
ARC
  5
1E16A
  8
KI1
 10
223.4970416946376
 20
640.00574394563068
 30
0.0
 40
0.2999999999999999
 50
90.0
 51
180.0
  0
LINE
  5
1E16B
  8
KI1
 10
223.44704169463759
 20
663.60574394563082
 30
0.0
 11
223.44704169463759
 21
662.40574394563089
 31
0.0
  0
LINE
  5
1E16C
  8
KI1
 10
224.3470416946376
 20
638.90574394563066
 30
0.0
 11
224.3470416946376
 21
639.30574394563064
 31
0.0
  0
LINE
  5
1E16D
  8
KI1
 10
224.3470416946376
 20
639.30574394563064
 30
0.0
 11
223.69704169463759
 21
640.30574394563064
 31
0.0
  0
LINE
  5
1E16E
  8
KI1
 10
224.44704169463759
 20
663.60574394563082
 30
0.0
 11
224.44704169463759
 21
662.40574394563089
 31
0.0
  0
LINE
  5
1E16F
  8
KI1
 10
225.7470416946376
 20
636.60574394563082
 30
0.0
 11
231.0470416946375
 21
636.60574394563082
 31
0.0
  0
LINE
  5
1E170
  8
KI1
 10
226.89704169463761
 20
637.75574394563091
 30
0.0
 11
230.39704169463761
 21
637.75574394563091
 31
0.0
  0
ARC
  5
1E171
  8
KI1
 10
226.89704169463761
 20
638.05574394563087
 30
0.0
 40
0.2999999999999999
 50
180.0
 51
270.0
  0
LINE
  5
1E172
  8
KI1
 10
225.2470416946376
 20
643.90574394563066
 30
0.0
 11
225.44704169463759
 21
642.40574394563077
 31
0.0
  0
LINE
  5
1E173
  8
KI1
 10
225.44704169463759
 20
638.90574394563066
 30
0.0
 11
225.44704169463759
 21
642.40574394563077
 31
0.0
  0
LINE
  5
1E174
  8
KI1
 10
226.5970416946376
 20
638.05574394563087
 30
0.0
 11
226.5970416946376
 21
645.78074394563089
 31
0.0
  0
LINE
  5
1E175
  8
KI1
 10
225.44704169463759
 20
645.78074394563089
 30
0.0
 11
225.44704169463759
 21
645.05574394563064
 31
0.0
  0
ARC
  5
1E176
  8
KI1
 10
226.02204169463749
 20
645.78074394563089
 30
0.0
 40
0.5749999999999959
 50
0.0
 51
180.0
  0
LINE
  5
1E177
  8
KI1
 10
225.44704169463759
 20
636.90574394563089
 30
0.0
 11
225.44704169463759
 21
637.60574394563082
 31
0.0
  0
ARC
  5
1E178
  8
KI1
 10
225.7470416946376
 20
636.90574394563089
 30
0.0
 40
0.2999999999999999
 50
180.0
 51
270.0
  0
LINE
  5
1E179
  8
KI1
 10
231.5470416946375
 20
637.10574394563082
 30
0.0
 11
231.5470416946375
 21
640.10574394563082
 31
0.0
  0
ARC
  5
1E17A
  8
KI1
 10
233.69704169463759
 20
663.60574394563082
 30
0.0
 40
0.5
 50
0.0
 51
180.0
  0
ARC
  5
1E17B
  8
KI1
 10
233.6220416946376
 20
638.33574394563084
 30
0.0
 40
0.575000000000003
 50
180.0
 51
0.0
  0
LINE
  5
1E17C
  8
KI1
 10
233.19704169463759
 20
663.60574394563082
 30
0.0
 11
233.19704169463759
 21
662.40574394563089
 31
0.0
  0
LINE
  5
1E17D
  8
KI1
 10
233.0470416946375
 20
641.25574394563091
 30
0.0
 11
233.0470416946375
 21
660.75574394563091
 31
0.0
  0
LINE
  5
1E17E
  8
KI1
 10
233.0470416946375
 20
638.33574394563084
 30
0.0
 11
233.0470416946375
 21
640.10574394563082
 31
0.0
  0
ARC
  5
1E17F
  8
KI1
 10
232.5470416946375
 20
660.75574394563091
 30
0.0
 40
0.4999999999999999
 50
0.0
 51
90.0
  0
LINE
  5
1E180
  8
KI1
 10
234.19704169463759
 20
638.33574394563084
 30
0.0
 11
234.19704169463759
 21
663.60574394563082
 31
0.0
  0
ARC
  5
1E181
  8
KI1
 10
230.89704169463761
 20
640.75574394563091
 30
0.0
 40
0.5
 50
90.0
 51
180.0
  0
LINE
  5
1E182
  8
KI1
 10
230.39704169463769
 20
640.75574394563091
 30
0.0
 11
230.39704169463769
 21
637.75574394563091
 31
0.0
  0
LINE
  5
1E183
  8
KI1
 10
190.89704169463749
 20
637.75574394563091
 30
0.0
 11
197.0470416946375
 21
637.75574394563091
 31
0.0
  0
LINE
  5
1E184
  8
KI1
 10
189.7470416946376
 20
636.60574394563082
 30
0.0
 11
206.1270416946376
 21
636.60574394563082
 31
0.0
  0
LINE
  5
1E185
  8
KI1
 10
197.19704169463759
 20
662.40574394563089
 30
0.0
 11
188.44704169463759
 21
662.40574394563089
 31
0.0
  0
LINE
  5
1E186
  8
KI1
 10
196.5470416946375
 20
661.25574394563091
 30
0.0
 11
169.3470416946376
 21
661.25574394563091
 31
0.0
  0
LINE
  5
1E187
  8
KI1
 10
198.19704169463759
 20
637.75574394563091
 30
0.0
 11
204.92704169463761
 21
637.75574394563091
 31
0.0
  0
ARC
  5
1E188
  8
KI1
 10
205.52704169463749
 20
639.00574394563091
 30
0.0
 40
0.5999999999999996
 50
0.0
 51
180.0
  0
LINE
  5
1E189
  8
KI1
 10
206.1270416946376
 20
639.00574394563091
 30
0.0
 11
206.1270416946376
 21
636.60574394563082
 31
0.0
  0
LINE
  5
1E18A
  8
KI1
 10
204.92704169463761
 20
639.00574394563091
 30
0.0
 11
204.92704169463761
 21
637.75574394563091
 31
0.0
  0
ARC
  5
1E18B
  8
KI1
 10
197.69704169463759
 20
663.60574394563082
 30
0.0
 40
0.5
 50
0.0
 51
180.0
  0
LINE
  5
1E18C
  8
KI1
 10
198.19704169463759
 20
637.75574394563091
 30
0.0
 11
198.19704169463759
 21
663.60574394563082
 31
0.0
  0
LINE
  5
1E18D
  8
KI1
 10
197.19704169463759
 20
663.60574394563082
 30
0.0
 11
197.19704169463759
 21
662.40574394563089
 31
0.0
  0
LINE
  5
1E18E
  8
KI1
 10
197.0470416946375
 20
637.75574394563091
 30
0.0
 11
197.0470416946375
 21
660.75574394563091
 31
0.0
  0
ARC
  5
1E18F
  8
KI1
 10
196.5470416946375
 20
660.75574394563091
 30
0.0
 40
0.4999999999999999
 50
0.0
 51
90.0
  0
LINE
  5
1E190
  8
KI1
 10
163.39704169463749
 20
636.60574394563082
 30
0.0
 11
176.14704169463749
 21
636.60574394563082
 31
0.0
  0
LINE
  5
1E191
  8
KI1
 10
162.5970416946376
 20
637.60574394563082
 30
0.0
 11
167.69704169463759
 21
637.60574394563082
 31
0.0
  0
LINE
  5
1E192
  8
KI1
 10
178.39704169463749
 20
637.60574394563082
 30
0.0
 11
176.44704169463759
 21
637.60574394563082
 31
0.0
  0
LINE
  5
1E193
  8
KI1
 10
178.39577755528859
 20
645.05574394563075
 30
0.0
 11
176.44704169463759
 21
645.05574394563075
 31
0.0
  0
ARC
  5
1E194
  8
KI1
 10
178.19577755528869
 20
644.40574394563066
 30
0.0
 40
0.5
 50
270.0
 51
0.0
  0
LINE
  5
1E195
  8
KI1
 10
178.39704169463749
 20
640.30574394563064
 30
0.0
 11
178.19704169463759
 21
640.30574394563064
 31
0.0
  0
ARC
  5
1E196
  8
KI1
 10
177.94704169463759
 20
663.60574394563082
 30
0.0
 40
0.5
 50
0.0
 51
180.0
  0
LINE
  5
1E197
  8
KI1
 10
187.69577755528869
 20
643.90574394563066
 30
0.0
 11
189.24704169463749
 21
643.90574394563066
 31
0.0
  0
LINE
  5
1E198
  8
KI1
 10
187.49704169463749
 20
637.60574394563082
 30
0.0
 11
189.44704169463759
 21
637.60574394563082
 31
0.0
  0
LINE
  5
1E199
  8
KI1
 10
187.4957775552887
 20
645.05574394563075
 30
0.0
 11
189.44704169463759
 21
645.05574394563075
 31
0.0
  0
LINE
  5
1E19A
  8
KI1
 10
188.3470416946376
 20
639.30574394563075
 30
0.0
 11
187.69704169463759
 21
640.30574394563064
 31
0.0
  0
ARC
  5
1E19B
  8
KI1
 10
187.94704169463759
 20
663.60574394563082
 30
0.0
 40
0.5
 50
0.0
 51
180.0
  0
LINE
  5
1E19C
  8
KI1
 10
188.44704169463759
 20
663.60574394563082
 30
0.0
 11
188.44704169463759
 21
662.40574394563089
 31
0.0
  0
ARC
  5
1E19D
  8
KI1
 10
190.02204169463749
 20
645.78074394563089
 30
0.0
 40
0.5749999999999959
 50
0.0
 51
180.0
  0
ARC
  5
1E19E
  8
KI1
 10
189.7470416946376
 20
636.90574394563089
 30
0.0
 40
0.2999999999999999
 50
180.0
 51
270.0
  0
LINE
  5
1E19F
  8
KI1
 10
190.5970416946376
 20
638.05574394563087
 30
0.0
 11
190.5970416946376
 21
645.78074394563089
 31
0.0
  0
ARC
  5
1E1A0
  8
KI1
 10
190.89704169463749
 20
638.05574394563087
 30
0.0
 40
0.2999999999999999
 50
180.0
 51
270.0
  0
LINE
  5
1E1A1
  8
KI1
 10
189.24704169463749
 20
643.90574394563066
 30
0.0
 11
189.44704169463759
 21
642.40574394563077
 31
0.0
  0
LINE
  5
1E1A2
  8
KI1
 10
189.44704169463759
 20
638.90574394563066
 30
0.0
 11
189.44704169463759
 21
642.40574394563077
 31
0.0
  0
LINE
  5
1E1A3
  8
KI1
 10
188.3470416946376
 20
638.90574394563066
 30
0.0
 11
189.44704169463759
 21
638.90574394563066
 31
0.0
  0
LINE
  5
1E1A4
  8
KI1
 10
188.3470416946376
 20
638.90574394563066
 30
0.0
 11
188.3470416946376
 21
639.30574394563075
 31
0.0
  0
LINE
  5
1E1A5
  8
KI1
 10
189.44704169463759
 20
645.78074394563089
 30
0.0
 11
189.44704169463759
 21
645.05574394563075
 31
0.0
  0
LINE
  5
1E1A6
  8
KI1
 10
189.44704169463759
 20
636.90574394563089
 30
0.0
 11
189.44704169463759
 21
637.60574394563082
 31
0.0
  0
LINE
  5
1E1A7
  8
KI1
 10
187.44704169463759
 20
663.60574394563082
 30
0.0
 11
187.44704169463759
 21
662.40574394563089
 31
0.0
  0
ARC
  5
1E1A8
  8
KI1
 10
187.49704169463749
 20
637.90574394563077
 30
0.0
 40
0.2999999999999999
 50
180.0
 51
270.0
  0
ARC
  5
1E1A9
  8
KI1
 10
187.4957775552887
 20
644.75574394563057
 30
0.0
 40
0.2999999999999999
 50
90.0
 51
180.0
  0
LINE
  5
1E1AA
  8
KI1
 10
187.19577755528869
 20
644.75574394563057
 30
0.0
 11
187.19577755528869
 21
644.40574394563066
 31
0.0
  0
LINE
  5
1E1AB
  8
KI1
 10
187.19704169463759
 20
640.00574394563068
 30
0.0
 11
187.19704169463759
 21
637.90574394563077
 31
0.0
  0
ARC
  5
1E1AC
  8
KI1
 10
187.49704169463749
 20
640.00574394563068
 30
0.0
 40
0.2999999999999999
 50
90.0
 51
180.0
  0
LINE
  5
1E1AD
  8
KI1
 10
187.49704169463749
 20
640.30574394563064
 30
0.0
 11
187.69704169463759
 21
640.30574394563064
 31
0.0
  0
ARC
  5
1E1AE
  8
KI1
 10
187.69577755528869
 20
644.40574394563066
 30
0.0
 40
0.5
 50
180.0
 51
270.0
  0
LINE
  5
1E1AF
  8
KI1
 10
178.44704169463759
 20
662.40574394563089
 30
0.0
 11
187.44704169463759
 21
662.40574394563089
 31
0.0
  0
LINE
  5
1E1B0
  8
KI1
 10
178.44704169463759
 20
663.60574394563082
 30
0.0
 11
178.44704169463759
 21
662.40574394563089
 31
0.0
  0
ARC
  5
1E1B1
  8
KI1
 10
178.39704169463749
 20
637.90574394563077
 30
0.0
 40
0.2999999999999999
 50
270.0
 51
0.0
  0
ARC
  5
1E1B2
  8
KI1
 10
178.39577755528859
 20
644.75574394563057
 30
0.0
 40
0.2999999999999999
 50
0.0
 51
90.0
  0
LINE
  5
1E1B3
  8
KI1
 10
178.69577755528869
 20
644.75574394563057
 30
0.0
 11
178.69577755528869
 21
644.40574394563066
 31
0.0
  0
LINE
  5
1E1B4
  8
KI1
 10
178.69704169463759
 20
640.00574394563068
 30
0.0
 11
178.69704169463759
 21
637.90574394563077
 31
0.0
  0
ARC
  5
1E1B5
  8
KI1
 10
178.39704169463749
 20
640.00574394563068
 30
0.0
 40
0.2999999999999999
 50
0.0
 51
90.0
  0
LINE
  5
1E1B6
  8
KI1
 10
174.99704169463749
 20
637.75574394563091
 30
0.0
 11
168.8470416946376
 21
637.75574394563091
 31
0.0
  0
LINE
  5
1E1B7
  8
KI1
 10
168.69704169463759
 20
662.40574394563089
 30
0.0
 11
177.44704169463759
 21
662.40574394563089
 31
0.0
  0
ARC
  5
1E1B8
  8
KI1
 10
174.99704169463749
 20
638.05574394563087
 30
0.0
 40
0.2999999999999999
 50
270.0
 51
0.0
  0
LINE
  5
1E1B9
  8
KI1
 10
177.44704169463759
 20
663.60574394563082
 30
0.0
 11
177.44704169463759
 21
662.40574394563089
 31
0.0
  0
LINE
  5
1E1BA
  8
KI1
 10
178.19577755528869
 20
643.90574394563066
 30
0.0
 11
176.64704169463749
 21
643.90574394563066
 31
0.0
  0
LINE
  5
1E1BB
  8
KI1
 10
177.5470416946375
 20
638.90574394563066
 30
0.0
 11
176.44704169463759
 21
638.90574394563066
 31
0.0
  0
LINE
  5
1E1BC
  8
KI1
 10
177.5470416946375
 20
638.90574394563066
 30
0.0
 11
177.5470416946375
 21
639.30574394563075
 31
0.0
  0
LINE
  5
1E1BD
  8
KI1
 10
177.5470416946375
 20
639.30574394563075
 30
0.0
 11
178.19704169463759
 21
640.30574394563064
 31
0.0
  0
LINE
  5
1E1BE
  8
KI1
 10
176.64704169463749
 20
643.90574394563066
 30
0.0
 11
176.44704169463759
 21
642.40574394563077
 31
0.0
  0
LINE
  5
1E1BF
  8
KI1
 10
176.44704169463759
 20
638.90574394563066
 30
0.0
 11
176.44704169463759
 21
642.40574394563077
 31
0.0
  0
LINE
  5
1E1C0
  8
KI1
 10
175.2970416946375
 20
638.05574394563087
 30
0.0
 11
175.2970416946375
 21
645.78074394563089
 31
0.0
  0
LINE
  5
1E1C1
  8
KI1
 10
176.44704169463759
 20
645.78074394563089
 30
0.0
 11
176.44704169463759
 21
645.05574394563075
 31
0.0
  0
ARC
  5
1E1C2
  8
KI1
 10
175.87204169463749
 20
645.78074394563089
 30
0.0
 40
0.5749999999999959
 50
0.0
 51
180.0
  0
LINE
  5
1E1C3
  8
KI1
 10
176.44704169463759
 20
636.90574394563089
 30
0.0
 11
176.44704169463759
 21
637.60574394563082
 31
0.0
  0
ARC
  5
1E1C4
  8
KI1
 10
176.14704169463749
 20
636.90574394563089
 30
0.0
 40
0.2999999999999999
 50
270.0
 51
0.0
  0
ARC
  5
1E1C5
  8
KI1
 10
168.19704169463759
 20
663.60574394563082
 30
0.0
 40
0.5
 50
0.0
 51
180.0
  0
LINE
  5
1E1C6
  8
KI1
 10
168.69704169463759
 20
663.60574394563082
 30
0.0
 11
168.69704169463759
 21
662.40574394563089
 31
0.0
  0
LINE
  5
1E1C7
  8
KI1
 10
168.8470416946376
 20
637.75574394563091
 30
0.0
 11
168.8470416946376
 21
660.75574394563091
 31
0.0
  0
ARC
  5
1E1C8
  8
KI1
 10
169.3470416946376
 20
660.75574394563091
 30
0.0
 40
0.4999999999999999
 50
90.0
 51
180.0
  0
LINE
  5
1E1C9
  8
KI1
 10
167.69704169463759
 20
637.60574394563082
 30
0.0
 11
167.69704169463759
 21
663.60574394563082
 31
0.0
  0
ARC
  5
1E1CA
  8
KI1
 10
162.5970416946376
 20
637.10574394563082
 30
0.0
 40
0.5
 50
90.0
 51
180.0
  0
ARC
  5
1E1CB
  8
KI1
 10
163.39704169463749
 20
636.30574394563087
 30
0.0
 40
0.2999999999999999
 50
90.0
 51
180.0
  0
LINE
  5
1E1CC
  8
KI1
 10
163.0970416946376
 20
636.30574394563087
 30
0.0
 11
163.0970416946376
 21
624.10574394563082
 31
0.0
  0
LINE
  5
1E1CD
  8
KI1
 10
162.0970416946376
 20
637.10574394563082
 30
0.0
 11
162.0970416946376
 21
624.10574394563082
 31
0.0
  0
ARC
  5
1E1CE
  8
KI1
 10
162.5970416946376
 20
624.10574394563082
 30
0.0
 40
0.5
 50
180.0
 51
0.0
  0
LINE
  5
1E1CF
  8
KI2
 10
253.7270404797209
 20
653.20574473009844
 30
0.0
 11
257.16704047972098
 21
653.20574473009844
 31
0.0
  0
LINE
  5
1E1D0
  8
KI2
 10
257.66704047972098
 20
652.70574473009844
 30
0.0
 11
253.2270404797209
 21
652.70574473009844
 31
0.0
  0
LINE
  5
1E1D1
  8
KI2
 10
253.2270404797209
 20
652.70574473009844
 30
0.0
 11
253.2270404797209
 21
644.80574473009847
 31
0.0
  0
LINE
  5
1E1D2
  8
KI2
 10
253.7270404797209
 20
653.20574473009844
 30
0.0
 11
253.2270404797209
 21
652.70574473009844
 31
0.0
  0
LINE
  5
1E1D3
  8
KI2
 10
257.66704047972098
 20
652.70574473009844
 30
0.0
 11
257.66704047972098
 21
644.80574473009847
 31
0.0
  0
LINE
  5
1E1D4
  8
KI2
 10
257.66704047972098
 20
652.70574473009844
 30
0.0
 11
257.16704047972098
 21
653.20574473009844
 31
0.0
  0
LINE
  5
1E1D5
  8
KI2
 10
259.44704047972101
 20
644.80574473009847
 30
0.0
 11
259.44704047972101
 21
642.99574473009852
 31
0.0
  0
LINE
  5
1E1D6
  8
KI2
 10
261.34704047972087
 20
642.99574473009852
 30
0.0
 11
261.34704047972087
 21
640.99574473009852
 31
0.0
  0
LINE
  5
1E1D7
  8
KI2
 10
251.44704047972101
 20
644.80574473009847
 30
0.0
 11
259.44704047972101
 21
644.80574473009847
 31
0.0
  0
LINE
  5
1E1D8
  8
KI2
 10
249.54704047972101
 20
640.99574473009852
 30
0.0
 11
261.34704047972087
 21
640.99574473009852
 31
0.0
  0
LINE
  5
1E1D9
  8
KI2
 10
249.54704047972101
 20
642.99574473009852
 30
0.0
 11
261.34704047972087
 21
642.99574473009852
 31
0.0
  0
LINE
  5
1E1DA
  8
KI2
 10
251.44704047972101
 20
644.80574473009847
 30
0.0
 11
251.44704047972101
 21
642.99574473009852
 31
0.0
  0
LINE
  5
1E1DB
  8
KI2
 10
249.54704047972101
 20
642.99574473009852
 30
0.0
 11
249.54704047972101
 21
640.99574473009852
 31
0.0
  0
LINE
  5
1E1DC
  8
KI2
 10
258.44704047972101
 20
640.99574473009852
 30
0.0
 11
258.44704047972101
 21
627.10574473009865
 31
0.0
  0
LINE
  5
1E1DD
  8
KI2
 10
252.4470404797209
 20
640.99574473009852
 30
0.0
 11
252.4470404797209
 21
627.10574473009865
 31
0.0
  0
LINE
  5
1E1DE
  8
KI2
 10
252.4470404797209
 20
638.48574473009853
 30
0.0
 11
258.44704047972101
 21
638.48574473009853
 31
0.0
  0
LINE
  5
1E1DF
  8
KI1
 10
274.94704926124427
 20
627.10574473009865
 30
0.0
 11
307.94704047956247
 21
627.10574473009865
 31
0.0
  0
LINE
  5
1E1E0
  8
KI1
 10
274.94704926131362
 20
337.1057439467258
 30
0.0
 11
307.94704926124427
 21
337.1057439467258
 31
0.0
  0
LINE
  5
1E1E1
  8
KI1
 10
274.94704926124427
 20
627.10574473009865
 30
0.0
 11
274.94704926124427
 21
337.1057439467258
 31
0.0
  0
LINE
  5
1E1E2
  8
KI1
 10
307.94704926124427
 20
627.10574473009865
 30
0.0
 11
307.94704926124427
 21
337.1057439467258
 31
0.0
  0
LINE
  5
1E1E3
  8
KI2
 10
289.72704047972093
 20
653.20574473009844
 30
0.0
 11
293.16704047972098
 21
653.20574473009844
 31
0.0
  0
LINE
  5
1E1E4
  8
KI2
 10
293.66704047972098
 20
652.70574473009844
 30
0.0
 11
289.22704047972093
 21
652.70574473009844
 31
0.0
  0
LINE
  5
1E1E5
  8
KI2
 10
289.22704047972093
 20
652.70574473009844
 30
0.0
 11
289.22704047972093
 21
644.80574473009847
 31
0.0
  0
LINE
  5
1E1E6
  8
KI2
 10
289.72704047972093
 20
653.20574473009844
 30
0.0
 11
289.22704047972093
 21
652.70574473009844
 31
0.0
  0
LINE
  5
1E1E7
  8
KI2
 10
293.66704047972098
 20
652.70574473009844
 30
0.0
 11
293.66704047972098
 21
644.80574473009847
 31
0.0
  0
LINE
  5
1E1E8
  8
KI2
 10
293.66704047972098
 20
652.70574473009844
 30
0.0
 11
293.16704047972098
 21
653.20574473009844
 31
0.0
  0
LINE
  5
1E1E9
  8
KI2
 10
295.44704047972101
 20
644.80574473009847
 30
0.0
 11
295.44704047972101
 21
642.99574473009852
 31
0.0
  0
LINE
  5
1E1EA
  8
KI2
 10
297.34704047972087
 20
642.99574473009852
 30
0.0
 11
297.34704047972087
 21
640.99574473009852
 31
0.0
  0
LINE
  5
1E1EB
  8
KI2
 10
287.4470404797209
 20
644.80574473009847
 30
0.0
 11
295.44704047972101
 21
644.80574473009847
 31
0.0
  0
LINE
  5
1E1EC
  8
KI2
 10
285.54704047972098
 20
640.99574473009852
 30
0.0
 11
297.34704047972087
 21
640.99574473009852
 31
0.0
  0
LINE
  5
1E1ED
  8
KI2
 10
285.54704047972098
 20
642.99574473009852
 30
0.0
 11
297.34704047972087
 21
642.99574473009852
 31
0.0
  0
LINE
  5
1E1EE
  8
KI2
 10
287.4470404797209
 20
644.80574473009847
 30
0.0
 11
287.4470404797209
 21
642.99574473009852
 31
0.0
  0
LINE
  5
1E1EF
  8
KI2
 10
285.54704047972098
 20
642.99574473009852
 30
0.0
 11
285.54704047972098
 21
640.99574473009852
 31
0.0
  0
LINE
  5
1E1F0
  8
KI2
 10
294.4470404797209
 20
640.99574473009852
 30
0.0
 11
294.4470404797209
 21
627.10574473009865
 31
0.0
  0
LINE
  5
1E1F1
  8
KI2
 10
288.4470404797209
 20
640.99574473009852
 30
0.0
 11
288.4470404797209
 21
627.10574473009865
 31
0.0
  0
LINE
  5
1E1F2
  8
KI2
 10
288.4470404797209
 20
638.48574473009853
 30
0.0
 11
294.4470404797209
 21
638.48574473009853
 31
0.0
  0
LINE
  5
1E1F3
  8
KI2
 10
240.19704926140159
 20
647.81594516296593
 30
0.0
 11
240.19704926140159
 21
637.81594516296593
 31
0.0
  0
LINE
  5
1E1F4
  8
KI2
 10
239.2970492614015
 20
641.41594516296584
 30
0.0
 11
239.2970492614015
 21
638.71594516296602
 31
0.0
  0
LINE
  5
1E1F5
  8
KI2
 10
239.2970492614015
 20
641.41594516296584
 30
0.0
 11
238.39704926140149
 21
641.41594516296584
 31
0.0
  0
LINE
  5
1E1F6
  8
KI2
 10
239.2970492614015
 20
644.21594516296545
 30
0.0
 11
238.39704926140149
 21
644.21594516296545
 31
0.0
  0
LINE
  5
1E1F7
  8
KI2
 10
239.2970492614015
 20
646.91594516296584
 30
0.0
 11
239.2970492614015
 21
644.21594516296545
 31
0.0
  0
LINE
  5
1E1F8
  8
KI2
 10
238.39704926140149
 20
643.31594516296593
 30
0.0
 11
238.7970492614015
 21
643.31594516296593
 31
0.0
  0
LINE
  5
1E1F9
  8
KI2
 10
238.39704926140149
 20
642.31594516296593
 30
0.0
 11
238.7970492614015
 21
642.31594516296593
 31
0.0
  0
ARC
  5
1E1FA
  8
KI2
 10
238.7970492614015
 20
642.81594516296593
 30
0.0
 40
0.5
 50
270.0
 51
90.0
  0
LINE
  5
1E1FB
  8
KI2
 10
234.19704926140159
 20
637.81594516296593
 30
0.0
 11
234.19704926140159
 21
647.81594516296593
 31
0.0
  0
LINE
  5
1E1FC
  8
KI2
 10
235.0970492614004
 20
644.21594516296545
 30
0.0
 11
235.0970492614004
 21
646.91594516296584
 31
0.0
  0
LINE
  5
1E1FD
  8
KI2
 10
235.9970492614014
 20
644.21594516296545
 30
0.0
 11
235.0970492614004
 21
644.21594516296545
 31
0.0
  0
LINE
  5
1E1FE
  8
KI2
 10
236.2970492614015
 20
643.75402831493057
 30
0.0
 11
236.2970492614015
 21
643.91594516296584
 31
0.0
  0
LINE
  5
1E1FF
  8
KI2
 10
235.59704926140029
 20
643.31594516296593
 30
0.0
 11
235.9970492614014
 21
643.31594516296593
 31
0.0
  0
LINE
  5
1E200
  8
KI2
 10
236.2970492614015
 20
641.71594516296557
 30
0.0
 11
236.2970492614015
 21
641.87786201099891
 31
0.0
  0
LINE
  5
1E201
  8
KI2
 10
235.0970492614004
 20
641.41594516296584
 30
0.0
 11
235.9970492614014
 21
641.41594516296584
 31
0.0
  0
LINE
  5
1E202
  8
KI2
 10
238.09704926140029
 20
641.71594516296557
 30
0.0
 11
238.09704926140029
 21
641.87786201099891
 31
0.0
  0
LINE
  5
1E203
  8
KI2
 10
238.09704926140029
 20
643.91594516296584
 30
0.0
 11
238.09704926140029
 21
643.75402831493057
 31
0.0
  0
LINE
  5
1E204
  8
KI2
 10
235.0970492614004
 20
638.71594516296602
 30
0.0
 11
235.0970492614004
 21
641.41594516296584
 31
0.0
  0
LINE
  5
1E205
  8
KI2
 10
235.9970492614014
 20
642.31594516296593
 30
0.0
 11
235.59704926140029
 21
642.31594516296593
 31
0.0
  0
ARC
  5
1E206
  8
KI2
 10
237.19704926140159
 20
642.81594516296593
 30
0.0
 40
1.300000000000356
 50
202.61986494803151
 51
226.18693853966499
  0
ARC
  5
1E207
  8
KI2
 10
237.19704926140159
 20
642.81594516296593
 30
0.0
 40
1.3000000000001859
 50
133.81306146040981
 51
157.38013505196841
  0
ARC
  5
1E208
  8
KI2
 10
235.59704926140029
 20
642.81594516296593
 30
0.0
 40
0.5
 50
90.0
 51
270.0
  0
ARC
  5
1E209
  8
KI2
 10
235.9970492614014
 20
641.71594516296557
 30
0.0
 40
0.2999999999997414
 50
270.0
 51
0.0
  0
ARC
  5
1E20A
  8
KI2
 10
235.9970492614014
 20
643.91594516296584
 30
0.0
 40
0.300000000000182
 50
0.0
 51
90.0
  0
LINE
  5
1E20B
  8
KI2
 10
234.19704926140159
 20
647.81594516296593
 30
0.0
 11
240.19704926140159
 21
647.81594516296593
 31
0.0
  0
LINE
  5
1E20C
  8
KI2
 10
235.0970492614004
 20
646.91594516296584
 30
0.0
 11
239.2970492614015
 21
646.91594516296584
 31
0.0
  0
ARC
  5
1E20D
  8
KI2
 10
237.19704926140159
 20
642.81594516296593
 30
0.0
 40
1.299999999999832
 50
22.619864948046072
 51
46.186938539646619
  0
ARC
  5
1E20E
  8
KI2
 10
237.19704926140159
 20
642.81594516296593
 30
0.0
 40
1.3000000000007239
 50
313.8130614602797
 51
337.38013505195391
  0
ARC
  5
1E20F
  8
KI2
 10
238.39704926140149
 20
643.91594516296584
 30
0.0
 40
0.2999999999997414
 50
90.0
 51
180.0
  0
ARC
  5
1E210
  8
KI2
 10
238.39704926140149
 20
641.71594516296557
 30
0.0
 40
0.300000000001205
 50
180.0
 51
270.0
  0
LINE
  5
1E211
  8
KI2
 10
234.19704926140159
 20
637.81594516296593
 30
0.0
 11
240.19704926140159
 21
637.81594516296593
 31
0.0
  0
LINE
  5
1E212
  8
KI2
 10
235.0970492614004
 20
638.71594516296602
 30
0.0
 11
239.2970492614015
 21
638.71594516296602
 31
0.0
  0
LINE
  5
1E213
  8
KI1
 10
269.69704926140162
 20
662.40574356431478
 30
0.0
 11
260.94704926140162
 21
662.40574356431478
 31
0.0
  0
ARC
  5
1E214
  8
KI1
 10
267.54704926140153
 20
637.10574356431493
 30
0.0
 40
0.5
 50
270.0
 51
0.0
  0
LINE
  5
1E215
  8
KI1
 10
269.54704926140153
 20
640.10574356431493
 30
0.0
 11
268.04704926140153
 21
640.10574356431493
 31
0.0
  0
LINE
  5
1E216
  8
KI1
 10
267.39704926140149
 20
641.25574356431468
 30
0.0
 11
269.54704926140153
 21
641.25574356431468
 31
0.0
  0
LINE
  5
1E217
  8
KI1
 10
241.19704926140159
 20
662.40574356431478
 30
0.0
 11
249.94704926140159
 21
662.40574356431478
 31
0.0
  0
LINE
  5
1E218
  8
KI1
 10
243.4970492614016
 20
641.25574356431468
 30
0.0
 11
241.34704926140159
 21
641.25574356431468
 31
0.0
  0
LINE
  5
1E219
  8
KI1
 10
241.34704926140159
 20
640.10574356431493
 30
0.0
 11
242.84704926140159
 21
640.10574356431493
 31
0.0
  0
LINE
  5
1E21A
  8
KI1
 10
241.84704926140159
 20
661.2557435643148
 30
0.0
 11
269.04704926140153
 21
661.2557435643148
 31
0.0
  0
ARC
  5
1E21B
  8
KI1
 10
240.69704926140159
 20
663.60574356431493
 30
0.0
 40
0.5
 50
0.0
 51
180.0
  0
ARC
  5
1E21C
  8
KI1
 10
240.77204926140161
 20
638.33574356431495
 30
0.0
 40
0.575000000000003
 50
180.0
 51
0.0
  0
LINE
  5
1E21D
  8
KI1
 10
240.19704926140159
 20
638.33574356431495
 30
0.0
 11
240.19704926140159
 21
663.60574356431493
 31
0.0
  0
LINE
  5
1E21E
  8
KI1
 10
241.19704926140159
 20
663.60574356431493
 30
0.0
 11
241.19704926140159
 21
662.40574356431478
 31
0.0
  0
LINE
  5
1E21F
  8
KI1
 10
241.34704926140159
 20
641.25574356431468
 30
0.0
 11
241.34704926140159
 21
660.7557435643148
 31
0.0
  0
LINE
  5
1E220
  8
KI1
 10
241.34704926140159
 20
638.33574356431495
 30
0.0
 11
241.34704926140159
 21
640.10574356431493
 31
0.0
  0
ARC
  5
1E221
  8
KI1
 10
241.84704926140159
 20
660.7557435643148
 30
0.0
 40
0.4999999999999999
 50
90.0
 51
180.0
  0
LINE
  5
1E222
  8
KI1
 10
250.94704926140159
 20
662.40574356431478
 30
0.0
 11
259.9470492614015
 21
662.40574356431478
 31
0.0
  0
ARC
  5
1E223
  8
KI1
 10
248.3720492614016
 20
645.78074356431478
 30
0.0
 40
0.5749999999999959
 50
0.0
 51
180.0
  0
LINE
  5
1E224
  8
KI1
 10
248.64704926140169
 20
636.60574356431493
 30
0.0
 11
243.34704926140159
 21
636.60574356431493
 31
0.0
  0
LINE
  5
1E225
  8
KI1
 10
247.4970492614016
 20
637.75574356431468
 30
0.0
 11
243.99704926140149
 21
637.75574356431468
 31
0.0
  0
ARC
  5
1E226
  8
KI1
 10
243.4970492614016
 20
640.75574356431468
 30
0.0
 40
0.5
 50
0.0
 51
90.0
  0
ARC
  5
1E227
  8
KI1
 10
243.34704926140159
 20
637.10574356431493
 30
0.0
 40
0.5
 50
180.0
 51
270.0
  0
LINE
  5
1E228
  8
KI1
 10
242.84704926140159
 20
637.10574356431493
 30
0.0
 11
242.84704926140159
 21
640.10574356431493
 31
0.0
  0
LINE
  5
1E229
  8
KI1
 10
243.99704926140149
 20
640.75574356431468
 30
0.0
 11
243.99704926140149
 21
637.75574356431468
 31
0.0
  0
LINE
  5
1E22A
  8
KI1
 10
247.7970492614015
 20
638.05574356431475
 30
0.0
 11
247.7970492614015
 21
645.78074356431478
 31
0.0
  0
ARC
  5
1E22B
  8
KI1
 10
247.4970492614016
 20
638.05574356431475
 30
0.0
 40
0.2999999999999999
 50
270.0
 51
0.0
  0
LINE
  5
1E22C
  8
KI1
 10
250.69831340075049
 20
643.90574356431455
 30
0.0
 11
249.14704926140169
 21
643.90574356431455
 31
0.0
  0
LINE
  5
1E22D
  8
KI1
 10
250.89704926140169
 20
637.60574356431471
 30
0.0
 11
248.94704926140159
 21
637.60574356431471
 31
0.0
  0
LINE
  5
1E22E
  8
KI1
 10
250.8983134007506
 20
645.05574356431475
 30
0.0
 11
248.94704926140159
 21
645.05574356431475
 31
0.0
  0
LINE
  5
1E22F
  8
KI1
 10
250.0470492614015
 20
639.30574356431475
 30
0.0
 11
250.69704926140159
 21
640.30574356431475
 31
0.0
  0
ARC
  5
1E230
  8
KI1
 10
250.44704926140159
 20
663.60574356431493
 30
0.0
 40
0.5
 50
0.0
 51
180.0
  0
LINE
  5
1E231
  8
KI1
 10
248.94704926140159
 20
642.40574356431455
 30
0.0
 11
249.14704926140169
 21
643.90574356431455
 31
0.0
  0
LINE
  5
1E232
  8
KI1
 10
248.94704926140159
 20
638.90574356431455
 30
0.0
 11
248.94704926140159
 21
642.40574356431455
 31
0.0
  0
LINE
  5
1E233
  8
KI1
 10
250.0470492614015
 20
638.90574356431455
 30
0.0
 11
248.94704926140159
 21
638.90574356431455
 31
0.0
  0
LINE
  5
1E234
  8
KI1
 10
250.0470492614015
 20
638.90574356431455
 30
0.0
 11
250.0470492614015
 21
639.30574356431475
 31
0.0
  0
LINE
  5
1E235
  8
KI1
 10
248.94704926140159
 20
645.78074356431478
 30
0.0
 11
248.94704926140159
 21
645.05574356431475
 31
0.0
  0
LINE
  5
1E236
  8
KI1
 10
249.94704926140159
 20
663.60574356431493
 30
0.0
 11
249.94704926140159
 21
662.40574356431478
 31
0.0
  0
ARC
  5
1E237
  8
KI1
 10
248.64704926140169
 20
636.90574356431478
 30
0.0
 40
0.2999999999999999
 50
270.0
 51
0.0
  0
LINE
  5
1E238
  8
KI1
 10
248.94704926140159
 20
636.90574356431478
 30
0.0
 11
248.94704926140159
 21
637.60574356431471
 31
0.0
  0
ARC
  5
1E239
  8
KI1
 10
250.89704926140169
 20
637.90574356431455
 30
0.0
 40
0.2999999999999999
 50
270.0
 51
0.0
  0
ARC
  5
1E23A
  8
KI1
 10
250.8983134007506
 20
644.75574356431468
 30
0.0
 40
0.2999999999999999
 50
0.0
 51
90.0
  0
LINE
  5
1E23B
  8
KI1
 10
251.19831340075049
 20
644.75574356431468
 30
0.0
 11
251.19831340075049
 21
644.40574356431455
 31
0.0
  0
LINE
  5
1E23C
  8
KI1
 10
251.19704926140159
 20
640.0057435643148
 30
0.0
 11
251.19704926140159
 21
637.90574356431455
 31
0.0
  0
ARC
  5
1E23D
  8
KI1
 10
250.89704926140169
 20
640.0057435643148
 30
0.0
 40
0.2999999999999999
 50
0.0
 51
90.0
  0
LINE
  5
1E23E
  8
KI1
 10
250.89704926140169
 20
640.30574356431475
 30
0.0
 11
250.69704926140159
 21
640.30574356431475
 31
0.0
  0
ARC
  5
1E23F
  8
KI1
 10
250.69831340075049
 20
644.40574356431455
 30
0.0
 40
0.5
 50
270.0
 51
0.0
  0
LINE
  5
1E240
  8
KI1
 10
250.94704926140159
 20
663.60574356431493
 30
0.0
 11
250.94704926140159
 21
662.40574356431478
 31
0.0
  0
LINE
  5
1E241
  8
KI1
 10
260.19831340075052
 20
643.90574356431455
 30
0.0
 11
261.74704926140163
 21
643.90574356431455
 31
0.0
  0
LINE
  5
1E242
  8
KI1
 10
259.99704926140163
 20
637.60574356431471
 30
0.0
 11
261.94704926140162
 21
637.60574356431471
 31
0.0
  0
LINE
  5
1E243
  8
KI1
 10
260.84704926140159
 20
638.90574356431455
 30
0.0
 11
261.94704926140162
 21
638.90574356431455
 31
0.0
  0
LINE
  5
1E244
  8
KI1
 10
259.99831340075048
 20
645.05574356431475
 30
0.0
 11
261.94704926140162
 21
645.05574356431475
 31
0.0
  0
ARC
  5
1E245
  8
KI1
 10
260.19831340075052
 20
644.40574356431455
 30
0.0
 40
0.5
 50
180.0
 51
270.0
  0
LINE
  5
1E246
  8
KI1
 10
259.99704926140163
 20
640.30574356431475
 30
0.0
 11
260.19704926140162
 21
640.30574356431475
 31
0.0
  0
ARC
  5
1E247
  8
KI1
 10
260.44704926140162
 20
663.60574356431493
 30
0.0
 40
0.5
 50
0.0
 51
180.0
  0
ARC
  5
1E248
  8
KI1
 10
259.99704926140163
 20
637.90574356431455
 30
0.0
 40
0.2999999999999999
 50
180.0
 51
270.0
  0
ARC
  5
1E249
  8
KI1
 10
259.99831340075048
 20
644.75574356431468
 30
0.0
 40
0.2999999999999999
 50
90.0
 51
180.0
  0
LINE
  5
1E24A
  8
KI1
 10
259.69831340075052
 20
644.75574356431468
 30
0.0
 11
259.69831340075052
 21
644.40574356431455
 31
0.0
  0
LINE
  5
1E24B
  8
KI1
 10
259.69704926140162
 20
640.0057435643148
 30
0.0
 11
259.69704926140162
 21
637.90574356431455
 31
0.0
  0
ARC
  5
1E24C
  8
KI1
 10
259.99704926140163
 20
640.0057435643148
 30
0.0
 40
0.2999999999999999
 50
90.0
 51
180.0
  0
LINE
  5
1E24D
  8
KI1
 10
259.94704926140162
 20
663.60574356431493
 30
0.0
 11
259.94704926140162
 21
662.40574356431478
 31
0.0
  0
LINE
  5
1E24E
  8
KI1
 10
260.84704926140159
 20
638.90574356431455
 30
0.0
 11
260.84704926140159
 21
639.30574356431475
 31
0.0
  0
LINE
  5
1E24F
  8
KI1
 10
260.84704926140159
 20
639.30574356431475
 30
0.0
 11
260.19704926140162
 21
640.30574356431475
 31
0.0
  0
LINE
  5
1E250
  8
KI1
 10
260.94704926140162
 20
663.60574356431493
 30
0.0
 11
260.94704926140162
 21
662.40574356431478
 31
0.0
  0
LINE
  5
1E251
  8
KI1
 10
262.24704926140163
 20
636.60574356431493
 30
0.0
 11
267.54704926140153
 21
636.60574356431493
 31
0.0
  0
LINE
  5
1E252
  8
KI1
 10
263.39704926140149
 20
637.75574356431468
 30
0.0
 11
266.89704926140161
 21
637.75574356431468
 31
0.0
  0
ARC
  5
1E253
  8
KI1
 10
263.39704926140149
 20
638.05574356431475
 30
0.0
 40
0.2999999999999999
 50
180.0
 51
270.0
  0
LINE
  5
1E254
  8
KI1
 10
261.74704926140163
 20
643.90574356431455
 30
0.0
 11
261.94704926140162
 21
642.40574356431455
 31
0.0
  0
LINE
  5
1E255
  8
KI1
 10
261.94704926140162
 20
638.90574356431455
 30
0.0
 11
261.94704926140162
 21
642.40574356431455
 31
0.0
  0
LINE
  5
1E256
  8
KI1
 10
263.09704926140159
 20
638.05574356431475
 30
0.0
 11
263.09704926140159
 21
645.78074356431478
 31
0.0
  0
LINE
  5
1E257
  8
KI1
 10
261.94704926140162
 20
645.78074356431478
 30
0.0
 11
261.94704926140162
 21
645.05574356431475
 31
0.0
  0
ARC
  5
1E258
  8
KI1
 10
262.52204926140149
 20
645.78074356431478
 30
0.0
 40
0.5749999999999959
 50
0.0
 51
180.0
  0
LINE
  5
1E259
  8
KI1
 10
261.94704926140162
 20
636.90574356431478
 30
0.0
 11
261.94704926140162
 21
637.60574356431471
 31
0.0
  0
ARC
  5
1E25A
  8
KI1
 10
262.24704926140163
 20
636.90574356431478
 30
0.0
 40
0.2999999999999999
 50
180.0
 51
270.0
  0
LINE
  5
1E25B
  8
KI1
 10
268.04704926140153
 20
637.10574356431493
 30
0.0
 11
268.04704926140153
 21
640.10574356431493
 31
0.0
  0
ARC
  5
1E25C
  8
KI1
 10
270.19704926140162
 20
663.60574356431493
 30
0.0
 40
0.5
 50
0.0
 51
180.0
  0
ARC
  5
1E25D
  8
KI1
 10
270.12204926140163
 20
638.33574356431495
 30
0.0
 40
0.575000000000003
 50
180.0
 51
0.0
  0
LINE
  5
1E25E
  8
KI1
 10
269.69704926140162
 20
663.60574356431493
 30
0.0
 11
269.69704926140162
 21
662.40574356431478
 31
0.0
  0
LINE
  5
1E25F
  8
KI1
 10
269.54704926140153
 20
641.25574356431468
 30
0.0
 11
269.54704926140153
 21
660.7557435643148
 31
0.0
  0
LINE
  5
1E260
  8
KI1
 10
269.54704926140153
 20
638.33574356431495
 30
0.0
 11
269.54704926140153
 21
640.10574356431493
 31
0.0
  0
ARC
  5
1E261
  8
KI1
 10
269.04704926140153
 20
660.7557435643148
 30
0.0
 40
0.4999999999999999
 50
0.0
 51
90.0
  0
LINE
  5
1E262
  8
KI1
 10
270.69704926140162
 20
638.33574356431495
 30
0.0
 11
270.69704926140162
 21
663.60574356431493
 31
0.0
  0
ARC
  5
1E263
  8
KI1
 10
267.39704926140172
 20
640.75574356431468
 30
0.0
 40
0.5
 50
90.0
 51
180.0
  0
LINE
  5
1E264
  8
KI1
 10
266.89704926140161
 20
640.75574356431468
 30
0.0
 11
266.89704926140161
 21
637.75574356431468
 31
0.0
  0
LINE
  5
1E265
  8
KI1
 10
283.49704926140151
 20
637.75574356431468
 30
0.0
 11
277.34704926140159
 21
637.75574356431468
 31
0.0
  0
LINE
  5
1E266
  8
KI1
 10
284.64704926140149
 20
636.60574356431493
 30
0.0
 11
268.26704926140161
 21
636.60574356431493
 31
0.0
  0
LINE
  5
1E267
  8
KI1
 10
277.1970492614015
 20
662.40574356431478
 30
0.0
 11
285.9470492614015
 21
662.40574356431478
 31
0.0
  0
LINE
  5
1E268
  8
KI1
 10
277.84704926140159
 20
661.2557435643148
 30
0.0
 11
305.04704926140153
 21
661.2557435643148
 31
0.0
  0
LINE
  5
1E269
  8
KI1
 10
276.1970492614015
 20
637.75574356431468
 30
0.0
 11
269.46704926140148
 21
637.75574356431468
 31
0.0
  0
ARC
  5
1E26A
  8
KI1
 10
268.86704926140158
 20
639.00574356431468
 30
0.0
 40
0.5999999999999996
 50
0.0
 51
180.0
  0
LINE
  5
1E26B
  8
KI1
 10
268.26704926140161
 20
639.00574356431468
 30
0.0
 11
268.26704926140161
 21
636.60574356431493
 31
0.0
  0
LINE
  5
1E26C
  8
KI1
 10
269.46704926140148
 20
639.00574356431468
 30
0.0
 11
269.46704926140148
 21
637.75574356431468
 31
0.0
  0
ARC
  5
1E26D
  8
KI1
 10
276.6970492614015
 20
663.60574356431493
 30
0.0
 40
0.5
 50
0.0
 51
180.0
  0
LINE
  5
1E26E
  8
KI1
 10
276.1970492614015
 20
637.75574356431468
 30
0.0
 11
276.1970492614015
 21
663.60574356431493
 31
0.0
  0
LINE
  5
1E26F
  8
KI1
 10
277.1970492614015
 20
663.60574356431493
 30
0.0
 11
277.1970492614015
 21
662.40574356431478
 31
0.0
  0
LINE
  5
1E270
  8
KI1
 10
277.34704926140159
 20
637.75574356431468
 30
0.0
 11
277.34704926140159
 21
660.7557435643148
 31
0.0
  0
ARC
  5
1E271
  8
KI1
 10
277.84704926140159
 20
660.7557435643148
 30
0.0
 40
0.4999999999999999
 50
90.0
 51
180.0
  0
LINE
  5
1E272
  8
KI1
 10
310.99704926140163
 20
636.60574356431493
 30
0.0
 11
298.24704926140163
 21
636.60574356431493
 31
0.0
  0
LINE
  5
1E273
  8
KI1
 10
311.79704926140153
 20
637.60574356431493
 30
0.0
 11
306.6970492614015
 21
637.60574356431493
 31
0.0
  0
LINE
  5
1E274
  8
KI1
 10
295.99704926140151
 20
637.60574356431471
 30
0.0
 11
297.9470492614015
 21
637.60574356431471
 31
0.0
  0
LINE
  5
1E275
  8
KI1
 10
295.99831340075048
 20
645.05574356431475
 30
0.0
 11
297.9470492614015
 21
645.05574356431475
 31
0.0
  0
ARC
  5
1E276
  8
KI1
 10
296.19831340075041
 20
644.40574356431455
 30
0.0
 40
0.5
 50
180.0
 51
270.0
  0
LINE
  5
1E277
  8
KI1
 10
295.99704926140151
 20
640.30574356431475
 30
0.0
 11
296.1970492614015
 21
640.30574356431475
 31
0.0
  0
ARC
  5
1E278
  8
KI1
 10
296.4470492614015
 20
663.60574356431493
 30
0.0
 40
0.5
 50
0.0
 51
180.0
  0
LINE
  5
1E279
  8
KI1
 10
286.69831340075041
 20
643.90574356431455
 30
0.0
 11
285.14704926140161
 21
643.90574356431455
 31
0.0
  0
LINE
  5
1E27A
  8
KI1
 10
286.89704926140149
 20
637.60574356431471
 30
0.0
 11
284.9470492614015
 21
637.60574356431471
 31
0.0
  0
LINE
  5
1E27B
  8
KI1
 10
286.89831340075051
 20
645.05574356431475
 30
0.0
 11
284.9470492614015
 21
645.05574356431475
 31
0.0
  0
LINE
  5
1E27C
  8
KI1
 10
286.04704926140153
 20
639.30574356431475
 30
0.0
 11
286.6970492614015
 21
640.30574356431475
 31
0.0
  0
ARC
  5
1E27D
  8
KI1
 10
286.4470492614015
 20
663.60574356431493
 30
0.0
 40
0.5
 50
0.0
 51
180.0
  0
LINE
  5
1E27E
  8
KI1
 10
285.9470492614015
 20
663.60574356431493
 30
0.0
 11
285.9470492614015
 21
662.40574356431478
 31
0.0
  0
ARC
  5
1E27F
  8
KI1
 10
284.37204926140163
 20
645.78074356431478
 30
0.0
 40
0.5749999999999959
 50
0.0
 51
180.0
  0
ARC
  5
1E280
  8
KI1
 10
284.64704926140149
 20
636.90574356431478
 30
0.0
 40
0.2999999999999999
 50
270.0
 51
0.0
  0
LINE
  5
1E281
  8
KI1
 10
283.79704926140153
 20
638.05574356431487
 30
0.0
 11
283.79704926140153
 21
645.78074356431478
 31
0.0
  0
ARC
  5
1E282
  8
KI1
 10
283.49704926140151
 20
638.05574356431487
 30
0.0
 40
0.2999999999999999
 50
270.0
 51
0.0
  0
LINE
  5
1E283
  8
KI1
 10
285.14704926140161
 20
643.90574356431455
 30
0.0
 11
284.9470492614015
 21
642.40574356431455
 31
0.0
  0
LINE
  5
1E284
  8
KI1
 10
284.9470492614015
 20
638.90574356431455
 30
0.0
 11
284.9470492614015
 21
642.40574356431455
 31
0.0
  0
LINE
  5
1E285
  8
KI1
 10
286.04704926140153
 20
638.90574356431455
 30
0.0
 11
284.9470492614015
 21
638.90574356431455
 31
0.0
  0
LINE
  5
1E286
  8
KI1
 10
286.04704926140153
 20
638.90574356431455
 30
0.0
 11
286.04704926140153
 21
639.30574356431475
 31
0.0
  0
LINE
  5
1E287
  8
KI1
 10
284.9470492614015
 20
645.78074356431478
 30
0.0
 11
284.9470492614015
 21
645.05574356431475
 31
0.0
  0
LINE
  5
1E288
  8
KI1
 10
284.9470492614015
 20
636.90574356431478
 30
0.0
 11
284.9470492614015
 21
637.60574356431471
 31
0.0
  0
LINE
  5
1E289
  8
KI1
 10
286.9470492614015
 20
663.60574356431493
 30
0.0
 11
286.9470492614015
 21
662.40574356431478
 31
0.0
  0
ARC
  5
1E28A
  8
KI1
 10
286.89704926140149
 20
637.90574356431455
 30
0.0
 40
0.2999999999999999
 50
270.0
 51
0.0
  0
ARC
  5
1E28B
  8
KI1
 10
286.89831340075051
 20
644.75574356431468
 30
0.0
 40
0.2999999999999999
 50
0.0
 51
90.0
  0
LINE
  5
1E28C
  8
KI1
 10
287.19831340075041
 20
644.75574356431468
 30
0.0
 11
287.19831340075041
 21
644.40574356431455
 31
0.0
  0
LINE
  5
1E28D
  8
KI1
 10
287.1970492614015
 20
640.0057435643148
 30
0.0
 11
287.1970492614015
 21
637.90574356431455
 31
0.0
  0
ARC
  5
1E28E
  8
KI1
 10
286.89704926140149
 20
640.0057435643148
 30
0.0
 40
0.2999999999999999
 50
0.0
 51
90.0
  0
LINE
  5
1E28F
  8
KI1
 10
286.89704926140149
 20
640.30574356431475
 30
0.0
 11
286.6970492614015
 21
640.30574356431475
 31
0.0
  0
ARC
  5
1E290
  8
KI1
 10
286.69831340075041
 20
644.40574356431455
 30
0.0
 40
0.5
 50
270.0
 51
0.0
  0
LINE
  5
1E291
  8
KI1
 10
295.9470492614015
 20
662.40574356431478
 30
0.0
 11
286.9470492614015
 21
662.40574356431478
 31
0.0
  0
LINE
  5
1E292
  8
KI1
 10
295.9470492614015
 20
663.60574356431493
 30
0.0
 11
295.9470492614015
 21
662.40574356431478
 31
0.0
  0
ARC
  5
1E293
  8
KI1
 10
295.99704926140151
 20
637.90574356431455
 30
0.0
 40
0.2999999999999999
 50
180.0
 51
270.0
  0
ARC
  5
1E294
  8
KI1
 10
295.99831340075048
 20
644.75574356431468
 30
0.0
 40
0.2999999999999999
 50
90.0
 51
180.0
  0
LINE
  5
1E295
  8
KI1
 10
295.69831340075041
 20
644.75574356431468
 30
0.0
 11
295.69831340075041
 21
644.40574356431455
 31
0.0
  0
LINE
  5
1E296
  8
KI1
 10
295.6970492614015
 20
640.0057435643148
 30
0.0
 11
295.6970492614015
 21
637.90574356431455
 31
0.0
  0
ARC
  5
1E297
  8
KI1
 10
295.99704926140151
 20
640.0057435643148
 30
0.0
 40
0.2999999999999999
 50
90.0
 51
180.0
  0
LINE
  5
1E298
  8
KI1
 10
299.39704926140149
 20
637.75574356431468
 30
0.0
 11
305.54704926140153
 21
637.75574356431468
 31
0.0
  0
LINE
  5
1E299
  8
KI1
 10
305.6970492614015
 20
662.40574356431478
 30
0.0
 11
296.9470492614015
 21
662.40574356431478
 31
0.0
  0
ARC
  5
1E29A
  8
KI1
 10
299.39704926140149
 20
638.05574356431487
 30
0.0
 40
0.2999999999999999
 50
180.0
 51
270.0
  0
LINE
  5
1E29B
  8
KI1
 10
296.9470492614015
 20
663.60574356431493
 30
0.0
 11
296.9470492614015
 21
662.40574356431478
 31
0.0
  0
LINE
  5
1E29C
  8
KI1
 10
296.19831340075041
 20
643.90574356431455
 30
0.0
 11
297.74704926140151
 21
643.90574356431455
 31
0.0
  0
LINE
  5
1E29D
  8
KI1
 10
296.84704926140159
 20
638.90574356431455
 30
0.0
 11
297.9470492614015
 21
638.90574356431455
 31
0.0
  0
LINE
  5
1E29E
  8
KI1
 10
296.84704926140159
 20
638.90574356431455
 30
0.0
 11
296.84704926140159
 21
639.30574356431475
 31
0.0
  0
LINE
  5
1E29F
  8
KI1
 10
296.84704926140159
 20
639.30574356431475
 30
0.0
 11
296.1970492614015
 21
640.30574356431475
 31
0.0
  0
LINE
  5
1E2A0
  8
KI1
 10
297.74704926140151
 20
643.90574356431455
 30
0.0
 11
297.9470492614015
 21
642.40574356431455
 31
0.0
  0
LINE
  5
1E2A1
  8
KI1
 10
297.9470492614015
 20
638.90574356431455
 30
0.0
 11
297.9470492614015
 21
642.40574356431455
 31
0.0
  0
LINE
  5
1E2A2
  8
KI1
 10
299.09704926140159
 20
638.05574356431487
 30
0.0
 11
299.09704926140159
 21
645.78074356431478
 31
0.0
  0
LINE
  5
1E2A3
  8
KI1
 10
297.9470492614015
 20
645.78074356431478
 30
0.0
 11
297.9470492614015
 21
645.05574356431475
 31
0.0
  0
ARC
  5
1E2A4
  8
KI1
 10
298.52204926140149
 20
645.78074356431478
 30
0.0
 40
0.5749999999999959
 50
0.0
 51
180.0
  0
LINE
  5
1E2A5
  8
KI1
 10
297.9470492614015
 20
636.90574356431478
 30
0.0
 11
297.9470492614015
 21
637.60574356431471
 31
0.0
  0
ARC
  5
1E2A6
  8
KI1
 10
298.24704926140163
 20
636.90574356431478
 30
0.0
 40
0.2999999999999999
 50
180.0
 51
270.0
  0
ARC
  5
1E2A7
  8
KI1
 10
306.1970492614015
 20
663.60574356431493
 30
0.0
 40
0.5
 50
0.0
 51
180.0
  0
LINE
  5
1E2A8
  8
KI1
 10
305.6970492614015
 20
663.60574356431493
 30
0.0
 11
305.6970492614015
 21
662.40574356431478
 31
0.0
  0
LINE
  5
1E2A9
  8
KI1
 10
305.54704926140153
 20
637.75574356431468
 30
0.0
 11
305.54704926140153
 21
660.7557435643148
 31
0.0
  0
ARC
  5
1E2AA
  8
KI1
 10
305.04704926140153
 20
660.7557435643148
 30
0.0
 40
0.4999999999999999
 50
0.0
 51
90.0
  0
LINE
  5
1E2AB
  8
KI1
 10
306.6970492614015
 20
637.60574356431493
 30
0.0
 11
306.6970492614015
 21
663.60574356431493
 31
0.0
  0
ARC
  5
1E2AC
  8
KI1
 10
311.79704926140153
 20
637.10574356431493
 30
0.0
 40
0.5
 50
0.0
 51
90.0
  0
ARC
  5
1E2AD
  8
KI1
 10
310.99704926140163
 20
636.30574356431487
 30
0.0
 40
0.2999999999999999
 50
0.0
 51
90.0
  0
LINE
  5
1E2AE
  8
KI1
 10
311.29704926140153
 20
636.30574356431487
 30
0.0
 11
311.29704926140153
 21
624.10574356431493
 31
0.0
  0
LINE
  5
1E2AF
  8
KI1
 10
312.29704926140153
 20
637.10574356431493
 30
0.0
 11
312.29704926140153
 21
624.10574356431493
 31
0.0
  0
ARC
  5
1E2B0
  8
KI1
 10
311.79704926140153
 20
624.10574356431493
 30
0.0
 40
0.5
 50
180.0
 51
0.0
  0
LINE
  5
1E2B1
  8
KI2
 10
179.44704926138201
 20
333.11057788732762
 30
0.0
 11
181.94704926138201
 21
331.61057788732751
 31
0.0
  0
LINE
  5
1E2B2
  8
KI2
 10
179.44704926138201
 20
335.60574394672591
 30
0.0
 11
179.44704926138201
 21
333.11057788732762
 31
0.0
  0
LINE
  5
1E2B3
  8
KI2
 10
183.94704926138201
 20
330.11057788732762
 30
0.0
 11
182.94704926138201
 21
330.11057788732762
 31
0.0
  0
LINE
  5
1E2B4
  8
KI2
 10
181.94704926138201
 20
330.11057788732762
 30
0.0
 11
182.94704926138201
 21
330.11057788732762
 31
0.0
  0
LINE
  5
1E2B5
  8
KI2
 10
186.44704926138201
 20
333.11057788732762
 30
0.0
 11
183.94704926138201
 21
331.61057788732751
 31
0.0
  0
LINE
  5
1E2B6
  8
KI2
 10
186.44704926138201
 20
335.60574394672591
 30
0.0
 11
186.44704926138201
 21
333.11057788732762
 31
0.0
  0
LINE
  5
1E2B7
  8
KI2
 10
183.94704926138201
 20
335.60574394672591
 30
0.0
 11
183.94704926138201
 21
330.11057788732762
 31
0.0
  0
LINE
  5
1E2B8
  8
KI2
 10
181.94704926138201
 20
335.60574394672591
 30
0.0
 11
181.94704926138201
 21
330.11057788732762
 31
0.0
  0
LINE
  5
1E2B9
  8
KI2
 10
167.94704926138289
 20
335.6057439467258
 30
0.0
 11
197.94704926138289
 21
335.60574394672602
 31
0.0
  0
ARC
  5
1E2BA
  8
KI2
 10
167.94704926138289
 20
337.1057439467258
 30
0.0
 40
1.5
 50
180.0
 51
270.0
  0
ARC
  5
1E2BB
  8
KI2
 10
197.94704926138289
 20
337.1057439467258
 30
0.0
 40
1.5
 50
270.0
 51
0.0
  0
LINE
  5
1E2BC
  8
KI2
 10
215.44704926138209
 20
333.11057788732762
 30
0.0
 11
217.94704926138209
 21
331.61057788732751
 31
0.0
  0
LINE
  5
1E2BD
  8
KI2
 10
215.44704926138209
 20
335.60574394672591
 30
0.0
 11
215.44704926138209
 21
333.11057788732762
 31
0.0
  0
LINE
  5
1E2BE
  8
KI2
 10
222.44704926138209
 20
333.11057788732762
 30
0.0
 11
219.94704926138209
 21
331.61057788732751
 31
0.0
  0
LINE
  5
1E2BF
  8
KI2
 10
222.44704926138209
 20
335.60574394672591
 30
0.0
 11
222.44704926138209
 21
333.11057788732762
 31
0.0
  0
LINE
  5
1E2C0
  8
KI2
 10
219.94704926138209
 20
335.60574394672591
 30
0.0
 11
219.94704926138209
 21
330.11057788732762
 31
0.0
  0
LINE
  5
1E2C1
  8
KI2
 10
217.94704926138209
 20
335.60574394672591
 30
0.0
 11
217.94704926138209
 21
330.11057788732762
 31
0.0
  0
LINE
  5
1E2C2
  8
KI2
 10
203.947049261383
 20
335.6057439467258
 30
0.0
 11
233.947049261383
 21
335.60574394672602
 31
0.0
  0
ARC
  5
1E2C3
  8
KI2
 10
203.947049261383
 20
337.1057439467258
 30
0.0
 40
1.5
 50
180.0
 51
270.0
  0
ARC
  5
1E2C4
  8
KI2
 10
233.947049261383
 20
337.1057439467258
 30
0.0
 40
1.5
 50
270.0
 51
0.0
  0
ARC
  5
1E2C5
  8
KI1
 10
178.2725049701416
 20
331.40573902738771
 30
0.0
 40
0.5
 50
90.0
 51
130.40000551602071
  0
LINE
  5
1E2C6
  8
KI1
 10
179.34705420421909
 20
333.10573902738793
 30
0.0
 11
177.64702666475611
 21
333.10573902738793
 31
0.0
  0
LINE
  5
1E2C7
  8
KI1
 10
174.1470492613139
 20
328.55126617303608
 30
0.0
 11
174.1470492613139
 21
328.10574394672608
 31
0.0
  0
LINE
  5
1E2C8
  8
KI1
 10
172.94704926131359
 20
329.10574394672699
 30
0.0
 11
172.94704926131359
 21
328.10574394672608
 31
0.0
  0
LINE
  5
1E2C9
  8
KI1
 10
174.1470492613139
 20
328.10574394672608
 30
0.0
 11
172.94704926131359
 21
328.10574394672608
 31
0.0
  0
LINE
  5
1E2CA
  8
KI1
 10
177.9484449829533
 20
331.7865081499578
 30
0.0
 11
174.1470492613139
 21
328.55126617303608
 31
0.0
  0
LINE
  5
1E2CB
  8
KI1
 10
177.64702666475611
 20
333.10573902738793
 30
0.0
 11
172.94704926131359
 21
329.10574394672699
 31
0.0
  0
LINE
  5
1E2CC
  8
KI1
 10
213.69320500212501
 20
328.10574394672608
 30
0.0
 11
200.94704926131359
 21
328.10574394672608
 31
0.0
  0
LINE
  5
1E2CD
  8
KI1
 10
206.1470492613139
 20
331.60574400564218
 30
0.0
 11
211.8470556991679
 21
331.60574400564218
 31
0.0
  0
LINE
  5
1E2CE
  8
KI1
 10
214.14704573087781
 20
332.80573652058609
 30
0.0
 11
187.74705279175029
 21
332.80573652058609
 31
0.0
  0
LINE
  5
1E2CF
  8
KI1
 10
201.2298879756822
 20
329.30573646167181
 30
0.0
 11
213.547046660251
 21
329.30573646167181
 31
0.0
  0
LINE
  5
1E2D0
  8
KI1
 10
205.2470492613138
 20
331.60574400564218
 30
0.0
 11
205.2470492613138
 21
330.05573652058609
 31
0.0
  0
ARC
  5
1E2D1
  8
KI1
 10
205.69704926131359
 20
330.05573652058609
 30
0.0
 40
0.4499999999999992
 50
180.0
 51
0.0
  0
LINE
  5
1E2D2
  8
KI1
 10
206.1470492613139
 20
331.60574400564218
 30
0.0
 11
206.1470492613139
 21
330.05573652058609
 31
0.0
  0
ARC
  5
1E2D3
  8
KI1
 10
200.947051647438
 20
329.30573646167181
 30
0.0
 40
0.3
 50
180.0
 51
0.0
  0
ARC
  5
1E2D4
  8
KI1
 10
196.19704926131359
 20
330.05573652058609
 30
0.0
 40
0.4499999999999992
 50
180.0
 51
0.0
  0
LINE
  5
1E2D5
  8
KI1
 10
195.7470492613138
 20
331.60574400564218
 30
0.0
 11
195.7470492613138
 21
330.05573652058609
 31
0.0
  0
LINE
  5
1E2D6
  8
KI1
 10
196.6470492613139
 20
331.60574400564218
 30
0.0
 11
196.6470492613139
 21
330.05573652058609
 31
0.0
  0
LINE
  5
1E2D7
  8
KI1
 10
196.6470492613139
 20
331.60574400564218
 30
0.0
 11
205.2470492613138
 21
331.60574400564218
 31
0.0
  0
ARC
  5
1E2D8
  8
KI1
 10
188.20089352050209
 20
329.10574394672608
 30
0.0
 40
1.0
 50
199.72084247195721
 51
270.0
  0
LINE
  5
1E2D9
  8
KI1
 10
187.2595456630404
 20
328.7683062321002
 30
0.0
 11
187.1677231900446
 21
329.0244628040391
 31
0.0
  0
LINE
  5
1E2DA
  8
KI1
 10
186.13455285958679
 20
328.7683062321002
 30
0.0
 11
186.22637533258259
 21
329.0244628040391
 31
0.0
  0
ARC
  5
1E2DB
  8
KI1
 10
186.69704926131359
 20
328.85574394672608
 30
0.0
 40
0.5
 50
19.72084247195728
 51
160.2791575280427
  0
ARC
  5
1E2DC
  8
KI1
 10
187.24705685241409
 20
332.80573902738729
 30
0.0
 40
0.3
 50
0.0
 51
90.0
  0
LINE
  5
1E2DD
  8
KI1
 10
187.24705685241409
 20
333.10573902738793
 30
0.0
 11
186.54704431840901
 21
333.10573902738793
 31
0.0
  0
LINE
  5
1E2DE
  8
KI1
 10
188.34705186237809
 20
330.60574148705678
 30
0.0
 11
188.34705186237809
 21
329.30573646167181
 31
0.0
  0
LINE
  5
1E2DF
  8
KI1
 10
188.74705187416109
 20
330.60574148705678
 30
0.0
 11
188.34705186237809
 21
330.60574148705678
 31
0.0
  0
ARC
  5
1E2E0
  8
KI1
 10
188.74705187416109
 20
330.90574148705701
 30
0.0
 40
0.3
 50
270.0
 51
0.0
  0
LINE
  5
1E2E1
  8
KI1
 10
189.04705187416079
 20
331.00574400564102
 30
0.0
 11
189.04705187416079
 21
330.90574148705701
 31
0.0
  0
ARC
  5
1E2E2
  8
KI1
 10
188.44705187416091
 20
331.00574400564102
 30
0.0
 40
0.6
 50
0.0
 51
90.0
  0
LINE
  5
1E2E3
  8
KI1
 10
189.14705281531579
 20
331.60574400564218
 30
0.0
 11
187.54705685241419
 21
331.60574400564218
 31
0.0
  0
LINE
  5
1E2E4
  8
KI1
 10
187.54705685241419
 20
332.80573902738729
 30
0.0
 11
187.54705685241419
 21
331.60574400564218
 31
0.0
  0
LINE
  5
1E2E5
  8
KI1
 10
190.2133042092259
 20
330.1674446719137
 30
0.0
 11
189.9308489858185
 21
330.57294102618312
 31
0.0
  0
LINE
  5
1E2E6
  8
KI1
 10
190.05667456584109
 20
329.6924596744268
 30
0.0
 11
190.13915730514691
 21
329.75019759193918
 31
0.0
  0
LINE
  5
1E2E7
  8
KI1
 10
190.04706033571841
 20
330.97968075083207
 30
0.0
 11
190.04706033571841
 21
331.60574400564218
 31
0.0
  0
LINE
  5
1E2E8
  8
KI1
 10
189.9308489858185
 20
330.57294102618312
 30
0.0
 11
190.04706033571841
 21
330.97968075083207
 31
0.0
  0
LINE
  5
1E2EA
  8
KI1
 10
189.14705281531579
 20
331.60574400564218
 30
0.0
 11
189.14705281531579
 21
331.10573399021968
 31
0.0
  0
LINE
  5
1E2EB
  8
KI1
 10
189.14705281531579
 20
331.10573399021968
 30
0.0
 11
189.0124886181147
 21
330.63472427549573
 31
0.0
  0
LINE
  5
1E2EC
  8
KI1
 10
187.74705279175029
 20
332.80573652058609
 30
0.0
 11
187.74705279175029
 21
331.60574400564218
 31
0.0
  0
LINE
  5
1E2ED
  8
KI1
 10
189.08362341366771
 20
330.21062990230189
 30
0.0
 11
189.36031710390529
 21
329.8153431949579
 31
0.0
  0
ARC
  5
1E2EE
  8
KI1
 10
189.96713438621009
 20
329.99598214526048
 30
0.0
 40
0.3000000099360252
 50
304.99198913572991
 51
34.858993530263639
  0
ARC
  5
1E2EF
  8
KI1
 10
189.7699463512686
 20
330.10208892178912
 30
0.0
 40
0.4999999937576218
 50
214.99197387695901
 51
304.99198913572991
  0
ARC
  5
1E2F0
  8
KI1
 10
189.4932351487723
 20
330.49735811687492
 30
0.0
 40
0.4999999937576218
 50
164.0549926757796
 51
214.9919891357321
  0
ARC
  5
1E2F1
  8
KI1
 10
180.6470492613139
 20
329.10574394672699
 30
0.0
 40
1.0
 50
180.0
 51
270.0
  0
LINE
  5
1E2F2
  8
KI1
 10
179.34704926131371
 20
333.10573902738793
 30
0.0
 11
180.84704926131371
 21
331.84708958062203
 31
0.0
  0
ARC
  5
1E2F3
  8
KI1
 10
179.34704926131371
 20
331.14762809338868
 30
0.0
 40
0.3
 50
0.0
 51
50.000000000010331
  0
LINE
  5
1E2F4
  8
KI1
 10
178.72829986306169
 20
331.9057390273872
 30
0.0
 11
178.2725049701416
 21
331.9057390273872
 31
0.0
  0
LINE
  5
1E2F5
  8
KI1
 10
179.0496936679051
 20
331.78876124894742
 30
0.0
 11
179.5398855442204
 21
331.37744142632499
 31
0.0
  0
ARC
  5
1E2F6
  8
KI1
 10
178.72829986306169
 20
331.40573902738771
 30
0.0
 40
0.5
 50
50.000000000010331
 51
90.0
  0
LINE
  5
1E2F7
  8
KI1
 10
179.6470492613139
 20
329.10574394672699
 30
0.0
 11
179.6470492613139
 21
331.14762809338868
 31
0.0
  0
LINE
  5
1E2F8
  8
KI1
 10
180.84704926131371
 20
329.30574394672681
 30
0.0
 11
180.84704926131371
 21
331.84708958062203
 31
0.0
  0
LINE
  5
1E2F9
  8
KI1
 10
180.84704926131371
 20
329.30574394672681
 30
0.0
 11
182.94704926131359
 21
329.30574394672681
 31
0.0
  0
LINE
  5
1E2FA
  8
KI1
 10
185.1932050021251
 20
328.10574394672608
 30
0.0
 11
180.6470492613139
 21
328.10574394672699
 31
0.0
  0
LINE
  5
1E2FB
  8
KI1
 10
185.0470492613135
 20
329.30574394672681
 30
0.0
 11
185.0470492613135
 21
331.84708958062203
 31
0.0
  0
LINE
  5
1E2FC
  8
KI1
 10
185.0470492613135
 20
329.30574394672681
 30
0.0
 11
182.94704926131359
 21
329.30574394672681
 31
0.0
  0
ARC
  5
1E2FD
  8
KI1
 10
185.1932050021251
 20
329.10574394672608
 30
0.0
 40
1.0
 50
270.0
 51
340.27915752804267
  0
LINE
  5
1E2FF
  8
KI1
 10
186.5470492613135
 20
333.10573902738793
 30
0.0
 11
185.0470492613135
 21
331.84708958062203
 31
0.0
  0
LINE
  5
1E300
  8
KI1
 10
188.20089352050209
 20
328.10574394672608
 30
0.0
 11
200.94704926131359
 21
328.10574394672608
 31
0.0
  0
LINE
  5
1E301
  8
KI1
 10
200.6642105469459
 20
329.30573646167181
 30
0.0
 11
188.34705186237809
 21
329.30573646167181
 31
0.0
  0
LINE
  5
1E302
  8
KI1
 10
190.04706033571841
 20
331.60574400564218
 30
0.0
 11
195.7470492613138
 21
331.60574400564218
 31
0.0
  0
LINE
  5
1E303
  8
KI1
 10
228.94704926131359
 20
329.10574394672699
 30
0.0
 11
228.94704926131359
 21
328.10574394672608
 31
0.0
  0
LINE
  5
1E304
  8
KI1
 10
227.7470492613138
 20
328.55126617303608
 30
0.0
 11
227.7470492613138
 21
328.10574394672608
 31
0.0
  0
LINE
  5
1E306
  8
KI1
 10
228.94704926131359
 20
328.10574394672608
 30
0.0
 11
227.7470492613138
 21
328.10574394672608
 31
0.0
  0
ARC
  5
1E308
  8
KI1
 10
222.7470492613138
 20
331.05436656175812
 30
0.0
 40
0.5
 50
129.99999999998971
 51
180.0
  0
LINE
  5
1E309
  8
KI1
 10
222.84440485472311
 20
331.78876124894742
 30
0.0
 11
222.4256554564713
 21
331.43738878331692
 31
0.0
  0
ARC
  5
1E30A
  8
KI1
 10
223.16579865956689
 20
331.40573902738771
 30
0.0
 40
0.5
 50
90.0
 51
129.99999999998971
  0
LINE
  5
1E30B
  8
KI1
 10
223.62159355248599
 20
331.9057390273872
 30
0.0
 11
223.16579865956689
 21
331.9057390273872
 31
0.0
  0
ARC
  5
1E30C
  8
KI1
 10
223.62159355248599
 20
331.40573902738771
 30
0.0
 40
0.5
 50
49.599994483979231
 51
90.0
  0
LINE
  5
1E30E
  8
KI1
 10
222.2470492613138
 20
329.10574394672699
 30
0.0
 11
222.2470492613138
 21
331.05436656175812
 31
0.0
  0
ARC
  5
1E30F
  8
KI1
 10
221.2470492613138
 20
329.10574394672699
 30
0.0
 40
1.0
 50
270.0
 51
0.0
  0
LINE
  5
1E310
  8
KI1
 10
222.54704431840901
 20
333.10573902738793
 30
0.0
 11
224.24707185787199
 21
333.10573902738793
 31
0.0
  0
LINE
  5
1E311
  8
KI1
 10
222.5470492613135
 20
333.10573902738793
 30
0.0
 11
221.0470492613135
 21
331.84708958062203
 31
0.0
  0
LINE
  5
1E312
  8
KI1
 10
221.0470492613135
 20
331.84708958062203
 30
0.0
 11
221.0470492613135
 21
329.30574394672681
 31
0.0
  0
LINE
  5
1E313
  8
KI1
 10
221.0470492613135
 20
329.30574394672681
 30
0.0
 11
218.94704926131499
 21
329.30574394672681
 31
0.0
  0
ARC
  5
1E314
  8
KI1
 10
213.69320500212501
 20
329.10574394672608
 30
0.0
 40
1.0
 50
270.0
 51
340.27915752804267
  0
ARC
  5
1E315
  8
KI1
 10
216.70089352050221
 20
329.10574394672608
 30
0.0
 40
1.0
 50
199.72084247195721
 51
270.0
  0
LINE
  5
1E316
  8
KI1
 10
215.7595456630404
 20
328.7683062321002
 30
0.0
 11
215.6677231900446
 21
329.02446280403899
 31
0.0
  0
LINE
  5
1E317
  8
KI1
 10
214.6345528595869
 20
328.7683062321002
 30
0.0
 11
214.72637533258259
 21
329.02446280403899
 31
0.0
  0
ARC
  5
1E318
  8
KI1
 10
215.19704926131359
 20
328.85574394672608
 30
0.0
 40
0.5
 50
19.72084247195728
 51
160.2791575280427
  0
LINE
  5
1E319
  8
KI1
 10
212.7470632195714
 20
331.60574400564218
 30
0.0
 11
214.34704167021391
 21
331.60574400564218
 31
0.0
  0
LINE
  5
1E31B
  8
KI1
 10
213.547046660251
 20
330.60574148705678
 30
0.0
 11
213.547046660251
 21
329.30573646167181
 31
0.0
  0
LINE
  5
1E31C
  8
KI1
 10
213.1470466484671
 20
330.60574148705678
 30
0.0
 11
213.547046660251
 21
330.60574148705678
 31
0.0
  0
ARC
  5
1E31D
  8
KI1
 10
213.1470466484671
 20
330.90574148705701
 30
0.0
 40
0.3
 50
180.0
 51
270.0
  0
LINE
  5
1E31E
  8
KI1
 10
212.810492621219
 20
330.21062990230189
 30
0.0
 11
212.5337989309823
 21
329.8153431949579
 31
0.0
  0
LINE
  5
1E31F
  8
KI1
 10
212.7470632195714
 20
331.10573399021968
 30
0.0
 11
212.88164492903201
 21
330.63472427549573
 31
0.0
  0
LINE
  5
1E320
  8
KI1
 10
212.7470632195714
 20
331.60574400564218
 30
0.0
 11
212.7470632195714
 21
331.10573399021968
 31
0.0
  0
LINE
  5
1E321
  8
KI1
 10
211.68082933791899
 20
330.1674446719137
 30
0.0
 11
211.9632670490669
 21
330.57294102618312
 31
0.0
  0
LINE
  5
1E322
  8
KI1
 10
211.8374414690461
 20
329.6924596744268
 30
0.0
 11
211.75494121748221
 21
329.75019759193918
 31
0.0
  0
LINE
  5
1E323
  8
KI1
 10
211.8470556991679
 20
330.97968075083207
 30
0.0
 11
211.8470556991679
 21
331.60574400564218
 31
0.0
  0
LINE
  5
1E324
  8
KI1
 10
211.9632670490669
 20
330.57294102618312
 30
0.0
 11
211.8470556991679
 21
330.97968075083207
 31
0.0
  0
ARC
  5
1E325
  8
KI1
 10
212.4008633738554
 20
330.49735811687492
 30
0.0
 40
0.4999999937576218
 50
325.00799560546028
 51
15.944992065438351
  0
ARC
  5
1E326
  8
KI1
 10
211.92698164867721
 20
329.99598214526048
 30
0.0
 40
0.3000000099360252
 50
145.14099121094179
 51
235.0079956054567
  0
ARC
  5
1E327
  8
KI1
 10
212.1241696836191
 20
330.10208892178912
 30
0.0
 40
0.4999999937576218
 50
235.0079956054567
 51
325.00799560546028
  0
LINE
  5
1E328
  8
KI1
 10
212.84704664846819
 20
331.00574400564102
 30
0.0
 11
212.84704664846819
 21
330.90574148705701
 31
0.0
  0
ARC
  5
1E329
  8
KI1
 10
213.44704664846719
 20
331.00574400564102
 30
0.0
 40
0.6
 50
90.0
 51
180.0
  0
LINE
  5
1E32B
  8
KI1
 10
215.34704926131371
 20
333.10573902738793
 30
0.0
 11
216.84704926131371
 21
331.84708958062203
 31
0.0
  0
LINE
  5
1E32C
  8
KI1
 10
216.84704926131371
 20
329.30574394672681
 30
0.0
 11
216.84704926131371
 21
331.84708958062203
 31
0.0
  0
LINE
  5
1E32D
  8
KI1
 10
214.34704167021391
 20
332.80573902738729
 30
0.0
 11
214.34704167021391
 21
331.60574400564218
 31
0.0
  0
LINE
  5
1E32E
  8
KI1
 10
214.64704167021409
 20
333.10573902738793
 30
0.0
 11
215.34705420421921
 21
333.10573902738793
 31
0.0
  0
ARC
  5
1E32F
  8
KI1
 10
214.64704167021409
 20
332.80573902738729
 30
0.0
 40
0.3
 50
90.0
 51
180.0
  0
LINE
  5
1E330
  8
KI1
 10
214.14704573087781
 20
331.60574400564218
 30
0.0
 11
214.14704573087781
 21
332.80573652058609
 31
0.0
  0
LINE
  5
1E332
  8
KI1
 10
221.2470492613138
 20
328.10574394672608
 30
0.0
 11
216.70089352050221
 21
328.10574394672608
 31
0.0
  0
LINE
  5
1E333
  8
KI1
 10
216.84704926131371
 20
329.30574394672681
 30
0.0
 11
218.94704926131499
 21
329.30574394672681
 31
0.0
  0
LINE
  5
1E334
  8
KI1
 10
223.94565353967619
 20
331.7865081499578
 30
0.0
 11
227.7470492613138
 21
328.55126617303608
 31
0.0
  0
LINE
  5
1E336
  8
KI1
 10
224.24707185787199
 20
333.10573902738793
 30
0.0
 11
228.94704926131359
 21
329.10574394672699
 31
0.0
  0
LINE
  5
1E337
  8
KI2
 10
219.94704926138209
 20
330.11057788732762
 30
0.0
 11
218.94704926138209
 21
330.11057788732762
 31
0.0
  0
LINE
  5
1E338
  8
KI2
 10
217.94704926138209
 20
330.11057788732762
 30
0.0
 11
218.94704926138209
 21
330.11057788732762
 31
0.0
  0
LINE
  5
1E339
  8
KI2
 10
251.94704926138201
 20
333.11057788732762
 30
0.0
 11
254.44704926138209
 21
331.61057788732751
 31
0.0
  0
LINE
  5
1E33A
  8
KI2
 10
251.94704926138201
 20
335.60574394672591
 30
0.0
 11
251.94704926138201
 21
333.11057788732762
 31
0.0
  0
LINE
  5
1E33B
  8
KI2
 10
256.44704926138212
 20
330.11057788732762
 30
0.0
 11
255.44704926138209
 21
330.11057788732762
 31
0.0
  0
LINE
  5
1E33C
  8
KI2
 10
254.44704926138209
 20
330.11057788732762
 30
0.0
 11
255.44704926138209
 21
330.11057788732762
 31
0.0
  0
LINE
  5
1E33D
  8
KI2
 10
258.94704926138212
 20
333.11057788732762
 30
0.0
 11
256.44704926138212
 21
331.61057788732751
 31
0.0
  0
LINE
  5
1E33E
  8
KI2
 10
258.94704926138212
 20
335.60574394672591
 30
0.0
 11
258.94704926138212
 21
333.11057788732762
 31
0.0
  0
LINE
  5
1E33F
  8
KI2
 10
256.44704926138212
 20
335.60574394672591
 30
0.0
 11
256.44704926138212
 21
330.11057788732762
 31
0.0
  0
LINE
  5
1E340
  8
KI2
 10
254.44704926138209
 20
335.60574394672591
 30
0.0
 11
254.44704926138209
 21
330.11057788732762
 31
0.0
  0
LINE
  5
1E341
  8
KI2
 10
240.447049261383
 20
335.6057439467258
 30
0.0
 11
270.44704926138297
 21
335.60574394672602
 31
0.0
  0
ARC
  5
1E342
  8
KI2
 10
240.447049261383
 20
337.1057439467258
 30
0.0
 40
1.5
 50
180.0
 51
270.0
  0
ARC
  5
1E343
  8
KI2
 10
270.44704926138297
 20
337.1057439467258
 30
0.0
 40
1.5
 50
270.0
 51
0.0
  0
LINE
  5
1E344
  8
KI2
 10
287.94704926138212
 20
333.11057788732762
 30
0.0
 11
290.44704926138212
 21
331.61057788732751
 31
0.0
  0
LINE
  5
1E345
  8
KI2
 10
287.94704926138212
 20
335.60574394672591
 30
0.0
 11
287.94704926138212
 21
333.11057788732762
 31
0.0
  0
LINE
  5
1E346
  8
KI2
 10
294.94704926138212
 20
333.11057788732762
 30
0.0
 11
292.44704926138212
 21
331.61057788732751
 31
0.0
  0
LINE
  5
1E347
  8
KI2
 10
294.94704926138212
 20
335.60574394672591
 30
0.0
 11
294.94704926138212
 21
333.11057788732762
 31
0.0
  0
LINE
  5
1E348
  8
KI2
 10
292.44704926138212
 20
335.60574394672591
 30
0.0
 11
292.44704926138212
 21
330.11057788732762
 31
0.0
  0
LINE
  5
1E349
  8
KI2
 10
290.44704926138212
 20
335.60574394672591
 30
0.0
 11
290.44704926138212
 21
330.11057788732762
 31
0.0
  0
LINE
  5
1E34A
  8
KI2
 10
276.44704926138297
 20
335.6057439467258
 30
0.0
 11
306.44704926138297
 21
335.60574394672602
 31
0.0
  0
ARC
  5
1E34B
  8
KI2
 10
276.44704926138297
 20
337.1057439467258
 30
0.0
 40
1.5
 50
180.0
 51
270.0
  0
ARC
  5
1E34C
  8
KI2
 10
306.44704926138297
 20
337.1057439467258
 30
0.0
 40
1.5
 50
270.0
 51
0.0
  0
ARC
  5
1E34D
  8
KI1
 10
250.7725049701416
 20
331.40573902738771
 30
0.0
 40
0.5
 50
90.0
 51
130.40000551602071
  0
LINE
  5
1E34E
  8
KI1
 10
251.84705420421909
 20
333.10573902738793
 30
0.0
 11
250.1470266647562
 21
333.10573902738793
 31
0.0
  0
LINE
  5
1E34F
  8
KI1
 10
246.6470492613139
 20
328.55126617303608
 30
0.0
 11
246.6470492613139
 21
328.10574394672608
 31
0.0
  0
LINE
  5
1E350
  8
KI1
 10
245.44704926131359
 20
329.10574394672699
 30
0.0
 11
245.44704926131359
 21
328.10574394672608
 31
0.0
  0
LINE
  5
1E351
  8
KI1
 10
246.6470492613139
 20
328.10574394672608
 30
0.0
 11
245.44704926131359
 21
328.10574394672608
 31
0.0
  0
LINE
  5
1E352
  8
KI1
 10
250.4484449829533
 20
331.7865081499578
 30
0.0
 11
246.6470492613139
 21
328.55126617303608
 31
0.0
  0
LINE
  5
1E353
  8
KI1
 10
250.1470266647562
 20
333.10573902738793
 30
0.0
 11
245.44704926131359
 21
329.10574394672699
 31
0.0
  0
LINE
  5
1E354
  8
KI1
 10
286.19320500212501
 20
328.10574394672608
 30
0.0
 11
273.44704926131362
 21
328.10574394672608
 31
0.0
  0
LINE
  5
1E355
  8
KI1
 10
278.6470492613139
 20
331.60574400564218
 30
0.0
 11
284.34705569916792
 21
331.60574400564218
 31
0.0
  0
LINE
  5
1E356
  8
KI1
 10
286.64704573087778
 20
332.80573652058609
 30
0.0
 11
260.24705279175032
 21
332.80573652058609
 31
0.0
  0
LINE
  5
1E357
  8
KI1
 10
273.72988797568217
 20
329.30573646167181
 30
0.0
 11
286.047046660251
 21
329.30573646167181
 31
0.0
  0
LINE
  5
1E358
  8
KI1
 10
277.7470492613138
 20
331.60574400564218
 30
0.0
 11
277.7470492613138
 21
330.05573652058609
 31
0.0
  0
ARC
  5
1E359
  8
KI1
 10
278.19704926131362
 20
330.05573652058609
 30
0.0
 40
0.4499999999999992
 50
180.0
 51
0.0
  0
LINE
  5
1E35A
  8
KI1
 10
278.6470492613139
 20
331.60574400564218
 30
0.0
 11
278.6470492613139
 21
330.05573652058609
 31
0.0
  0
ARC
  5
1E35B
  8
KI1
 10
273.447051647438
 20
329.30573646167181
 30
0.0
 40
0.3
 50
180.0
 51
0.0
  0
ARC
  5
1E35C
  8
KI1
 10
268.69704926131362
 20
330.05573652058609
 30
0.0
 40
0.4499999999999992
 50
180.0
 51
0.0
  0
LINE
  5
1E35D
  8
KI1
 10
268.2470492613138
 20
331.60574400564218
 30
0.0
 11
268.2470492613138
 21
330.05573652058609
 31
0.0
  0
LINE
  5
1E35E
  8
KI1
 10
269.1470492613139
 20
331.60574400564218
 30
0.0
 11
269.1470492613139
 21
330.05573652058609
 31
0.0
  0
LINE
  5
1E35F
  8
KI1
 10
269.1470492613139
 20
331.60574400564218
 30
0.0
 11
277.7470492613138
 21
331.60574400564218
 31
0.0
  0
ARC
  5
1E360
  8
KI1
 10
260.70089352050218
 20
329.10574394672608
 30
0.0
 40
1.0
 50
199.72084247195721
 51
270.0
  0
LINE
  5
1E361
  8
KI1
 10
259.7595456630404
 20
328.7683062321002
 30
0.0
 11
259.66772319004463
 21
329.0244628040391
 31
0.0
  0
LINE
  5
1E362
  8
KI1
 10
258.63455285958679
 20
328.7683062321002
 30
0.0
 11
258.72637533258262
 21
329.0244628040391
 31
0.0
  0
ARC
  5
1E363
  8
KI1
 10
259.19704926131362
 20
328.85574394672608
 30
0.0
 40
0.5
 50
19.72084247195728
 51
160.2791575280427
  0
ARC
  5
1E364
  8
KI1
 10
259.74705685241412
 20
332.80573902738729
 30
0.0
 40
0.3
 50
0.0
 51
90.0
  0
LINE
  5
1E365
  8
KI1
 10
259.74705685241412
 20
333.10573902738793
 30
0.0
 11
259.04704431840901
 21
333.10573902738793
 31
0.0
  0
LINE
  5
1E366
  8
KI1
 10
260.84705186237812
 20
330.60574148705678
 30
0.0
 11
260.84705186237812
 21
329.30573646167181
 31
0.0
  0
LINE
  5
1E367
  8
KI1
 10
261.24705187416112
 20
330.60574148705678
 30
0.0
 11
260.84705186237812
 21
330.60574148705678
 31
0.0
  0
ARC
  5
1E368
  8
KI1
 10
261.24705187416112
 20
330.90574148705701
 30
0.0
 40
0.3
 50
270.0
 51
0.0
  0
LINE
  5
1E369
  8
KI1
 10
261.54705187416079
 20
331.00574400564102
 30
0.0
 11
261.54705187416079
 21
330.90574148705701
 31
0.0
  0
ARC
  5
1E36A
  8
KI1
 10
260.94705187416088
 20
331.00574400564102
 30
0.0
 40
0.6
 50
0.0
 51
90.0
  0
LINE
  5
1E36B
  8
KI1
 10
261.64705281531587
 20
331.60574400564218
 30
0.0
 11
260.04705685241419
 21
331.60574400564218
 31
0.0
  0
LINE
  5
1E36C
  8
KI1
 10
260.04705685241419
 20
332.80573902738729
 30
0.0
 11
260.04705685241419
 21
331.60574400564218
 31
0.0
  0
LINE
  5
1E36D
  8
KI1
 10
262.71330420922601
 20
330.1674446719137
 30
0.0
 11
262.43084898581861
 21
330.57294102618312
 31
0.0
  0
LINE
  5
1E36E
  8
KI1
 10
262.55667456584109
 20
329.6924596744268
 30
0.0
 11
262.63915730514691
 21
329.75019759193918
 31
0.0
  0
LINE
  5
1E36F
  8
KI1
 10
262.54706033571853
 20
330.97968075083207
 30
0.0
 11
262.54706033571853
 21
331.60574400564218
 31
0.0
  0
LINE
  5
1E370
  8
KI1
 10
262.43084898581861
 20
330.57294102618312
 30
0.0
 11
262.54706033571853
 21
330.97968075083207
 31
0.0
  0
LINE
  5
1E372
  8
KI1
 10
261.64705281531587
 20
331.60574400564218
 30
0.0
 11
261.64705281531587
 21
331.10573399021968
 31
0.0
  0
LINE
  5
1E373
  8
KI1
 10
261.64705281531587
 20
331.10573399021968
 30
0.0
 11
261.51248861811467
 21
330.63472427549573
 31
0.0
  0
LINE
  5
1E374
  8
KI1
 10
260.24705279175032
 20
332.80573652058609
 30
0.0
 11
260.24705279175032
 21
331.60574400564218
 31
0.0
  0
LINE
  5
1E375
  8
KI1
 10
261.58362341366768
 20
330.21062990230189
 30
0.0
 11
261.86031710390529
 21
329.8153431949579
 31
0.0
  0
ARC
  5
1E376
  8
KI1
 10
262.46713438621009
 20
329.99598214526048
 30
0.0
 40
0.3000000099360252
 50
304.99198913572991
 51
34.858993530263639
  0
ARC
  5
1E377
  8
KI1
 10
262.26994635126857
 20
330.10208892178912
 30
0.0
 40
0.4999999937576218
 50
214.99197387695901
 51
304.99198913572991
  0
ARC
  5
1E378
  8
KI1
 10
261.99323514877233
 20
330.49735811687492
 30
0.0
 40
0.4999999937576218
 50
164.0549926757796
 51
214.9919891357321
  0
ARC
  5
1E379
  8
KI1
 10
253.1470492613139
 20
329.10574394672699
 30
0.0
 40
1.0
 50
180.0
 51
270.0
  0
LINE
  5
1E37A
  8
KI1
 10
251.84704926131371
 20
333.10573902738793
 30
0.0
 11
253.34704926131371
 21
331.84708958062203
 31
0.0
  0
ARC
  5
1E37B
  8
KI1
 10
251.84704926131371
 20
331.14762809338868
 30
0.0
 40
0.3
 50
0.0
 51
50.000000000010331
  0
LINE
  5
1E37C
  8
KI1
 10
251.22829986306169
 20
331.9057390273872
 30
0.0
 11
250.7725049701416
 21
331.9057390273872
 31
0.0
  0
LINE
  5
1E37D
  8
KI1
 10
251.5496936679051
 20
331.78876124894742
 30
0.0
 11
252.0398855442204
 21
331.37744142632499
 31
0.0
  0
ARC
  5
1E37E
  8
KI1
 10
251.22829986306169
 20
331.40573902738771
 30
0.0
 40
0.5
 50
50.000000000010331
 51
90.0
  0
LINE
  5
1E37F
  8
KI1
 10
252.1470492613139
 20
329.10574394672699
 30
0.0
 11
252.1470492613139
 21
331.14762809338868
 31
0.0
  0
LINE
  5
1E380
  8
KI1
 10
253.34704926131371
 20
329.30574394672681
 30
0.0
 11
253.34704926131371
 21
331.84708958062203
 31
0.0
  0
LINE
  5
1E381
  8
KI1
 10
253.34704926131371
 20
329.30574394672681
 30
0.0
 11
255.44704926131359
 21
329.30574394672681
 31
0.0
  0
LINE
  5
1E382
  8
KI1
 10
257.69320500212513
 20
328.10574394672608
 30
0.0
 11
253.1470492613139
 21
328.10574394672699
 31
0.0
  0
LINE
  5
1E383
  8
KI1
 10
257.54704926131348
 20
329.30574394672681
 30
0.0
 11
257.54704926131348
 21
331.84708958062203
 31
0.0
  0
LINE
  5
1E384
  8
KI1
 10
257.54704926131348
 20
329.30574394672681
 30
0.0
 11
255.44704926131359
 21
329.30574394672681
 31
0.0
  0
ARC
  5
1E385
  8
KI1
 10
257.69320500212513
 20
329.10574394672608
 30
0.0
 40
1.0
 50
270.0
 51
340.27915752804267
  0
LINE
  5
1E387
  8
KI1
 10
259.04704926131348
 20
333.10573902738793
 30
0.0
 11
257.54704926131348
 21
331.84708958062203
 31
0.0
  0
LINE
  5
1E388
  8
KI1
 10
260.70089352050218
 20
328.10574394672608
 30
0.0
 11
273.44704926131362
 21
328.10574394672608
 31
0.0
  0
LINE
  5
1E389
  8
KI1
 10
273.16421054694592
 20
329.30573646167181
 30
0.0
 11
260.84705186237812
 21
329.30573646167181
 31
0.0
  0
LINE
  5
1E38A
  8
KI1
 10
262.54706033571853
 20
331.60574400564218
 30
0.0
 11
268.2470492613138
 21
331.60574400564218
 31
0.0
  0
LINE
  5
1E38B
  8
KI1
 10
301.44704926131362
 20
329.10574394672699
 30
0.0
 11
301.44704926131362
 21
328.10574394672608
 31
0.0
  0
LINE
  5
1E38C
  8
KI1
 10
300.2470492613138
 20
328.55126617303608
 30
0.0
 11
300.2470492613138
 21
328.10574394672608
 31
0.0
  0
LINE
  5
1E38E
  8
KI1
 10
301.44704926131362
 20
328.10574394672608
 30
0.0
 11
300.2470492613138
 21
328.10574394672608
 31
0.0
  0
ARC
  5
1E390
  8
KI1
 10
295.2470492613138
 20
331.05436656175812
 30
0.0
 40
0.5
 50
129.99999999998971
 51
180.0
  0
LINE
  5
1E391
  8
KI1
 10
295.344404854723
 20
331.78876124894742
 30
0.0
 11
294.9256554564713
 21
331.43738878331692
 31
0.0
  0
ARC
  5
1E392
  8
KI1
 10
295.66579865956692
 20
331.40573902738771
 30
0.0
 40
0.5
 50
90.0
 51
129.99999999998971
  0
LINE
  5
1E393
  8
KI1
 10
296.12159355248599
 20
331.9057390273872
 30
0.0
 11
295.66579865956692
 21
331.9057390273872
 31
0.0
  0
ARC
  5
1E394
  8
KI1
 10
296.12159355248599
 20
331.40573902738771
 30
0.0
 40
0.5
 50
49.599994483979231
 51
90.0
  0
LINE
  5
1E395
  8
KI1
 10
295.04704431840901
 20
333.10573902738793
 30
0.0
 11
296.74707185787202
 21
333.10573902738793
 31
0.0
  0
LINE
  5
1E396
  8
KI1
 10
294.7470492613138
 20
329.10574394672699
 30
0.0
 11
294.7470492613138
 21
331.05436656175812
 31
0.0
  0
ARC
  5
1E397
  8
KI1
 10
293.7470492613138
 20
329.10574394672699
 30
0.0
 40
1.0
 50
270.0
 51
0.0
  0
LINE
  5
1E399
  8
KI1
 10
295.04704926131348
 20
333.10573902738793
 30
0.0
 11
293.54704926131348
 21
331.84708958062203
 31
0.0
  0
LINE
  5
1E39A
  8
KI1
 10
293.54704926131348
 20
331.84708958062203
 30
0.0
 11
293.54704926131348
 21
329.30574394672681
 31
0.0
  0
LINE
  5
1E39B
  8
KI1
 10
293.54704926131348
 20
329.30574394672681
 30
0.0
 11
291.44704926131499
 21
329.30574394672681
 31
0.0
  0
ARC
  5
1E39C
  8
KI1
 10
286.19320500212501
 20
329.10574394672608
 30
0.0
 40
1.0
 50
270.0
 51
340.27915752804267
  0
ARC
  5
1E39D
  8
KI1
 10
289.20089352050218
 20
329.10574394672608
 30
0.0
 40
1.0
 50
199.72084247195721
 51
270.0
  0
LINE
  5
1E39E
  8
KI1
 10
288.2595456630404
 20
328.7683062321002
 30
0.0
 11
288.16772319004463
 21
329.02446280403899
 31
0.0
  0
LINE
  5
1E39F
  8
KI1
 10
287.1345528595869
 20
328.7683062321002
 30
0.0
 11
287.22637533258262
 21
329.02446280403899
 31
0.0
  0
ARC
  5
1E3A0
  8
KI1
 10
287.69704926131362
 20
328.85574394672608
 30
0.0
 40
0.5
 50
19.72084247195728
 51
160.2791575280427
  0
LINE
  5
1E3A1
  8
KI1
 10
285.24706321957137
 20
331.60574400564218
 30
0.0
 11
286.84704167021391
 21
331.60574400564218
 31
0.0
  0
LINE
  5
1E3A3
  8
KI1
 10
286.047046660251
 20
330.60574148705678
 30
0.0
 11
286.047046660251
 21
329.30573646167181
 31
0.0
  0
LINE
  5
1E3A4
  8
KI1
 10
285.64704664846698
 20
330.60574148705678
 30
0.0
 11
286.047046660251
 21
330.60574148705678
 31
0.0
  0
ARC
  5
1E3A5
  8
KI1
 10
285.64704664846698
 20
330.90574148705701
 30
0.0
 40
0.3
 50
180.0
 51
270.0
  0
LINE
  5
1E3A6
  8
KI1
 10
285.31049262121911
 20
330.21062990230189
 30
0.0
 11
285.0337989309823
 21
329.8153431949579
 31
0.0
  0
LINE
  5
1E3A7
  8
KI1
 10
285.24706321957137
 20
331.10573399021968
 30
0.0
 11
285.38164492903201
 21
330.63472427549573
 31
0.0
  0
LINE
  5
1E3A8
  8
KI1
 10
285.24706321957137
 20
331.60574400564218
 30
0.0
 11
285.24706321957137
 21
331.10573399021968
 31
0.0
  0
LINE
  5
1E3A9
  8
KI1
 10
284.18082933791902
 20
330.1674446719137
 30
0.0
 11
284.46326704906693
 21
330.57294102618312
 31
0.0
  0
LINE
  5
1E3AA
  8
KI1
 10
284.3374414690461
 20
329.6924596744268
 30
0.0
 11
284.25494121748221
 21
329.75019759193918
 31
0.0
  0
LINE
  5
1E3AB
  8
KI1
 10
284.34705569916792
 20
330.97968075083207
 30
0.0
 11
284.34705569916792
 21
331.60574400564218
 31
0.0
  0
LINE
  5
1E3AC
  8
KI1
 10
284.46326704906693
 20
330.57294102618312
 30
0.0
 11
284.34705569916792
 21
330.97968075083207
 31
0.0
  0
ARC
  5
1E3AD
  8
KI1
 10
284.90086337385537
 20
330.49735811687492
 30
0.0
 40
0.4999999937576218
 50
325.00799560546028
 51
15.944992065438351
  0
ARC
  5
1E3AE
  8
KI1
 10
284.42698164867721
 20
329.99598214526048
 30
0.0
 40
0.3000000099360252
 50
145.14099121094179
 51
235.0079956054567
  0
ARC
  5
1E3AF
  8
KI1
 10
284.62416968361907
 20
330.10208892178912
 30
0.0
 40
0.4999999937576218
 50
235.0079956054567
 51
325.00799560546028
  0
LINE
  5
1E3B0
  8
KI1
 10
285.34704664846822
 20
331.00574400564102
 30
0.0
 11
285.34704664846822
 21
330.90574148705701
 31
0.0
  0
ARC
  5
1E3B1
  8
KI1
 10
285.94704664846722
 20
331.00574400564102
 30
0.0
 40
0.6
 50
90.0
 51
180.0
  0
LINE
  5
1E3B2
  8
KI1
 10
287.84704926131371
 20
333.10573902738793
 30
0.0
 11
289.34704926131371
 21
331.84708958062203
 31
0.0
  0
LINE
  5
1E3B4
  8
KI1
 10
289.34704926131371
 20
329.30574394672681
 30
0.0
 11
289.34704926131371
 21
331.84708958062203
 31
0.0
  0
LINE
  5
1E3B5
  8
KI1
 10
286.84704167021391
 20
332.80573902738729
 30
0.0
 11
286.84704167021391
 21
331.60574400564218
 31
0.0
  0
LINE
  5
1E3B6
  8
KI1
 10
287.14704167021409
 20
333.10573902738793
 30
0.0
 11
287.84705420421921
 21
333.10573902738793
 31
0.0
  0
ARC
  5
1E3B7
  8
KI1
 10
287.14704167021409
 20
332.80573902738729
 30
0.0
 40
0.3
 50
90.0
 51
180.0
  0
LINE
  5
1E3B8
  8
KI1
 10
286.64704573087778
 20
331.60574400564218
 30
0.0
 11
286.64704573087778
 21
332.80573652058609
 31
0.0
  0
LINE
  5
1E3BA
  8
KI1
 10
293.7470492613138
 20
328.10574394672608
 30
0.0
 11
289.20089352050218
 21
328.10574394672608
 31
0.0
  0
LINE
  5
1E3BB
  8
KI1
 10
289.34704926131371
 20
329.30574394672681
 30
0.0
 11
291.44704926131499
 21
329.30574394672681
 31
0.0
  0
LINE
  5
1E3BC
  8
KI1
 10
296.44565353967619
 20
331.7865081499578
 30
0.0
 11
300.2470492613138
 21
328.55126617303608
 31
0.0
  0
LINE
  5
1E3BE
  8
KI1
 10
296.74707185787202
 20
333.10573902738793
 30
0.0
 11
301.44704926131362
 21
329.10574394672699
 31
0.0
  0
LINE
  5
1E3BF
  8
KI2
 10
292.44704926138212
 20
330.11057788732762
 30
0.0
 11
291.44704926138212
 21
330.11057788732762
 31
0.0
  0
LINE
  5
1E3C0
  8
KI2
 10
290.44704926138212
 20
330.11057788732762
 30
0.0
 11
291.44704926138212
 21
330.11057788732762
 31
0.0
  0
TEXT
  5
1E40D
  8
MJ
 10
217.44304926131369
 20
272.6518628828444
 30
0.0
 40
7.0
  1
直貼りレール
 41
0.8299999999999999
 72
     4
 11
237.19704926131359
 21
276.15186288284451
 31
0.0
  0
LINE
  5
1E823
  8
KI1
 10
202.4470492611749
 20
131.28300748772079
 30
0.0
 11
235.4470492611058
 21
131.28300748772079
 31
0.0
  0
LINE
  5
1E825
  8
OS
 10
174.6970492611058
 20
124.28300748772079
 30
0.0
 11
174.6970492611058
 21
112.28300748772079
 31
0.0
  0
LINE
  5
1E826
  8
OS
 10
299.69704926124717
 20
124.28300748772079
 30
0.0
 11
299.69704926124717
 21
112.28300748772079
 31
0.0
  0
LINE
  5
1E827
  8
KI1
 10
165.1970892611057
 20
124.2830310987439
 30
0.0
 11
166.40305490295799
 21
124.2830310987439
 31
0.0
  0
LINE
  5
1E829
  8
KI2
 10
215.69704926117399
 20
126.0711938844105
 30
0.0
 11
218.19704926117399
 21
124.5711938844105
 31
0.0
  0
LINE
  5
1E82A
  8
KI2
 10
215.69704926117399
 20
129.78300748772091
 30
0.0
 11
215.69704926117399
 21
126.0711938844105
 31
0.0
  0
LINE
  5
1E82B
  8
KI2
 10
220.19704926117399
 20
123.0711938844105
 30
0.0
 11
219.19704926117399
 21
123.0711938844105
 31
0.0
  0
LINE
  5
1E82C
  8
KI2
 10
218.19704926117399
 20
123.0711938844105
 30
0.0
 11
219.19704926117399
 21
123.0711938844105
 31
0.0
  0
LINE
  5
1E82D
  8
KI2
 10
222.69704926117399
 20
126.0711938844105
 30
0.0
 11
220.19704926117399
 21
124.5711938844105
 31
0.0
  0
LINE
  5
1E82E
  8
KI2
 10
222.69704926117399
 20
129.78300748772091
 30
0.0
 11
222.69704926117399
 21
126.0711938844105
 31
0.0
  0
LINE
  5
1E82F
  8
KI2
 10
220.19704926117399
 20
129.78300748772091
 30
0.0
 11
220.19704926117399
 21
123.0711938844105
 31
0.0
  0
LINE
  5
1E830
  8
KI2
 10
218.19704926117399
 20
129.78300748772091
 30
0.0
 11
218.19704926117399
 21
123.0711938844105
 31
0.0
  0
LINE
  5
1E831
  8
KI2
 10
203.9470492611749
 20
129.78300748772079
 30
0.0
 11
233.9470492611749
 21
129.78300748772091
 31
0.0
  0
ARC
  5
1E833
  8
KI2
 10
203.9470492611749
 20
131.28300748772079
 30
0.0
 40
1.5
 50
180.0
 51
270.0
  0
ARC
  5
1E834
  8
KI2
 10
233.9470492611749
 20
131.28300748772079
 30
0.0
 40
1.5
 50
270.0
 51
0.0
  0
LINE
  5
1E835
  8
KI2
 10
179.69704926117399
 20
126.0711938844105
 30
0.0
 11
182.19704926117399
 21
124.5711938844105
 31
0.0
  0
LINE
  5
1E836
  8
KI2
 10
179.69704926117399
 20
129.78300748772091
 30
0.0
 11
179.69704926117399
 21
126.0711938844105
 31
0.0
  0
LINE
  5
1E837
  8
KI2
 10
184.19704926117399
 20
123.0711938844105
 30
0.0
 11
183.19704926117399
 21
123.0711938844105
 31
0.0
  0
LINE
  5
1E838
  8
KI2
 10
182.19704926117399
 20
123.0711938844105
 30
0.0
 11
183.19704926117399
 21
123.0711938844105
 31
0.0
  0
LINE
  5
1E839
  8
KI2
 10
186.69704926117399
 20
126.0711938844105
 30
0.0
 11
184.19704926117399
 21
124.5711938844105
 31
0.0
  0
LINE
  5
1E83A
  8
KI2
 10
186.69704926117399
 20
129.78300748772091
 30
0.0
 11
186.69704926117399
 21
126.0711938844105
 31
0.0
  0
LINE
  5
1E83B
  8
KI2
 10
184.19704926117399
 20
129.78300748772091
 30
0.0
 11
184.19704926117399
 21
123.0711938844105
 31
0.0
  0
LINE
  5
1E83C
  8
KI2
 10
182.19704926117399
 20
129.78300748772091
 30
0.0
 11
182.19704926117399
 21
123.0711938844105
 31
0.0
  0
LINE
  5
1E83D
  8
KI2
 10
167.9470492611749
 20
129.78300748772079
 30
0.0
 11
197.9470492611749
 21
129.78300748772091
 31
0.0
  0
LINE
  5
1E83E
  8
KI1
 10
166.4470492611749
 20
131.28300748772079
 30
0.0
 11
199.4470492611056
 21
131.28300748772079
 31
0.0
  0
ARC
  5
1E83F
  8
KI2
 10
167.9470492611749
 20
131.28300748772079
 30
0.0
 40
1.5
 50
180.0
 51
270.0
  0
ARC
  5
1E840
  8
KI2
 10
197.9470492611749
 20
131.28300748772079
 30
0.0
 40
1.5
 50
270.0
 51
0.0
  0
LINE
  5
1E841
  8
KI2
 10
178.5970692611042
 20
126.0830073963906
 30
0.0
 11
179.5970692611042
 21
126.0830073963906
 31
0.0
  0
LINE
  5
1E842
  8
KI2
 10
179.6970692611041
 20
118.9830073963906
 30
0.0
 11
178.5970692611042
 21
122.0230073963906
 31
0.0
  0
LINE
  5
1E843
  8
KI2
 10
178.99706926110409
 20
116.0830073963906
 30
0.0
 11
179.6970692611041
 21
116.0830073963906
 31
0.0
  0
LINE
  5
1E844
  8
KI2
 10
179.6970692611041
 20
117.5830073963906
 30
0.0
 11
179.0970692611042
 21
116.8830073963906
 31
0.0
  0
ARC
  5
1E845
  8
KI2
 10
178.5970692611042
 20
125.7830073963906
 30
0.0
 40
0.3
 50
90.0
 51
180.0
  0
LINE
  5
1E846
  8
KI2
 10
178.2970692611043
 20
122.3830073963906
 30
0.0
 11
178.5970692611042
 21
122.0230073963906
 31
0.0
  0
LINE
  5
1E847
  8
KI2
 10
178.49706926110409
 20
116.8830073963906
 30
0.0
 11
178.49706926110409
 21
116.5830073963906
 31
0.0
  0
ARC
  5
1E848
  8
KI2
 10
178.99706926110409
 20
116.5830073963906
 30
0.0
 40
0.5
 50
180.0
 51
270.0
  0
LINE
  5
1E849
  8
KI2
 10
178.49706926110409
 20
116.8830073963906
 30
0.0
 11
179.0970692611042
 21
116.8830073963906
 31
0.0
  0
LINE
  5
1E84A
  8
KI2
 10
178.2970692611043
 20
125.7830073963906
 30
0.0
 11
178.2970692611043
 21
122.3830073963906
 31
0.0
  0
ARC
  5
1E84B
  8
KI2
 10
187.7970692611043
 20
125.7830073963906
 30
0.0
 40
0.3
 50
0.0
 51
90.0
  0
ARC
  5
1E84C
  8
KI2
 10
185.5970692611042
 20
124.6844656521782
 30
0.0
 40
0.3
 50
130.00000000000239
 51
180.0
  0
LINE
  5
1E84D
  8
KI2
 10
185.40423297819819
 20
124.9142789851138
 30
0.0
 11
186.7970692611043
 21
126.0830073963906
 31
0.0
  0
LINE
  5
1E84E
  8
KI2
 10
187.7970692611043
 20
126.0830073963906
 30
0.0
 11
186.7970692611043
 21
126.0830073963906
 31
0.0
  0
LINE
  5
1E84F
  8
KI2
 10
188.0970692611042
 20
122.3830073963906
 30
0.0
 11
187.7970692611043
 21
122.0230073963906
 31
0.0
  0
ARC
  5
1E850
  8
KI2
 10
185.39706926110421
 20
122.3330073963906
 30
0.0
 40
0.75
 50
270.0
 51
90.0
  0
LINE
  5
1E851
  8
KI2
 10
185.34863482484161
 20
121.2830073963906
 30
0.0
 11
185.34863482484161
 21
121.5830073963906
 31
0.0
  0
LINE
  5
1E852
  8
KI2
 10
185.34863482484161
 20
121.5830073963906
 30
0.0
 11
185.39706926110421
 21
121.5830073963906
 31
0.0
  0
LINE
  5
1E853
  8
KI2
 10
185.39706926110421
 20
123.0830073963906
 30
0.0
 11
185.2970692611043
 21
123.0830073963906
 31
0.0
  0
LINE
  5
1E854
  8
KI2
 10
186.6970692611041
 20
118.9830073963906
 30
0.0
 11
186.6970692611041
 21
117.5830073963906
 31
0.0
  0
POINT
  5
1E855
  8
KI2
 10
186.6970692611041
 20
118.46891912357501
 30
0.0
  0
LINE
  5
1E856
  8
KI2
 10
186.6970692611041
 20
118.9830073963906
 30
0.0
 11
187.7970692611043
 21
122.0230073963906
 31
0.0
  0
ARC
  5
1E857
  8
KI2
 10
184.84863482484161
 20
121.2830073963906
 30
0.0
 40
0.5
 50
270.0
 51
0.0
  0
LINE
  5
1E858
  8
KI2
 10
187.89706926110421
 20
116.8830073963906
 30
0.0
 11
187.89706926110421
 21
116.5830073963906
 31
0.0
  0
LINE
  5
1E859
  8
KI2
 10
187.39706926110421
 20
116.0830073963906
 30
0.0
 11
186.6970692611041
 21
116.0830073963906
 31
0.0
  0
LINE
  5
1E85A
  8
KI2
 10
186.39706926110421
 20
116.3830073963906
 30
0.0
 11
186.6970692611041
 21
116.0830073963906
 31
0.0
  0
LINE
  5
1E85B
  8
KI2
 10
183.9470692611041
 20
117.0830073963906
 30
0.0
 11
184.4470692611041
 21
116.3830073963906
 31
0.0
  0
LINE
  5
1E85C
  8
KI2
 10
186.39706926110421
 20
116.3830073963906
 30
0.0
 11
184.4470692611041
 21
116.3830073963906
 31
0.0
  0
ARC
  5
1E85D
  8
KI2
 10
187.39706926110421
 20
116.5830073963906
 30
0.0
 40
0.5
 50
270.0
 51
0.0
  0
LINE
  5
1E85E
  8
KI2
 10
187.89706926110421
 20
116.8830073963906
 30
0.0
 11
187.2970692611043
 21
116.8830073963906
 31
0.0
  0
LINE
  5
1E85F
  8
KI2
 10
186.6970692611041
 20
117.5830073963906
 30
0.0
 11
187.2970692611043
 21
116.8830073963906
 31
0.0
  0
LINE
  5
1E860
  8
KI2
 10
188.0970692611042
 20
125.7830073963906
 30
0.0
 11
188.0970692611042
 21
122.3830073963906
 31
0.0
  0
LINE
  5
1E861
  8
KI2
 10
185.2970692611043
 20
124.6844656521782
 30
0.0
 11
185.2970692611043
 21
123.0830073963906
 31
0.0
  0
ARC
  5
1E862
  8
KI2
 10
180.7970692611043
 20
124.6844656521782
 30
0.0
 40
0.3
 50
0.0
 51
49.999999999997613
  0
LINE
  5
1E863
  8
KI2
 10
180.98990554401001
 20
124.9142789851138
 30
0.0
 11
179.597069261104
 21
126.0830073963906
 31
0.0
  0
ARC
  5
1E864
  8
KI2
 10
180.99706926110409
 20
122.3330073963906
 30
0.0
 40
0.75
 50
90.0
 51
270.0
  0
LINE
  5
1E865
  8
KI2
 10
181.04550369736691
 20
121.2830073963906
 30
0.0
 11
181.04550369736691
 21
121.5830073963906
 31
0.0
  0
LINE
  5
1E866
  8
KI2
 10
181.04550369736691
 20
121.5830073963906
 30
0.0
 11
180.99706926110409
 21
121.5830073963906
 31
0.0
  0
LINE
  5
1E867
  8
KI2
 10
180.99706926110409
 20
123.0830073963906
 30
0.0
 11
181.0970692611042
 21
123.0830073963906
 31
0.0
  0
ARC
  5
1E868
  8
KI2
 10
183.19706926110419
 20
120.7830073963906
 30
0.0
 40
0.3
 50
270.0
 51
0.0
  0
LINE
  5
1E869
  8
KI2
 10
179.6970692611041
 20
118.9830073963906
 30
0.0
 11
179.6970692611041
 21
117.5830073963906
 31
0.0
  0
LINE
  5
1E86A
  8
KI2
 10
181.54550369736691
 20
120.7830073963906
 30
0.0
 11
182.89706926110421
 21
120.7830073963906
 31
0.0
  0
POINT
  5
1E86B
  8
KI2
 10
179.6970692611041
 20
118.46891912357501
 30
0.0
  0
ARC
  5
1E86C
  8
KI2
 10
183.19706926110419
 20
120.7830073963906
 30
0.0
 40
0.3
 50
180.0
 51
270.0
  0
ARC
  5
1E86D
  8
KI2
 10
181.54550369736691
 20
121.2830073963906
 30
0.0
 40
0.5
 50
180.0
 51
270.0
  0
LINE
  5
1E86E
  8
KI2
 10
179.99706926110409
 20
116.3830073963906
 30
0.0
 11
181.9470692611041
 21
116.3830073963906
 31
0.0
  0
LINE
  5
1E86F
  8
KI2
 10
179.99706926110409
 20
116.3830073963906
 30
0.0
 11
179.6970692611041
 21
116.0830073963906
 31
0.0
  0
LINE
  5
1E870
  8
KI2
 10
182.4470692611041
 20
117.0830073963906
 30
0.0
 11
181.9470692611041
 21
116.3830073963906
 31
0.0
  0
LINE
  5
1E871
  8
KI2
 10
182.89706926110421
 20
117.0830073963906
 30
0.0
 11
182.4470692611041
 21
117.0830073963906
 31
0.0
  0
ARC
  5
1E872
  8
KI2
 10
183.19706926110419
 20
117.0830073963906
 30
0.0
 40
0.3
 50
0.0
 51
90.0
  0
ARC
  5
1E873
  8
KI2
 10
183.19706926110419
 20
117.0830073963906
 30
0.0
 40
0.3
 50
90.0
 51
180.0
  0
LINE
  5
1E874
  8
KI2
 10
181.0970692611042
 20
124.6844656521782
 30
0.0
 11
181.0970692611042
 21
123.0830073963906
 31
0.0
  0
LINE
  5
1E875
  8
KI2
 10
183.49706926110409
 20
117.0830073963906
 30
0.0
 11
183.9470692611041
 21
117.0830073963906
 31
0.0
  0
LINE
  5
1E876
  8
KI2
 10
184.84863482484161
 20
120.7830073963906
 30
0.0
 11
183.49706926110409
 21
120.7830073963906
 31
0.0
  0
LINE
  5
1E877
  8
KI2
 10
214.5970692611042
 20
126.0830073963906
 30
0.0
 11
215.59706926110431
 21
126.0830073963906
 31
0.0
  0
LINE
  5
1E878
  8
KI2
 10
215.69706926110419
 20
118.9830073963906
 30
0.0
 11
214.5970692611042
 21
122.0230073963906
 31
0.0
  0
LINE
  5
1E879
  8
KI2
 10
214.99706926110409
 20
116.0830073963906
 30
0.0
 11
215.69706926110419
 21
116.0830073963906
 31
0.0
  0
LINE
  5
1E87A
  8
KI2
 10
215.69706926110419
 20
117.5830073963906
 30
0.0
 11
215.09706926110431
 21
116.8830073963906
 31
0.0
  0
ARC
  5
1E87B
  8
KI2
 10
214.5970692611042
 20
125.7830073963906
 30
0.0
 40
0.3
 50
90.0
 51
180.0
  0
LINE
  5
1E87C
  8
KI2
 10
214.2970692611043
 20
122.3830073963906
 30
0.0
 11
214.5970692611042
 21
122.0230073963906
 31
0.0
  0
LINE
  5
1E87D
  8
KI2
 10
214.49706926110409
 20
116.8830073963906
 30
0.0
 11
214.49706926110409
 21
116.5830073963906
 31
0.0
  0
ARC
  5
1E87E
  8
KI2
 10
214.99706926110409
 20
116.5830073963906
 30
0.0
 40
0.5
 50
180.0
 51
270.0
  0
LINE
  5
1E87F
  8
KI2
 10
214.49706926110409
 20
116.8830073963906
 30
0.0
 11
215.09706926110431
 21
116.8830073963906
 31
0.0
  0
LINE
  5
1E880
  8
KI2
 10
214.2970692611043
 20
125.7830073963906
 30
0.0
 11
214.2970692611043
 21
122.3830073963906
 31
0.0
  0
ARC
  5
1E881
  8
KI2
 10
223.7970692611043
 20
125.7830073963906
 30
0.0
 40
0.3
 50
0.0
 51
90.0
  0
ARC
  5
1E882
  8
KI2
 10
221.59706926110431
 20
124.6844656521782
 30
0.0
 40
0.3
 50
130.00000000000239
 51
180.0
  0
LINE
  5
1E883
  8
KI2
 10
221.40423297819831
 20
124.9142789851138
 30
0.0
 11
222.7970692611043
 21
126.0830073963906
 31
0.0
  0
LINE
  5
1E884
  8
KI2
 10
223.7970692611043
 20
126.0830073963906
 30
0.0
 11
222.7970692611043
 21
126.0830073963906
 31
0.0
  0
LINE
  5
1E885
  8
KI2
 10
224.09706926110431
 20
122.3830073963906
 30
0.0
 11
223.7970692611043
 21
122.0230073963906
 31
0.0
  0
ARC
  5
1E886
  8
KI2
 10
221.39706926110421
 20
122.3330073963906
 30
0.0
 40
0.75
 50
270.0
 51
90.0
  0
LINE
  5
1E887
  8
KI2
 10
221.34863482484161
 20
121.2830073963906
 30
0.0
 11
221.34863482484161
 21
121.5830073963906
 31
0.0
  0
LINE
  5
1E888
  8
KI2
 10
221.34863482484161
 20
121.5830073963906
 30
0.0
 11
221.39706926110421
 21
121.5830073963906
 31
0.0
  0
LINE
  5
1E889
  8
KI2
 10
221.39706926110421
 20
123.0830073963906
 30
0.0
 11
221.2970692611043
 21
123.0830073963906
 31
0.0
  0
LINE
  5
1E88A
  8
KI2
 10
222.6970692611041
 20
118.9830073963906
 30
0.0
 11
222.6970692611041
 21
117.5830073963906
 31
0.0
  0
POINT
  5
1E88B
  8
KI2
 10
222.6970692611041
 20
118.46891912357501
 30
0.0
  0
LINE
  5
1E88C
  8
KI2
 10
222.6970692611041
 20
118.9830073963906
 30
0.0
 11
223.7970692611043
 21
122.0230073963906
 31
0.0
  0
ARC
  5
1E88D
  8
KI2
 10
220.84863482484161
 20
121.2830073963906
 30
0.0
 40
0.5
 50
270.0
 51
0.0
  0
LINE
  5
1E88E
  8
KI2
 10
223.89706926110421
 20
116.8830073963906
 30
0.0
 11
223.89706926110421
 21
116.5830073963906
 31
0.0
  0
LINE
  5
1E88F
  8
KI2
 10
223.39706926110421
 20
116.0830073963906
 30
0.0
 11
222.6970692611041
 21
116.0830073963906
 31
0.0
  0
LINE
  5
1E890
  8
KI2
 10
222.39706926110421
 20
116.3830073963906
 30
0.0
 11
222.6970692611041
 21
116.0830073963906
 31
0.0
  0
LINE
  5
1E891
  8
KI2
 10
219.94706926110419
 20
117.0830073963906
 30
0.0
 11
220.44706926110419
 21
116.3830073963906
 31
0.0
  0
LINE
  5
1E892
  8
KI2
 10
222.39706926110421
 20
116.3830073963906
 30
0.0
 11
220.44706926110419
 21
116.3830073963906
 31
0.0
  0
ARC
  5
1E893
  8
KI2
 10
223.39706926110421
 20
116.5830073963906
 30
0.0
 40
0.5
 50
270.0
 51
0.0
  0
LINE
  5
1E894
  8
KI2
 10
223.89706926110421
 20
116.8830073963906
 30
0.0
 11
223.2970692611043
 21
116.8830073963906
 31
0.0
  0
LINE
  5
1E895
  8
KI2
 10
222.6970692611041
 20
117.5830073963906
 30
0.0
 11
223.2970692611043
 21
116.8830073963906
 31
0.0
  0
LINE
  5
1E896
  8
KI2
 10
224.09706926110431
 20
125.7830073963906
 30
0.0
 11
224.09706926110431
 21
122.3830073963906
 31
0.0
  0
LINE
  5
1E897
  8
KI2
 10
221.2970692611043
 20
124.6844656521782
 30
0.0
 11
221.2970692611043
 21
123.0830073963906
 31
0.0
  0
ARC
  5
1E898
  8
KI2
 10
216.7970692611043
 20
124.6844656521782
 30
0.0
 40
0.3
 50
0.0
 51
49.999999999997613
  0
LINE
  5
1E899
  8
KI2
 10
216.9899055440101
 20
124.9142789851138
 30
0.0
 11
215.597069261104
 21
126.0830073963906
 31
0.0
  0
ARC
  5
1E89A
  8
KI2
 10
216.99706926110409
 20
122.3330073963906
 30
0.0
 40
0.75
 50
90.0
 51
270.0
  0
LINE
  5
1E89B
  8
KI2
 10
217.04550369736691
 20
121.2830073963906
 30
0.0
 11
217.04550369736691
 21
121.5830073963906
 31
0.0
  0
LINE
  5
1E89C
  8
KI2
 10
217.04550369736691
 20
121.5830073963906
 30
0.0
 11
216.99706926110409
 21
121.5830073963906
 31
0.0
  0
LINE
  5
1E89D
  8
KI2
 10
216.99706926110409
 20
123.0830073963906
 30
0.0
 11
217.0970692611042
 21
123.0830073963906
 31
0.0
  0
ARC
  5
1E89E
  8
KI2
 10
219.19706926110419
 20
120.7830073963906
 30
0.0
 40
0.3
 50
270.0
 51
0.0
  0
LINE
  5
1E89F
  8
KI2
 10
215.69706926110419
 20
118.9830073963906
 30
0.0
 11
215.69706926110419
 21
117.5830073963906
 31
0.0
  0
LINE
  5
1E8A0
  8
KI2
 10
217.54550369736691
 20
120.7830073963906
 30
0.0
 11
218.89706926110421
 21
120.7830073963906
 31
0.0
  0
POINT
  5
1E8A1
  8
KI2
 10
215.69706926110419
 20
118.46891912357501
 30
0.0
  0
ARC
  5
1E8A2
  8
KI2
 10
219.19706926110419
 20
120.7830073963906
 30
0.0
 40
0.3
 50
180.0
 51
270.0
  0
ARC
  5
1E8A3
  8
KI2
 10
217.54550369736691
 20
121.2830073963906
 30
0.0
 40
0.5
 50
180.0
 51
270.0
  0
LINE
  5
1E8A4
  8
KI2
 10
215.99706926110409
 20
116.3830073963906
 30
0.0
 11
217.94706926110419
 21
116.3830073963906
 31
0.0
  0
LINE
  5
1E8A5
  8
KI2
 10
215.99706926110409
 20
116.3830073963906
 30
0.0
 11
215.69706926110419
 21
116.0830073963906
 31
0.0
  0
LINE
  5
1E8A6
  8
KI2
 10
218.4470692611041
 20
117.0830073963906
 30
0.0
 11
217.94706926110419
 21
116.3830073963906
 31
0.0
  0
LINE
  5
1E8A7
  8
KI2
 10
218.89706926110421
 20
117.0830073963906
 30
0.0
 11
218.4470692611041
 21
117.0830073963906
 31
0.0
  0
ARC
  5
1E8A8
  8
KI2
 10
219.19706926110419
 20
117.0830073963906
 30
0.0
 40
0.3
 50
0.0
 51
90.0
  0
ARC
  5
1E8A9
  8
KI2
 10
219.19706926110419
 20
117.0830073963906
 30
0.0
 40
0.3
 50
90.0
 51
180.0
  0
LINE
  5
1E8AA
  8
KI2
 10
217.0970692611042
 20
124.6844656521782
 30
0.0
 11
217.0970692611042
 21
123.0830073963906
 31
0.0
  0
LINE
  5
1E8AB
  8
KI2
 10
219.49706926110409
 20
117.0830073963906
 30
0.0
 11
219.94706926110419
 21
117.0830073963906
 31
0.0
  0
LINE
  5
1E8AC
  8
KI2
 10
220.84863482484161
 20
120.7830073963906
 30
0.0
 11
219.49706926110409
 21
120.7830073963906
 31
0.0
  0
LINE
  5
1E8AD
  8
KI1
 10
189.74706926110269
 20
126.88300739639089
 30
0.0
 11
212.64706926110381
 21
126.88300739639089
 31
0.0
  0
LINE
  5
1E8AE
  8
KI1
 10
190.94706926110251
 20
125.5830073963907
 30
0.0
 11
211.44706926110391
 21
125.5830073963907
 31
0.0
  0
LINE
  5
1E8AF
  8
KI1
 10
165.19706926110351
 20
125.18300739639059
 30
0.0
 11
169.19706926110391
 21
126.88300739639089
 31
0.0
  0
LINE
  5
1E8B0
  8
KI1
 10
169.46185843236569
 20
125.5830073963907
 30
0.0
 11
166.4030349029558
 21
124.2830073963905
 31
0.0
  0
LINE
  5
1E8B1
  8
KI1
 10
165.19706926110351
 20
124.2830073963905
 30
0.0
 11
165.19706926110351
 21
125.18300739639059
 31
0.0
  0
LINE
  5
1E8B3
  8
KI1
 10
172.69706926110479
 20
125.5830073963907
 30
0.0
 11
175.44706926110391
 21
125.5830073963907
 31
0.0
  0
ARC
  5
1E8B4
  8
KI1
 10
172.19706926110479
 20
124.5830073963907
 30
0.0
 40
0.5000000000000142
 50
180.0
 51
0.0
  0
LINE
  5
1E8B5
  8
KI1
 10
171.69706926110479
 20
124.5830073963907
 30
0.0
 11
171.69706926110391
 21
125.5830073963907
 31
0.0
  0
LINE
  5
1E8B6
  8
KI1
 10
172.69706926110479
 20
125.5830073963907
 30
0.0
 11
172.69706926110479
 21
124.5830073963907
 31
0.0
  0
ARC
  5
1E8B7
  8
KI1
 10
177.69706926110391
 20
125.5830073963907
 30
0.0
 40
0.5000000000000142
 50
0.0
 51
90.0
  0
ARC
  5
1E8B8
  8
KI1
 10
175.94706926110391
 20
125.38300739639089
 30
0.0
 40
0.5000000000000142
 50
180.0
 51
270.0
  0
LINE
  5
1E8B9
  8
KI1
 10
175.44706926110391
 20
125.5830073963907
 30
0.0
 11
175.44706926110391
 21
125.38300739639089
 31
0.0
  0
LINE
  5
1E8BA
  8
KI1
 10
175.94706926110391
 20
124.8830073963904
 30
0.0
 11
176.9970692611036
 21
124.8830073963904
 31
0.0
  0
LINE
  5
1E8BB
  8
KI1
 10
176.6470692611037
 20
126.0830073963907
 30
0.0
 11
176.6470692611037
 21
126.88300739639089
 31
0.0
  0
LINE
  5
1E8BC
  8
KI1
 10
177.69706926110391
 20
126.0830073963907
 30
0.0
 11
176.6470692611037
 21
126.0830073963907
 31
0.0
  0
LINE
  5
1E8BD
  8
KI1
 10
169.19706926110391
 20
126.88300739639089
 30
0.0
 11
176.6470692611037
 21
126.88300739639089
 31
0.0
  0
LINE
  5
1E8BE
  8
KI1
 10
169.46185843236569
 20
125.5830073963907
 30
0.0
 11
171.69706926110391
 21
125.5830073963907
 31
0.0
  0
ARC
  5
1E8BF
  8
KI1
 10
188.69706926110391
 20
125.5830073963907
 30
0.0
 40
0.5000000000000993
 50
90.0
 51
180.0
  0
ARC
  5
1E8C0
  8
KI1
 10
190.447069261103
 20
125.38300739639089
 30
0.0
 40
0.5000000000000993
 50
270.0
 51
0.0
  0
LINE
  5
1E8C1
  8
KI1
 10
189.3970692611037
 20
124.8830073963904
 30
0.0
 11
190.447069261103
 21
124.8830073963904
 31
0.0
  0
LINE
  5
1E8C2
  8
KI1
 10
190.94706926110251
 20
125.38300739639089
 30
0.0
 11
190.94706926110251
 21
125.5830073963907
 31
0.0
  0
LINE
  5
1E8C3
  8
KI1
 10
189.74706926110269
 20
126.88300739639089
 30
0.0
 11
189.74706926110269
 21
126.0830073963907
 31
0.0
  0
LINE
  5
1E8C4
  8
KI1
 10
189.74706926110269
 20
126.0830073963907
 30
0.0
 11
188.69706926110391
 21
126.0830073963907
 31
0.0
  0
LINE
  5
1E8C5
  8
KI1
 10
232.93228008984079
 20
125.5830073963907
 30
0.0
 11
235.99110361925301
 21
124.2830073963905
 31
0.0
  0
ARC
  5
1E8C6
  8
KI1
 10
213.69706926110391
 20
125.5830073963907
 30
0.0
 40
0.5000000000000142
 50
0.0
 51
90.0
  0
ARC
  5
1E8C7
  8
KI1
 10
211.94706926110391
 20
125.38300739639089
 30
0.0
 40
0.5000000000000142
 50
180.0
 51
270.0
  0
LINE
  5
1E8C8
  8
KI1
 10
211.44706926110391
 20
125.5830073963907
 30
0.0
 11
211.44706926110391
 21
125.38300739639089
 31
0.0
  0
LINE
  5
1E8C9
  8
KI1
 10
211.94706926110391
 20
124.8830073963904
 30
0.0
 11
212.99706926110369
 21
124.8830073963904
 31
0.0
  0
LINE
  5
1E8CA
  8
KI1
 10
212.64706926110381
 20
126.0830073963907
 30
0.0
 11
212.64706926110381
 21
126.88300739639089
 31
0.0
  0
LINE
  5
1E8CB
  8
KI1
 10
213.69706926110391
 20
126.0830073963907
 30
0.0
 11
212.64706926110381
 21
126.0830073963907
 31
0.0
  0
LINE
  5
1E8CC
  8
KI1
 10
230.69706926110391
 20
125.5830073963907
 30
0.0
 11
232.93228008984079
 21
125.5830073963907
 31
0.0
  0
LINE
  5
1E8CD
  8
KI1
 10
230.69706926110391
 20
124.5830073963907
 30
0.0
 11
230.69706926110391
 21
125.5830073963907
 31
0.0
  0
LINE
  5
1E8CE
  8
KI1
 10
229.69706926110351
 20
125.5830073963907
 30
0.0
 11
229.69706926110351
 21
124.5830073963907
 31
0.0
  0
ARC
  5
1E8CF
  8
KI1
 10
230.19706926110391
 20
124.5830073963907
 30
0.0
 40
0.4999999999999716
 50
180.0
 51
0.0
  0
ARC
  5
1E8D1
  8
KI1
 10
224.69706926110391
 20
125.5830073963907
 30
0.0
 40
0.5000000000000993
 50
90.0
 51
180.0
  0
LINE
  5
1E8D2
  8
KI1
 10
225.39706926110381
 20
124.8830073963904
 30
0.0
 11
226.447069261103
 21
124.8830073963904
 31
0.0
  0
ARC
  5
1E8D3
  8
KI1
 10
226.447069261103
 20
125.38300739639089
 30
0.0
 40
0.5000000000000993
 50
270.0
 51
0.0
  0
LINE
  5
1E8D4
  8
KI1
 10
226.9470692611026
 20
125.38300739639089
 30
0.0
 11
226.9470692611026
 21
125.5830073963907
 31
0.0
  0
LINE
  5
1E8D5
  8
KI1
 10
225.74706926110281
 20
126.88300739639089
 30
0.0
 11
225.74706926110281
 21
126.0830073963907
 31
0.0
  0
LINE
  5
1E8D6
  8
KI1
 10
225.74706926110281
 20
126.0830073963907
 30
0.0
 11
224.69706926110391
 21
126.0830073963907
 31
0.0
  0
LINE
  5
1E8D7
  8
KI1
 10
225.74706926110281
 20
126.88300739639089
 30
0.0
 11
233.19706926110391
 21
126.88300739639089
 31
0.0
  0
LINE
  5
1E8D8
  8
KI1
 10
226.9470692611026
 20
125.5830073963907
 30
0.0
 11
229.69706926110351
 21
125.5830073963907
 31
0.0
  0
LINE
  5
1E8D9
  8
KI1
 10
224.19706926110391
 20
114.18300739639059
 30
0.0
 11
224.19706926110391
 21
119.98321446736141
 31
0.0
  0
LINE
  5
1E8DA
  8
KI1
 10
214.19706926110391
 20
114.18300739639059
 30
0.0
 11
214.19706926110391
 21
119.98321446736141
 31
0.0
  0
LINE
  5
1E8DB
  8
KI1
 10
212.99706926110369
 20
112.98300739639031
 30
0.0
 11
212.99706926110369
 21
124.8830073963904
 31
0.0
  0
LINE
  5
1E8DD
  8
KI1
 10
225.39706926110381
 20
112.98300739639031
 30
0.0
 11
225.39706926110381
 21
124.8830073963904
 31
0.0
  0
LINE
  5
1E8DE
  8
KI1
 10
219.65532683059971
 20
114.18300739639059
 30
0.0
 11
224.19706926110391
 21
114.18300739639059
 31
0.0
  0
LINE
  5
1E8DF
  8
KI1
 10
213.7970692611043
 20
112.98300739639031
 30
0.0
 11
224.59706926110491
 21
112.98300739639031
 31
0.0
  0
ARC
  5
1E8E0
  8
KI1
 10
219.19706926110351
 20
114.3830073963904
 30
0.0
 40
0.4999999999992742
 50
203.57817847820709
 51
336.42182152183892
  0
ARC
  5
1E8E1
  8
KI1
 10
213.39706926110381
 20
112.98300739639031
 30
0.0
 40
0.3999999999998492
 50
180.0
 51
0.0
  0
LINE
  5
1E8E2
  8
KI1
 10
214.19706926110391
 20
114.18300739639059
 30
0.0
 11
218.73881169160859
 21
114.18300739639059
 31
0.0
  0
ARC
  5
1E8E3
  8
KI1
 10
224.99706926110369
 20
112.98300739639031
 30
0.0
 40
0.39999999999921
 50
180.0
 51
0.0
  0
ARC
  5
1E8E4
  8
KI1
 10
214.09706926905579
 20
120.4731124175419
 30
0.0
 40
0.5000000000002347
 50
281.53695810277611
 51
0.0102186204097569
  0
LINE
  5
1E8E5
  8
KI1
 10
214.19706926110391
 20
121.1730073963908
 30
0.0
 11
214.5970692611036
 21
120.47320159182659
 31
0.0
  0
LINE
  5
1E8E6
  8
KI1
 10
214.19706926110391
 20
121.1730073963908
 30
0.0
 11
214.19706926110391
 21
125.5830073963907
 31
0.0
  0
ARC
  5
1E8E7
  8
KI1
 10
224.2970692531508
 20
120.4731124175419
 30
0.0
 40
0.5000000000001135
 50
179.9897813795902
 51
258.46304189731683
  0
LINE
  5
1E8E8
  8
KI1
 10
223.79706926110291
 20
120.47320159182659
 30
0.0
 11
224.19706926110391
 21
121.1730073963908
 31
0.0
  0
LINE
  5
1E8E9
  8
KI1
 10
224.19706926110391
 20
121.1730073963908
 30
0.0
 11
224.19706926110391
 21
125.5830073963907
 31
0.0
  0
LINE
  5
1E8EA
  8
KI1
 10
177.79706926110379
 20
112.98300739639031
 30
0.0
 11
188.59706926110491
 21
112.98300739639031
 31
0.0
  0
LINE
  5
1E8EB
  8
KI1
 10
178.19706926110391
 20
114.18300739639059
 30
0.0
 11
182.73881169160859
 21
114.18300739639059
 31
0.0
  0
LINE
  5
1E8EC
  8
KI1
 10
178.19706926110391
 20
114.18300739639059
 30
0.0
 11
178.19706926110251
 21
119.98321446736141
 31
0.0
  0
LINE
  5
1E8EE
  8
KI1
 10
176.9970692611036
 20
112.98300739639031
 30
0.0
 11
176.9970692611036
 21
124.8830073963904
 31
0.0
  0
ARC
  5
1E8EF
  8
KI1
 10
177.3970692611037
 20
112.98300739639031
 30
0.0
 40
0.3999999999998492
 50
180.0
 51
0.0
  0
ARC
  5
1E8F0
  8
KI1
 10
178.09706926905571
 20
120.4731124175419
 30
0.0
 40
0.500000000000056
 50
281.53695810268317
 51
0.0102186204097569
  0
LINE
  5
1E8F1
  8
KI1
 10
178.19706926110251
 20
121.1730073963908
 30
0.0
 11
178.59706926110351
 21
120.47320159182659
 31
0.0
  0
LINE
  5
1E8F2
  8
KI1
 10
178.19706926110251
 20
121.1730073963908
 30
0.0
 11
178.19706926110391
 21
125.5830073963907
 31
0.0
  0
LINE
  5
1E8F3
  8
KI1
 10
188.19706926110391
 20
114.18300739639059
 30
0.0
 11
188.19706926110391
 21
119.98321446736141
 31
0.0
  0
LINE
  5
1E8F4
  8
KI1
 10
189.3970692611037
 20
112.98300739639031
 30
0.0
 11
189.3970692611037
 21
124.8830073963904
 31
0.0
  0
LINE
  5
1E8F5
  8
KI1
 10
183.65532683059971
 20
114.18300739639059
 30
0.0
 11
188.19706926110391
 21
114.18300739639059
 31
0.0
  0
ARC
  5
1E8F6
  8
KI1
 10
183.19706926110351
 20
114.3830073963904
 30
0.0
 40
0.4999999999992742
 50
203.57817847820709
 51
336.42182152183892
  0
ARC
  5
1E8F7
  8
KI1
 10
188.9970692611036
 20
112.98300739639031
 30
0.0
 40
0.39999999999921
 50
180.0
 51
0.0
  0
ARC
  5
1E8F8
  8
KI1
 10
188.29706925315071
 20
120.4731124175419
 30
0.0
 40
0.5000000000001135
 50
179.9897813795902
 51
258.46304189731683
  0
LINE
  5
1E8F9
  8
KI1
 10
187.79706926110291
 20
120.47320159182659
 30
0.0
 11
188.19706926110391
 21
121.1730073963908
 31
0.0
  0
LINE
  5
1E8FA
  8
KI1
 10
188.19706926110391
 20
121.1730073963908
 30
0.0
 11
188.19706926110391
 21
125.5830073963907
 31
0.0
  0
LINE
  5
1E8FC
  8
KI1
 10
235.99110361925301
 20
124.2830073963905
 30
0.0
 11
237.19706926110351
 21
124.2830073963905
 31
0.0
  0
LINE
  5
1E8FD
  8
KI1
 10
233.19706926110391
 20
126.88300739639089
 30
0.0
 11
237.19706926110351
 21
125.18300739639059
 31
0.0
  0
LINE
  5
1E8FF
  8
KI1
 10
307.94704926117811
 20
131.28300748772079
 30
0.0
 11
274.94704926124717
 21
131.28300748772079
 31
0.0
  0
LINE
  5
1E901
  8
KI1
 10
309.19700926124739
 20
124.2830310987439
 30
0.0
 11
309.19700926124739
 21
125.183031098744
 31
0.0
  0
LINE
  5
1E902
  8
KI2
 10
258.69704926117902
 20
126.0711938844105
 30
0.0
 11
256.19704926117902
 21
124.5711938844105
 31
0.0
  0
LINE
  5
1E903
  8
KI2
 10
258.69704926117902
 20
129.78300748772091
 30
0.0
 11
258.69704926117902
 21
126.0711938844105
 31
0.0
  0
LINE
  5
1E904
  8
KI2
 10
254.19704926117899
 20
123.0711938844105
 30
0.0
 11
255.19704926117899
 21
123.0711938844105
 31
0.0
  0
LINE
  5
1E905
  8
KI2
 10
256.19704926117902
 20
123.0711938844105
 30
0.0
 11
255.19704926117899
 21
123.0711938844105
 31
0.0
  0
LINE
  5
1E906
  8
KI2
 10
251.69704926117899
 20
126.0711938844105
 30
0.0
 11
254.19704926117899
 21
124.5711938844105
 31
0.0
  0
LINE
  5
1E907
  8
KI2
 10
251.69704926117899
 20
129.78300748772091
 30
0.0
 11
251.69704926117899
 21
126.0711938844105
 31
0.0
  0
LINE
  5
1E908
  8
KI2
 10
254.19704926117899
 20
129.78300748772091
 30
0.0
 11
254.19704926117899
 21
123.0711938844105
 31
0.0
  0
LINE
  5
1E909
  8
KI2
 10
256.19704926117902
 20
129.78300748772091
 30
0.0
 11
256.19704926117902
 21
123.0711938844105
 31
0.0
  0
LINE
  5
1E90A
  8
KI2
 10
270.44704926117811
 20
129.78300748772079
 30
0.0
 11
240.44704926117811
 21
129.78300748772091
 31
0.0
  0
LINE
  5
1E90B
  8
KI1
 10
271.94704926117811
 20
131.28300748772079
 30
0.0
 11
238.94704926124751
 21
131.28300748772079
 31
0.0
  0
ARC
  5
1E90C
  8
KI2
 10
270.44704926117811
 20
131.28300748772079
 30
0.0
 40
1.5
 50
270.0
 51
0.0
  0
ARC
  5
1E90D
  8
KI2
 10
240.44704926117811
 20
131.28300748772079
 30
0.0
 40
1.5
 50
180.0
 51
270.0
  0
LINE
  5
1E90E
  8
KI2
 10
294.69704926117902
 20
126.0711938844105
 30
0.0
 11
292.19704926117902
 21
124.5711938844105
 31
0.0
  0
LINE
  5
1E90F
  8
KI2
 10
294.69704926117902
 20
129.78300748772091
 30
0.0
 11
294.69704926117902
 21
126.0711938844105
 31
0.0
  0
LINE
  5
1E910
  8
KI2
 10
290.19704926117902
 20
123.0711938844105
 30
0.0
 11
291.19704926117902
 21
123.0711938844105
 31
0.0
  0
LINE
  5
1E911
  8
KI2
 10
292.19704926117902
 20
123.0711938844105
 30
0.0
 11
291.19704926117902
 21
123.0711938844105
 31
0.0
  0
LINE
  5
1E912
  8
KI2
 10
287.69704926117902
 20
126.0711938844105
 30
0.0
 11
290.19704926117902
 21
124.5711938844105
 31
0.0
  0
LINE
  5
1E913
  8
KI2
 10
287.69704926117902
 20
129.78300748772091
 30
0.0
 11
287.69704926117902
 21
126.0711938844105
 31
0.0
  0
LINE
  5
1E914
  8
KI2
 10
290.19704926117902
 20
129.78300748772091
 30
0.0
 11
290.19704926117902
 21
123.0711938844105
 31
0.0
  0
LINE
  5
1E915
  8
KI2
 10
292.19704926117902
 20
129.78300748772091
 30
0.0
 11
292.19704926117902
 21
123.0711938844105
 31
0.0
  0
LINE
  5
1E916
  8
KI2
 10
306.44704926117811
 20
129.78300748772079
 30
0.0
 11
276.44704926117811
 21
129.78300748772091
 31
0.0
  0
ARC
  5
1E918
  8
KI2
 10
306.44704926117811
 20
131.28300748772079
 30
0.0
 40
1.5
 50
270.0
 51
0.0
  0
ARC
  5
1E919
  8
KI2
 10
276.44704926117811
 20
131.28300748772079
 30
0.0
 40
1.5
 50
180.0
 51
270.0
  0
LINE
  5
1E91A
  8
KI2
 10
295.79702926124878
 20
126.0830073963906
 30
0.0
 11
294.79702926124878
 21
126.0830073963906
 31
0.0
  0
LINE
  5
1E91B
  8
KI2
 10
294.69702926124887
 20
118.9830073963906
 30
0.0
 11
295.79702926124878
 21
122.0230073963906
 31
0.0
  0
LINE
  5
1E91C
  8
KI2
 10
295.39702926124892
 20
116.0830073963906
 30
0.0
 11
294.69702926124887
 21
116.0830073963906
 31
0.0
  0
LINE
  5
1E91D
  8
KI2
 10
294.69702926124887
 20
117.5830073963906
 30
0.0
 11
295.29702926124878
 21
116.8830073963906
 31
0.0
  0
ARC
  5
1E91E
  8
KI2
 10
295.79702926124878
 20
125.7830073963906
 30
0.0
 40
0.3
 50
0.0
 51
90.0
  0
LINE
  5
1E91F
  8
KI2
 10
296.09702926124868
 20
122.3830073963906
 30
0.0
 11
295.79702926124878
 21
122.0230073963906
 31
0.0
  0
LINE
  5
1E920
  8
KI2
 10
295.89702926124892
 20
116.8830073963906
 30
0.0
 11
295.89702926124892
 21
116.5830073963906
 31
0.0
  0
ARC
  5
1E921
  8
KI2
 10
295.39702926124892
 20
116.5830073963906
 30
0.0
 40
0.5
 50
270.0
 51
0.0
  0
LINE
  5
1E922
  8
KI2
 10
295.89702926124892
 20
116.8830073963906
 30
0.0
 11
295.29702926124878
 21
116.8830073963906
 31
0.0
  0
LINE
  5
1E923
  8
KI2
 10
296.09702926124868
 20
125.7830073963906
 30
0.0
 11
296.09702926124868
 21
122.3830073963906
 31
0.0
  0
ARC
  5
1E924
  8
KI2
 10
286.59702926124868
 20
125.7830073963906
 30
0.0
 40
0.3
 50
90.0
 51
180.0
  0
ARC
  5
1E925
  8
KI2
 10
288.79702926124878
 20
124.6844656521782
 30
0.0
 40
0.3
 50
0.0
 51
49.999999999996362
  0
LINE
  5
1E926
  8
KI2
 10
288.98986554415478
 20
124.9142789851138
 30
0.0
 11
287.59702926124868
 21
126.0830073963906
 31
0.0
  0
LINE
  5
1E927
  8
KI2
 10
286.59702926124868
 20
126.0830073963906
 30
0.0
 11
287.59702926124868
 21
126.0830073963906
 31
0.0
  0
LINE
  5
1E928
  8
KI2
 10
286.29702926124878
 20
122.3830073963906
 30
0.0
 11
286.59702926124868
 21
122.0230073963906
 31
0.0
  0
ARC
  5
1E929
  8
KI2
 10
288.99702926124883
 20
122.3330073963906
 30
0.0
 40
0.75
 50
90.0
 51
270.0
  0
LINE
  5
1E92A
  8
KI2
 10
289.04546369751142
 20
121.2830073963906
 30
0.0
 11
289.04546369751142
 21
121.5830073963906
 31
0.0
  0
LINE
  5
1E92B
  8
KI2
 10
289.04546369751142
 20
121.5830073963906
 30
0.0
 11
288.99702926124883
 21
121.5830073963906
 31
0.0
  0
LINE
  5
1E92C
  8
KI2
 10
288.99702926124883
 20
123.0830073963906
 30
0.0
 11
289.09702926124868
 21
123.0830073963906
 31
0.0
  0
LINE
  5
1E92D
  8
KI2
 10
287.69702926124887
 20
118.9830073963906
 30
0.0
 11
287.69702926124887
 21
117.5830073963906
 31
0.0
  0
POINT
  5
1E92E
  8
KI2
 10
287.69702926124887
 20
118.46891912357501
 30
0.0
 50
180.0
  0
LINE
  5
1E92F
  8
KI2
 10
287.69702926124887
 20
118.9830073963906
 30
0.0
 11
286.59702926124868
 21
122.0230073963906
 31
0.0
  0
ARC
  5
1E930
  8
KI2
 10
289.54546369751142
 20
121.2830073963906
 30
0.0
 40
0.5
 50
180.0
 51
270.0
  0
LINE
  5
1E931
  8
KI2
 10
286.49702926124883
 20
116.8830073963906
 30
0.0
 11
286.49702926124883
 21
116.5830073963906
 31
0.0
  0
LINE
  5
1E932
  8
KI2
 10
286.99702926124883
 20
116.0830073963906
 30
0.0
 11
287.69702926124887
 21
116.0830073963906
 31
0.0
  0
LINE
  5
1E933
  8
KI2
 10
287.99702926124883
 20
116.3830073963906
 30
0.0
 11
287.69702926124887
 21
116.0830073963906
 31
0.0
  0
LINE
  5
1E934
  8
KI2
 10
290.44702926124887
 20
117.0830073963906
 30
0.0
 11
289.94702926124887
 21
116.3830073963906
 31
0.0
  0
LINE
  5
1E935
  8
KI2
 10
287.99702926124883
 20
116.3830073963906
 30
0.0
 11
289.94702926124887
 21
116.3830073963906
 31
0.0
  0
ARC
  5
1E936
  8
KI2
 10
286.99702926124883
 20
116.5830073963906
 30
0.0
 40
0.5
 50
180.0
 51
270.0
  0
LINE
  5
1E937
  8
KI2
 10
286.49702926124883
 20
116.8830073963906
 30
0.0
 11
287.09702926124868
 21
116.8830073963906
 31
0.0
  0
LINE
  5
1E938
  8
KI2
 10
287.69702926124887
 20
117.5830073963906
 30
0.0
 11
287.09702926124868
 21
116.8830073963906
 31
0.0
  0
LINE
  5
1E939
  8
KI2
 10
286.29702926124878
 20
125.7830073963906
 30
0.0
 11
286.29702926124878
 21
122.3830073963906
 31
0.0
  0
LINE
  5
1E93A
  8
KI2
 10
289.09702926124868
 20
124.6844656521782
 30
0.0
 11
289.09702926124868
 21
123.0830073963906
 31
0.0
  0
ARC
  5
1E93B
  8
KI2
 10
293.59702926124868
 20
124.6844656521782
 30
0.0
 40
0.3
 50
130.00000000000361
 51
180.0
  0
LINE
  5
1E93C
  8
KI2
 10
293.40419297834291
 20
124.9142789851138
 30
0.0
 11
294.79702926124901
 21
126.0830073963906
 31
0.0
  0
ARC
  5
1E93D
  8
KI2
 10
293.39702926124892
 20
122.3330073963906
 30
0.0
 40
0.75
 50
270.0
 51
90.0
  0
LINE
  5
1E93E
  8
KI2
 10
293.34859482498609
 20
121.2830073963906
 30
0.0
 11
293.34859482498609
 21
121.5830073963906
 31
0.0
  0
LINE
  5
1E93F
  8
KI2
 10
293.34859482498609
 20
121.5830073963906
 30
0.0
 11
293.39702926124892
 21
121.5830073963906
 31
0.0
  0
LINE
  5
1E940
  8
KI2
 10
293.39702926124892
 20
123.0830073963906
 30
0.0
 11
293.29702926124878
 21
123.0830073963906
 31
0.0
  0
ARC
  5
1E941
  8
KI2
 10
291.19702926124887
 20
120.7830073963906
 30
0.0
 40
0.3
 50
180.0
 51
270.0
  0
LINE
  5
1E942
  8
KI2
 10
294.69702926124887
 20
118.9830073963906
 30
0.0
 11
294.69702926124887
 21
117.5830073963906
 31
0.0
  0
LINE
  5
1E943
  8
KI2
 10
292.84859482498609
 20
120.7830073963906
 30
0.0
 11
291.49702926124883
 21
120.7830073963906
 31
0.0
  0
POINT
  5
1E944
  8
KI2
 10
294.69702926124887
 20
118.46891912357501
 30
0.0
 50
180.0
  0
ARC
  5
1E945
  8
KI2
 10
291.19702926124887
 20
120.7830073963906
 30
0.0
 40
0.3
 50
270.0
 51
0.0
  0
ARC
  5
1E946
  8
KI2
 10
292.84859482498609
 20
121.2830073963906
 30
0.0
 40
0.5
 50
270.0
 51
0.0
  0
LINE
  5
1E947
  8
KI2
 10
294.39702926124892
 20
116.3830073963906
 30
0.0
 11
292.44702926124887
 21
116.3830073963906
 31
0.0
  0
LINE
  5
1E948
  8
KI2
 10
294.39702926124892
 20
116.3830073963906
 30
0.0
 11
294.69702926124887
 21
116.0830073963906
 31
0.0
  0
LINE
  5
1E949
  8
KI2
 10
291.94702926124887
 20
117.0830073963906
 30
0.0
 11
292.44702926124887
 21
116.3830073963906
 31
0.0
  0
LINE
  5
1E94A
  8
KI2
 10
291.49702926124883
 20
117.0830073963906
 30
0.0
 11
291.94702926124887
 21
117.0830073963906
 31
0.0
  0
ARC
  5
1E94B
  8
KI2
 10
291.19702926124887
 20
117.0830073963906
 30
0.0
 40
0.3
 50
90.0
 51
180.0
  0
ARC
  5
1E94C
  8
KI2
 10
291.19702926124887
 20
117.0830073963906
 30
0.0
 40
0.3
 50
0.0
 51
90.0
  0
LINE
  5
1E94D
  8
KI2
 10
293.29702926124878
 20
124.6844656521782
 30
0.0
 11
293.29702926124878
 21
123.0830073963906
 31
0.0
  0
LINE
  5
1E94E
  8
KI2
 10
290.89702926124892
 20
117.0830073963906
 30
0.0
 11
290.44702926124887
 21
117.0830073963906
 31
0.0
  0
LINE
  5
1E94F
  8
KI2
 10
289.54546369751142
 20
120.7830073963906
 30
0.0
 11
290.89702926124892
 21
120.7830073963906
 31
0.0
  0
LINE
  5
1E950
  8
KI2
 10
259.79702926124878
 20
126.0830073963906
 30
0.0
 11
258.79702926124878
 21
126.0830073963906
 31
0.0
  0
LINE
  5
1E951
  8
KI2
 10
258.69702926124887
 20
118.9830073963906
 30
0.0
 11
259.79702926124878
 21
122.0230073963906
 31
0.0
  0
LINE
  5
1E952
  8
KI2
 10
259.39702926124892
 20
116.0830073963906
 30
0.0
 11
258.69702926124887
 21
116.0830073963906
 31
0.0
  0
LINE
  5
1E953
  8
KI2
 10
258.69702926124887
 20
117.5830073963906
 30
0.0
 11
259.29702926124878
 21
116.8830073963906
 31
0.0
  0
ARC
  5
1E954
  8
KI2
 10
259.79702926124878
 20
125.7830073963906
 30
0.0
 40
0.3
 50
0.0
 51
90.0
  0
LINE
  5
1E955
  8
KI2
 10
260.09702926124868
 20
122.3830073963906
 30
0.0
 11
259.79702926124878
 21
122.0230073963906
 31
0.0
  0
LINE
  5
1E956
  8
KI2
 10
259.89702926124892
 20
116.8830073963906
 30
0.0
 11
259.89702926124892
 21
116.5830073963906
 31
0.0
  0
ARC
  5
1E957
  8
KI2
 10
259.39702926124892
 20
116.5830073963906
 30
0.0
 40
0.5
 50
270.0
 51
0.0
  0
LINE
  5
1E958
  8
KI2
 10
259.89702926124892
 20
116.8830073963906
 30
0.0
 11
259.29702926124878
 21
116.8830073963906
 31
0.0
  0
LINE
  5
1E959
  8
KI2
 10
260.09702926124868
 20
125.7830073963906
 30
0.0
 11
260.09702926124868
 21
122.3830073963906
 31
0.0
  0
ARC
  5
1E95A
  8
KI2
 10
250.59702926124879
 20
125.7830073963906
 30
0.0
 40
0.3
 50
90.0
 51
180.0
  0
ARC
  5
1E95B
  8
KI2
 10
252.79702926124881
 20
124.6844656521782
 30
0.0
 40
0.3
 50
0.0
 51
49.999999999996362
  0
LINE
  5
1E95C
  8
KI2
 10
252.98986554415481
 20
124.9142789851138
 30
0.0
 11
251.59702926124871
 21
126.0830073963906
 31
0.0
  0
LINE
  5
1E95D
  8
KI2
 10
250.59702926124879
 20
126.0830073963906
 30
0.0
 11
251.59702926124871
 21
126.0830073963906
 31
0.0
  0
LINE
  5
1E95E
  8
KI2
 10
250.29702926124881
 20
122.3830073963906
 30
0.0
 11
250.59702926124879
 21
122.0230073963906
 31
0.0
  0
ARC
  5
1E95F
  8
KI2
 10
252.9970292612488
 20
122.3330073963906
 30
0.0
 40
0.75
 50
90.0
 51
270.0
  0
LINE
  5
1E960
  8
KI2
 10
253.04546369751139
 20
121.2830073963906
 30
0.0
 11
253.04546369751139
 21
121.5830073963906
 31
0.0
  0
LINE
  5
1E961
  8
KI2
 10
253.04546369751139
 20
121.5830073963906
 30
0.0
 11
252.9970292612488
 21
121.5830073963906
 31
0.0
  0
LINE
  5
1E962
  8
KI2
 10
252.9970292612488
 20
123.0830073963906
 30
0.0
 11
253.09702926124871
 21
123.0830073963906
 31
0.0
  0
LINE
  5
1E963
  8
KI2
 10
251.6970292612489
 20
118.9830073963906
 30
0.0
 11
251.6970292612489
 21
117.5830073963906
 31
0.0
  0
POINT
  5
1E964
  8
KI2
 10
251.6970292612489
 20
118.46891912357501
 30
0.0
 50
180.0
  0
LINE
  5
1E965
  8
KI2
 10
251.6970292612489
 20
118.9830073963906
 30
0.0
 11
250.59702926124879
 21
122.0230073963906
 31
0.0
  0
ARC
  5
1E966
  8
KI2
 10
253.54546369751139
 20
121.2830073963906
 30
0.0
 40
0.5
 50
180.0
 51
270.0
  0
LINE
  5
1E967
  8
KI2
 10
250.4970292612488
 20
116.8830073963906
 30
0.0
 11
250.4970292612488
 21
116.5830073963906
 31
0.0
  0
LINE
  5
1E968
  8
KI2
 10
250.9970292612488
 20
116.0830073963906
 30
0.0
 11
251.6970292612489
 21
116.0830073963906
 31
0.0
  0
LINE
  5
1E969
  8
KI2
 10
251.9970292612488
 20
116.3830073963906
 30
0.0
 11
251.6970292612489
 21
116.0830073963906
 31
0.0
  0
LINE
  5
1E96A
  8
KI2
 10
254.4470292612489
 20
117.0830073963906
 30
0.0
 11
253.9470292612489
 21
116.3830073963906
 31
0.0
  0
LINE
  5
1E96B
  8
KI2
 10
251.9970292612488
 20
116.3830073963906
 30
0.0
 11
253.9470292612489
 21
116.3830073963906
 31
0.0
  0
ARC
  5
1E96C
  8
KI2
 10
250.9970292612488
 20
116.5830073963906
 30
0.0
 40
0.5
 50
180.0
 51
270.0
  0
LINE
  5
1E96D
  8
KI2
 10
250.4970292612488
 20
116.8830073963906
 30
0.0
 11
251.09702926124871
 21
116.8830073963906
 31
0.0
  0
LINE
  5
1E96E
  8
KI2
 10
251.6970292612489
 20
117.5830073963906
 30
0.0
 11
251.09702926124871
 21
116.8830073963906
 31
0.0
  0
LINE
  5
1E96F
  8
KI2
 10
250.29702926124881
 20
125.7830073963906
 30
0.0
 11
250.29702926124881
 21
122.3830073963906
 31
0.0
  0
LINE
  5
1E970
  8
KI2
 10
253.09702926124871
 20
124.6844656521782
 30
0.0
 11
253.09702926124871
 21
123.0830073963906
 31
0.0
  0
ARC
  5
1E971
  8
KI2
 10
257.59702926124868
 20
124.6844656521782
 30
0.0
 40
0.3
 50
130.00000000000361
 51
180.0
  0
LINE
  5
1E972
  8
KI2
 10
257.40419297834302
 20
124.9142789851138
 30
0.0
 11
258.79702926124901
 21
126.0830073963906
 31
0.0
  0
ARC
  5
1E973
  8
KI2
 10
257.39702926124892
 20
122.3330073963906
 30
0.0
 40
0.75
 50
270.0
 51
90.0
  0
LINE
  5
1E974
  8
KI2
 10
257.34859482498609
 20
121.2830073963906
 30
0.0
 11
257.34859482498609
 21
121.5830073963906
 31
0.0
  0
LINE
  5
1E975
  8
KI2
 10
257.34859482498609
 20
121.5830073963906
 30
0.0
 11
257.39702926124892
 21
121.5830073963906
 31
0.0
  0
LINE
  5
1E976
  8
KI2
 10
257.39702926124892
 20
123.0830073963906
 30
0.0
 11
257.29702926124878
 21
123.0830073963906
 31
0.0
  0
ARC
  5
1E977
  8
KI2
 10
255.1970292612489
 20
120.7830073963906
 30
0.0
 40
0.3
 50
180.0
 51
270.0
  0
LINE
  5
1E978
  8
KI2
 10
258.69702926124887
 20
118.9830073963906
 30
0.0
 11
258.69702926124887
 21
117.5830073963906
 31
0.0
  0
LINE
  5
1E979
  8
KI2
 10
256.84859482498609
 20
120.7830073963906
 30
0.0
 11
255.4970292612488
 21
120.7830073963906
 31
0.0
  0
POINT
  5
1E97A
  8
KI2
 10
258.69702926124887
 20
118.46891912357501
 30
0.0
 50
180.0
  0
ARC
  5
1E97B
  8
KI2
 10
255.1970292612489
 20
120.7830073963906
 30
0.0
 40
0.3
 50
270.0
 51
0.0
  0
ARC
  5
1E97C
  8
KI2
 10
256.84859482498609
 20
121.2830073963906
 30
0.0
 40
0.5
 50
270.0
 51
0.0
  0
LINE
  5
1E97D
  8
KI2
 10
258.39702926124892
 20
116.3830073963906
 30
0.0
 11
256.44702926124887
 21
116.3830073963906
 31
0.0
  0
LINE
  5
1E97E
  8
KI2
 10
258.39702926124892
 20
116.3830073963906
 30
0.0
 11
258.69702926124887
 21
116.0830073963906
 31
0.0
  0
LINE
  5
1E97F
  8
KI2
 10
255.9470292612489
 20
117.0830073963906
 30
0.0
 11
256.44702926124887
 21
116.3830073963906
 31
0.0
  0
LINE
  5
1E980
  8
KI2
 10
255.4970292612488
 20
117.0830073963906
 30
0.0
 11
255.9470292612489
 21
117.0830073963906
 31
0.0
  0
ARC
  5
1E981
  8
KI2
 10
255.1970292612489
 20
117.0830073963906
 30
0.0
 40
0.3
 50
90.0
 51
180.0
  0
ARC
  5
1E982
  8
KI2
 10
255.1970292612489
 20
117.0830073963906
 30
0.0
 40
0.3
 50
0.0
 51
90.0
  0
LINE
  5
1E983
  8
KI2
 10
257.29702926124878
 20
124.6844656521782
 30
0.0
 11
257.29702926124878
 21
123.0830073963906
 31
0.0
  0
LINE
  5
1E984
  8
KI2
 10
254.89702926124889
 20
117.0830073963906
 30
0.0
 11
254.4470292612489
 21
117.0830073963906
 31
0.0
  0
LINE
  5
1E985
  8
KI2
 10
253.54546369751139
 20
120.7830073963906
 30
0.0
 11
254.89702926124889
 21
120.7830073963906
 31
0.0
  0
LINE
  5
1E986
  8
KI1
 10
284.64702926125028
 20
126.88300739639089
 30
0.0
 11
261.74702926124928
 21
126.88300739639089
 31
0.0
  0
LINE
  5
1E987
  8
KI1
 10
283.44702926125041
 20
125.5830073963907
 30
0.0
 11
262.9470292612491
 21
125.5830073963907
 31
0.0
  0
LINE
  5
1E988
  8
KI1
 10
309.1970292612495
 20
125.18300739639059
 30
0.0
 11
305.1970292612491
 21
126.88300739639089
 31
0.0
  0
LINE
  5
1E989
  8
KI1
 10
304.93224008998732
 20
125.5830073963907
 30
0.0
 11
307.99106361939721
 21
124.2830073963905
 31
0.0
  0
LINE
  5
1E98B
  8
KI1
 10
309.1970292612495
 20
124.2830073963905
 30
0.0
 11
307.99106361939721
 21
124.2830073963905
 31
0.0
  0
LINE
  5
1E98C
  8
KI1
 10
301.69702926124819
 20
125.5830073963907
 30
0.0
 11
298.9470292612491
 21
125.5830073963907
 31
0.0
  0
ARC
  5
1E98D
  8
KI1
 10
302.19702926124819
 20
124.5830073963907
 30
0.0
 40
0.5000000000000142
 50
180.0
 51
0.0
  0
LINE
  5
1E98E
  8
KI1
 10
302.69702926124819
 20
124.5830073963907
 30
0.0
 11
302.6970292612491
 21
125.5830073963907
 31
0.0
  0
LINE
  5
1E98F
  8
KI1
 10
301.69702926124819
 20
125.5830073963907
 30
0.0
 11
301.69702926124819
 21
124.5830073963907
 31
0.0
  0
ARC
  5
1E990
  8
KI1
 10
296.6970292612491
 20
125.5830073963907
 30
0.0
 40
0.5000000000000142
 50
90.0
 51
180.0
  0
ARC
  5
1E991
  8
KI1
 10
298.4470292612491
 20
125.38300739639089
 30
0.0
 40
0.5000000000000142
 50
270.0
 51
0.0
  0
LINE
  5
1E992
  8
KI1
 10
298.9470292612491
 20
125.5830073963907
 30
0.0
 11
298.9470292612491
 21
125.38300739639089
 31
0.0
  0
LINE
  5
1E993
  8
KI1
 10
298.4470292612491
 20
124.8830073963904
 30
0.0
 11
297.39702926124937
 21
124.8830073963904
 31
0.0
  0
LINE
  5
1E994
  8
KI1
 10
297.74702926124928
 20
126.0830073963907
 30
0.0
 11
297.74702926124928
 21
126.88300739639089
 31
0.0
  0
LINE
  5
1E995
  8
KI1
 10
296.6970292612491
 20
126.0830073963907
 30
0.0
 11
297.74702926124928
 21
126.0830073963907
 31
0.0
  0
LINE
  5
1E996
  8
KI1
 10
305.1970292612491
 20
126.88300739639089
 30
0.0
 11
297.74702926124928
 21
126.88300739639089
 31
0.0
  0
LINE
  5
1E997
  8
KI1
 10
304.93224008998732
 20
125.5830073963907
 30
0.0
 11
302.6970292612491
 21
125.5830073963907
 31
0.0
  0
ARC
  5
1E998
  8
KI1
 10
285.6970292612491
 20
125.5830073963907
 30
0.0
 40
0.5000000000000993
 50
0.0
 51
90.0
  0
ARC
  5
1E999
  8
KI1
 10
283.94702926125001
 20
125.38300739639089
 30
0.0
 40
0.5000000000000993
 50
180.0
 51
270.0
  0
LINE
  5
1E99A
  8
KI1
 10
284.99702926124928
 20
124.8830073963904
 30
0.0
 11
283.94702926125001
 21
124.8830073963904
 31
0.0
  0
LINE
  5
1E99B
  8
KI1
 10
283.44702926125041
 20
125.38300739639089
 30
0.0
 11
283.44702926125041
 21
125.5830073963907
 31
0.0
  0
LINE
  5
1E99C
  8
KI1
 10
284.64702926125028
 20
126.88300739639089
 30
0.0
 11
284.64702926125028
 21
126.0830073963907
 31
0.0
  0
LINE
  5
1E99D
  8
KI1
 10
284.64702926125028
 20
126.0830073963907
 30
0.0
 11
285.6970292612491
 21
126.0830073963907
 31
0.0
  0
LINE
  5
1E99E
  8
KI1
 10
241.4618184325123
 20
125.5830073963907
 30
0.0
 11
238.40299490310011
 21
124.2830073963905
 31
0.0
  0
ARC
  5
1E99F
  8
KI1
 10
260.6970292612491
 20
125.5830073963907
 30
0.0
 40
0.5000000000000142
 50
90.0
 51
180.0
  0
ARC
  5
1E9A0
  8
KI1
 10
262.4470292612491
 20
125.38300739639089
 30
0.0
 40
0.5000000000000142
 50
270.0
 51
0.0
  0
LINE
  5
1E9A1
  8
KI1
 10
262.9470292612491
 20
125.5830073963907
 30
0.0
 11
262.9470292612491
 21
125.38300739639089
 31
0.0
  0
LINE
  5
1E9A2
  8
KI1
 10
262.4470292612491
 20
124.8830073963904
 30
0.0
 11
261.39702926124937
 21
124.8830073963904
 31
0.0
  0
LINE
  5
1E9A3
  8
KI1
 10
261.74702926124928
 20
126.0830073963907
 30
0.0
 11
261.74702926124928
 21
126.88300739639089
 31
0.0
  0
LINE
  5
1E9A4
  8
KI1
 10
260.6970292612491
 20
126.0830073963907
 30
0.0
 11
261.74702926124928
 21
126.0830073963907
 31
0.0
  0
LINE
  5
1E9A5
  8
KI1
 10
243.6970292612491
 20
125.5830073963907
 30
0.0
 11
241.4618184325123
 21
125.5830073963907
 31
0.0
  0
LINE
  5
1E9A6
  8
KI1
 10
243.6970292612491
 20
124.5830073963907
 30
0.0
 11
243.6970292612491
 21
125.5830073963907
 31
0.0
  0
LINE
  5
1E9A7
  8
KI1
 10
244.6970292612495
 20
125.5830073963907
 30
0.0
 11
244.6970292612495
 21
124.5830073963907
 31
0.0
  0
ARC
  5
1E9A8
  8
KI1
 10
244.1970292612491
 20
124.5830073963907
 30
0.0
 40
0.4999999999999716
 50
180.0
 51
0.0
  0
LINE
  5
1E9A9
  8
KI1
 10
248.64702926125031
 20
126.88300739639089
 30
0.0
 11
241.1970292612491
 21
126.88300739639089
 31
0.0
  0
ARC
  5
1E9AA
  8
KI1
 10
249.6970292612491
 20
125.5830073963907
 30
0.0
 40
0.5000000000000993
 50
0.0
 51
90.0
  0
LINE
  5
1E9AB
  8
KI1
 10
248.99702926124931
 20
124.8830073963904
 30
0.0
 11
247.94702926125001
 21
124.8830073963904
 31
0.0
  0
ARC
  5
1E9AC
  8
KI1
 10
247.94702926125001
 20
125.38300739639089
 30
0.0
 40
0.5000000000000993
 50
180.0
 51
270.0
  0
LINE
  5
1E9AD
  8
KI1
 10
247.44702926125049
 20
125.38300739639089
 30
0.0
 11
247.44702926125049
 21
125.5830073963907
 31
0.0
  0
LINE
  5
1E9AE
  8
KI1
 10
248.64702926125031
 20
126.88300739639089
 30
0.0
 11
248.64702926125031
 21
126.0830073963907
 31
0.0
  0
LINE
  5
1E9AF
  8
KI1
 10
248.64702926125031
 20
126.0830073963907
 30
0.0
 11
249.6970292612491
 21
126.0830073963907
 31
0.0
  0
LINE
  5
1E9B1
  8
KI1
 10
247.44702926125049
 20
125.5830073963907
 30
0.0
 11
244.6970292612495
 21
125.5830073963907
 31
0.0
  0
LINE
  5
1E9B2
  8
KI1
 10
250.1970292612491
 20
114.18300739639059
 30
0.0
 11
250.1970292612491
 21
119.98321446736141
 31
0.0
  0
LINE
  5
1E9B3
  8
KI1
 10
260.1970292612491
 20
114.18300739639059
 30
0.0
 11
260.1970292612491
 21
119.98321446736141
 31
0.0
  0
LINE
  5
1E9B4
  8
KI1
 10
261.39702926124937
 20
112.98300739639031
 30
0.0
 11
261.39702926124937
 21
124.8830073963904
 31
0.0
  0
LINE
  5
1E9B6
  8
KI1
 10
248.99702926124931
 20
112.98300739639031
 30
0.0
 11
248.99702926124931
 21
124.8830073963904
 31
0.0
  0
LINE
  5
1E9B7
  8
KI1
 10
254.7387716917533
 20
114.18300739639059
 30
0.0
 11
250.1970292612491
 21
114.18300739639059
 31
0.0
  0
LINE
  5
1E9B8
  8
KI1
 10
260.59702926124868
 20
112.98300739639031
 30
0.0
 11
249.7970292612481
 21
112.98300739639031
 31
0.0
  0
ARC
  5
1E9B9
  8
KI1
 10
255.1970292612495
 20
114.3830073963904
 30
0.0
 40
0.4999999999992742
 50
203.57817847816119
 51
336.42182152179282
  0
ARC
  5
1E9BA
  8
KI1
 10
260.99702926124928
 20
112.98300739639031
 30
0.0
 40
0.3999999999998492
 50
180.0
 51
0.0
  0
LINE
  5
1E9BB
  8
KI1
 10
260.1970292612491
 20
114.18300739639059
 30
0.0
 11
255.65528683074439
 21
114.18300739639059
 31
0.0
  0
ARC
  5
1E9BC
  8
KI1
 10
249.3970292612494
 20
112.98300739639031
 30
0.0
 40
0.39999999999921
 50
180.0
 51
0.0
  0
ARC
  5
1E9BD
  8
KI1
 10
260.2970292532973
 20
120.4731124175419
 30
0.0
 40
0.5000000000002347
 50
179.9897813795902
 51
258.46304189722389
  0
LINE
  5
1E9BE
  8
KI1
 10
260.1970292612491
 20
121.1730073963908
 30
0.0
 11
259.79702926124952
 21
120.47320159182659
 31
0.0
  0
LINE
  5
1E9BF
  8
KI1
 10
260.1970292612491
 20
121.1730073963908
 30
0.0
 11
260.1970292612491
 21
125.5830073963907
 31
0.0
  0
ARC
  5
1E9C0
  8
KI1
 10
250.0970292692023
 20
120.4731124175419
 30
0.0
 40
0.5000000000001135
 50
281.53695810268317
 51
0.0102186204097569
  0
LINE
  5
1E9C1
  8
KI1
 10
250.5970292612501
 20
120.47320159182659
 30
0.0
 11
250.1970292612491
 21
121.1730073963908
 31
0.0
  0
LINE
  5
1E9C2
  8
KI1
 10
250.1970292612491
 20
121.1730073963908
 30
0.0
 11
250.1970292612491
 21
125.5830073963907
 31
0.0
  0
LINE
  5
1E9C3
  8
KI1
 10
296.59702926124919
 20
112.98300739639031
 30
0.0
 11
285.7970292612481
 21
112.98300739639031
 31
0.0
  0
LINE
  5
1E9C4
  8
KI1
 10
296.1970292612491
 20
114.18300739639059
 30
0.0
 11
291.65528683074439
 21
114.18300739639059
 31
0.0
  0
LINE
  5
1E9C5
  8
KI1
 10
296.1970292612491
 20
114.18300739639059
 30
0.0
 11
296.19702926125052
 21
119.98321446736141
 31
0.0
  0
LINE
  5
1E9C7
  8
KI1
 10
297.39702926124937
 20
112.98300739639031
 30
0.0
 11
297.39702926124937
 21
124.8830073963904
 31
0.0
  0
ARC
  5
1E9C8
  8
KI1
 10
296.99702926124928
 20
112.98300739639031
 30
0.0
 40
0.3999999999998492
 50
180.0
 51
0.0
  0
ARC
  5
1E9C9
  8
KI1
 10
296.2970292532973
 20
120.4731124175419
 30
0.0
 40
0.500000000000056
 50
179.9897813795902
 51
258.46304189731683
  0
LINE
  5
1E9CA
  8
KI1
 10
296.19702926125052
 20
121.1730073963908
 30
0.0
 11
295.79702926124952
 21
120.47320159182659
 31
0.0
  0
LINE
  5
1E9CB
  8
KI1
 10
296.19702926125052
 20
121.1730073963908
 30
0.0
 11
296.1970292612491
 21
125.5830073963907
 31
0.0
  0
LINE
  5
1E9CC
  8
KI1
 10
286.1970292612491
 20
114.18300739639059
 30
0.0
 11
286.1970292612491
 21
119.98321446736141
 31
0.0
  0
LINE
  5
1E9CD
  8
KI1
 10
284.99702926124928
 20
112.98300739639031
 30
0.0
 11
284.99702926124928
 21
124.8830073963904
 31
0.0
  0
LINE
  5
1E9CE
  8
KI1
 10
290.7387716917533
 20
114.18300739639059
 30
0.0
 11
286.1970292612491
 21
114.18300739639059
 31
0.0
  0
ARC
  5
1E9CF
  8
KI1
 10
291.19702926124961
 20
114.3830073963904
 30
0.0
 40
0.4999999999992742
 50
203.57817847816119
 51
336.42182152179282
  0
ARC
  5
1E9D0
  8
KI1
 10
285.39702926124937
 20
112.98300739639031
 30
0.0
 40
0.39999999999921
 50
180.0
 51
0.0
  0
ARC
  5
1E9D1
  8
KI1
 10
286.09702926920232
 20
120.4731124175419
 30
0.0
 40
0.5000000000001135
 50
281.53695810268317
 51
0.0102186204097569
  0
LINE
  5
1E9D2
  8
KI1
 10
286.5970292612501
 20
120.47320159182659
 30
0.0
 11
286.1970292612491
 21
121.1730073963908
 31
0.0
  0
LINE
  5
1E9D3
  8
KI1
 10
286.1970292612491
 20
121.1730073963908
 30
0.0
 11
286.1970292612491
 21
125.5830073963907
 31
0.0
  0
LINE
  5
1E9D4
  8
KI1
 10
237.19702926124961
 20
125.18300739639059
 30
0.0
 11
237.19702926124961
 21
124.2830073963905
 31
0.0
  0
LINE
  5
1E9D5
  8
KI1
 10
238.40299490310011
 20
124.2830073963905
 30
0.0
 11
237.19702926124961
 21
124.2830073963905
 31
0.0
  0
LINE
  5
1E9D6
  8
KI1
 10
241.1970292612491
 20
126.88300739639089
 30
0.0
 11
237.19702926124961
 21
125.18300739639059
 31
0.0
  0
LINE
  5
1E9D7
  8
KI1
 10
274.94704926117811
 20
244.28300748772091
 30
0.0
 11
274.94704926117811
 21
131.28300748772079
 31
0.0
  0
LINE
  5
1E9D8
  8
KI1
 10
307.94704926117811
 20
244.28300748772091
 30
0.0
 11
307.94704926117811
 21
131.28300748772079
 31
0.0
  0
TEXT
  5
1EA06
  8
MJ
 10
217.44304926121109
 20
55.629030084138321
 30
0.0
 40
7.0
  1
埋込みレール
 41
0.8299999999999999
 72
     4
 11
237.19704926121111
 21
59.129030084138321
 31
0.0
  0
TEXT
  5
1EA1D
  8
MJ
 10
217.4430492612461
 20
55.783007487720852
 30
0.0
 40
7.0
  1
埋込みレール
 41
0.8299999999999999
 72
     4
 11
237.19704926124609
 21
59.283007487720852
 31
0.0
  0
LINE
  5
1EA33
  8
OS
 10
271.94704926117493
 20
388.10574593944671
 30
0.0
 11
274.94704926117493
 21
388.10574593944671
 31
0.0
  0
LINE
  5
1EA34
  8
OS
 10
271.94704926117493
 20
184.28300948044171
 30
0.0
 11
274.94704926117493
 21
184.28300948044171
 31
0.0
  0
LINE
  5
1EA70
  8
OS
 10
289.6970460854094
 20
748.60326819908039
 30
0.0
 11
289.6970460854094
 21
673.60326819908039
 31
0.0
  0
LINE
  5
1EA71
  8
OS
 10
184.6970460854094
 20
748.60326819908039
 30
0.0
 11
184.6970460854094
 21
673.60326819908039
 31
0.0
  0
LINE
  5
1EA72
  8
OS
 10
139.6971618418078
 20
718.6032681990805
 30
0.0
 11
139.6971618418078
 21
673.60326819908039
 31
0.0
  0
LINE
  5
1EA73
  8
OS
 10
139.6971618418078
 20
718.6032681990805
 30
0.0
 11
184.6970460854094
 21
718.6032681990805
 31
0.0
  0
LINE
  5
1EA74
  8
OS
 10
139.6971618418078
 20
673.60326819908039
 30
0.0
 11
184.6970460854094
 21
718.6032681990805
 31
0.0
  0
LINE
  5
1EA75
  8
OS
 10
334.6954448426626
 20
718.60574393112336
 30
0.0
 11
334.6965875002906
 21
673.60574394563082
 31
0.0
  0
LINE
  5
1EA76
  8
OS
 10
334.6954448426626
 20
718.60574393112336
 30
0.0
 11
289.69556061356792
 21
718.60460127643466
 31
0.0
  0
LINE
  5
1EA77
  8
OS
 10
289.6970460854094
 20
673.60326819908039
 30
0.0
 11
334.6954448426626
 21
718.60574393112336
 31
0.0
  0
LINE
  5
1EA78
  8
OS
 10
259.69676726340862
 20
748.60326819908039
 30
0.0
 11
184.6970460854094
 21
673.60326819908039
 31
0.0
  0
LINE
  5
1EA7A
  8
OS
 10
167.6970416945685
 20
673.60574394563082
 30
0.0
 11
102.1970492614016
 21
673.60574394563082
 31
0.0
  0
LINE
  5
1EC02
  8
KI1
 10
892.8159698081945
 20
295.48474779943712
 30
0.0
 11
1032.815969808194
 21
295.48474779943712
 31
0.0
  0
LINE
  5
1EC03
  8
KI1
 10
1032.815969808194
 20
295.48474779943712
 30
0.0
 11
1032.815969808194
 21
262.4847487511625
 31
0.0
  0
LINE
  5
1EC04
  8
KI1
 10
892.8159698081945
 20
295.48474779943712
 30
0.0
 11
892.8159698081945
 21
262.4847487511625
 31
0.0
  0
LINE
  5
1EC05
  8
KI1
 10
1032.815969808194
 20
262.4847487511625
 30
0.0
 11
892.8159698081945
 21
262.4847487511625
 31
0.0
  0
LINE
  5
1EC06
  8
KI1
 10
927.81596980819438
 20
298.4847477994316
 30
0.0
 11
787.81596980819415
 21
298.4847477994316
 31
0.0
  0
LINE
  5
1EC07
  8
KI1
 10
927.81596980819438
 20
298.4847477994316
 30
0.0
 11
927.81596980819438
 21
331.48474684770622
 31
0.0
  0
LINE
  5
1EC08
  8
KI1
 10
787.81596980819415
 20
298.4847477994316
 30
0.0
 11
787.8159698081945
 21
331.48474684770622
 31
0.0
  0
LINE
  5
1EC09
  8
KI1
 10
787.8159698081945
 20
331.48474684770622
 30
0.0
 11
927.81596980819438
 21
331.48474684770622
 31
0.0
  0
LINE
  5
1EC0A
  8
KI1
 10
822.8159698081945
 20
334.9847477994316
 30
0.0
 11
682.8159698081945
 21
334.9847477994316
 31
0.0
  0
LINE
  5
1EC0B
  8
KI1
 10
822.8159698081945
 20
334.9847477994316
 30
0.0
 11
822.8159698081945
 21
367.98474684770622
 31
0.0
  0
LINE
  5
1EC0C
  8
KI1
 10
682.8159698081945
 20
367.98474684770622
 30
0.0
 11
822.8159698081945
 21
367.98474684770622
 31
0.0
  0
LINE
  5
1EC0D
  8
PH
 10
717.8159698081945
 20
298.4847477994316
 30
0.0
 11
577.81596980819324
 21
298.4847477994316
 31
0.0
  0
LINE
  5
1EC0E
  8
PH
 10
577.81596980819324
 20
298.4847477994316
 30
0.0
 11
577.81596980819324
 21
331.48474684770622
 31
0.0
  0
LINE
  5
1EC0F
  8
PH
 10
717.8159698081945
 20
298.4847477994316
 30
0.0
 11
717.8159698081945
 21
331.48474684770622
 31
0.0
  0
LINE
  5
1EC10
  8
PH
 10
577.81596980819324
 20
331.48474684770622
 30
0.0
 11
717.8159698081945
 21
331.48474684770622
 31
0.0
  0
LINE
  5
1EC11
  8
PH
 10
717.8159698081945
 20
262.4847477994316
 30
0.0
 11
577.81596980819324
 21
262.4847477994316
 31
0.0
  0
LINE
  5
1EC12
  8
PH
 10
577.81596980819324
 20
262.4847477994316
 30
0.0
 11
577.81596980819324
 21
295.48474684770622
 31
0.0
  0
LINE
  5
1EC13
  8
PH
 10
717.8159698081945
 20
262.4847477994316
 30
0.0
 11
717.8159698081945
 21
295.48474684770622
 31
0.0
  0
LINE
  5
1EC14
  8
PH
 10
577.81596980819324
 20
295.48474684770622
 30
0.0
 11
717.8159698081945
 21
295.48474684770622
 31
0.0
  0
LINE
  5
1EC19
  8
KI2
 10
1035.815969808194
 20
349.3847487510933
 30
0.0
 11
822.8159698081945
 21
349.3847487510933
 31
0.0
  0
LINE
  5
1EC1B
  8
KI2
 10
1035.815969808194
 20
353.58474875109312
 30
0.0
 11
822.8159698081945
 21
353.58474875109312
 31
0.0
  0
LINE
  5
1EC1C
  8
KI2
 10
1035.815969808194
 20
312.88474779943311
 30
0.0
 11
927.81596980819438
 21
312.88474779943323
 31
0.0
  0
LINE
  5
1EC1D
  8
KI2
 10
787.81596980819415
 20
312.88474779943328
 30
0.0
 11
574.81596980819324
 21
312.88474779943351
 31
0.0
  0
LINE
  5
1EC1E
  8
KI2
 10
1035.815969808194
 20
317.08474779943299
 30
0.0
 11
927.81596980819438
 21
317.08474779943299
 31
0.0
  0
LINE
  5
1EC1F
  8
KI2
 10
787.81596980819415
 20
317.08474779943299
 30
0.0
 11
574.81596980819324
 21
317.08474779943299
 31
0.0
  0
LINE
  5
1EC20
  8
KI2
 10
892.8159698081945
 20
276.88474779943328
 30
0.0
 11
574.81596980819324
 21
276.88474779943328
 31
0.0
  0
LINE
  5
1EC21
  8
KI2
 10
892.8159698081945
 20
281.0847477994331
 30
0.0
 11
574.81596980819324
 21
281.0847477994331
 31
0.0
  0
LINE
  5
1EC22
  8
KI2
 10
892.8159698081945
 20
268.98474804866629
 30
0.0
 11
574.81596980819324
 21
268.98474804866629
 31
0.0
  0
LINE
  5
1EC23
  8
KI1
 10
682.8159698081945
 20
334.9847477994316
 30
0.0
 11
682.8159698081945
 21
367.98474684770622
 31
0.0
  0
LINE
  5
1EC24
  8
OS
 10
556.31596980819324
 20
428.48474779943427
 30
0.0
 11
556.31596980819324
 21
237.9847477994343
 31
0.0
  0
LINE
  5
1EC25
  8
OS
 10
558.31596980819324
 20
428.48474779943427
 30
0.0
 11
558.31596980819324
 21
237.9847477994343
 31
0.0
  0
LINE
  5
1EC26
  8
OS
 10
568.81596980819324
 20
428.48474779943427
 30
0.0
 11
568.81596980819324
 21
237.9847477994343
 31
0.0
  0
LINE
  5
1EC27
  8
OS
 10
574.81596980819324
 20
434.48474779943427
 30
0.0
 11
574.81596980819324
 21
231.9847477994343
 31
0.0
  0
LINE
  5
1EC28
  8
OS
 10
566.81596980819324
 20
428.48474779943427
 30
0.0
 11
566.81596980819324
 21
237.9847477994343
 31
0.0
  0
LINE
  5
1EC29
  8
OS
 10
556.31596980819324
 20
385.73474779943427
 30
0.0
 11
510.31596735966428
 21
339.73467815573667
 31
0.0
  0
LINE
  5
1EC2A
  8
OS
 10
510.31596735966428
 20
239.9847477994343
 30
0.0
 11
556.31596980819324
 21
239.9847477994343
 31
0.0
  0
LINE
  5
1EC2B
  8
OS
 10
510.31596735966428
 20
237.9847477994343
 30
0.0
 11
568.81596980819324
 21
237.9847477994343
 31
0.0
  0
LINE
  5
1EC2C
  8
OS
 10
510.31596735966428
 20
231.9847477994343
 30
0.0
 11
574.81596980819324
 21
231.9847477994343
 31
0.0
  0
LINE
  5
1EC2D
  8
OS
 10
510.31596735966428
 20
326.73492125943523
 30
0.0
 11
556.31596980819324
 21
280.73474779943427
 31
0.0
  0
LINE
  5
1EC2E
  8
OS
 10
510.31596735966428
 20
248.4847477994343
 30
0.0
 11
556.31596980819324
 21
248.4847477994343
 31
0.0
  0
LINE
  5
1EC2F
  8
OS
 10
510.31596735966428
 20
250.4847477994343
 30
0.0
 11
556.31596980819324
 21
250.4847477994343
 31
0.0
  0
LINE
  5
1EC30
  8
OS
 10
510.31596735966428
 20
280.73474779943427
 30
0.0
 11
556.31596980819324
 21
280.73474779943427
 31
0.0
  0
LINE
  5
1EC31
  8
OS
 10
510.31596735966428
 20
426.48474779943427
 30
0.0
 11
556.31596980819324
 21
426.48474779943427
 31
0.0
  0
LINE
  5
1EC32
  8
OS
 10
510.31596735966428
 20
428.48474779943427
 30
0.0
 11
568.81596980819324
 21
428.48474779943427
 31
0.0
  0
LINE
  5
1EC33
  8
OS
 10
510.31596735966428
 20
434.48474779943427
 30
0.0
 11
574.81596980819324
 21
434.48474779943427
 31
0.0
  0
LINE
  5
1EC34
  8
OS
 10
510.31596735966428
 20
417.98474779943427
 30
0.0
 11
556.31596980819324
 21
417.98474779943427
 31
0.0
  0
LINE
  5
1EC35
  8
OS
 10
510.31596735966428
 20
385.73474779943427
 30
0.0
 11
556.31596980819324
 21
385.73474779943427
 31
0.0
  0
LINE
  5
1EC36
  8
OS
 10
510.31596735966428
 20
415.98474779943427
 30
0.0
 11
556.31596980819324
 21
415.98474779943427
 31
0.0
  0
TEXT
  5
1EC37
  8
SU
 10
503.93812597647923
 20
452.36158451676653
 30
0.0
 40
7.9999999999999982
  1
巾木
 41
0.9
  0
LINE
  5
1EC38
  8
SU
 10
531.13295358203777
 20
433.76397484082702
 30
0.0
 11
532.08393844830255
 21
430.8750948183727
 31
0.0
  0
LINE
  5
1EC39
  8
SU
 10
530.24742410806709
 20
433.2993916397437
 30
0.0
 11
532.08393844830255
 21
430.8750948183727
 31
0.0
  0
LINE
  5
1EC3A
  8
SU
 10
532.08393844830255
 20
430.8750948183727
 30
0.0
 11
530.69018884505238
 21
433.5316832402853
 31
0.0
  0
LINE
  5
1EC3B
  8
SU
 10
530.69018884505238
 20
433.5316832402853
 30
0.0
 11
522.07552180361051
 21
449.95186708648021
 31
0.0
1001
ACAD
1000
DSTYLE
1002
{
1070
   371
1070
    13
1070
   176
1070
   256
1070
    41
1040
1.5
1070
   147
1040
1.0
1070
    77
1070
     0
1002
}
  0
LINE
  5
1EC3C
  8
SU
 10
522.07552180361051
 20
449.95186708648021
 30
0.0
 11
500.71385911731051
 21
449.95186708648021
 31
0.0
1001
ACAD
1000
DSTYLE
1002
{
1070
   371
1070
    13
1070
   176
1070
   256
1070
    41
1040
1.5
1070
   147
1040
1.0
1070
    77
1070
     0
1002
}
  0
LINE
  5
1EC3D
  8
OS
 10
1054.315969808194
 20
428.48474779943427
 30
0.0
 11
1054.315969808194
 21
237.9847477994343
 31
0.0
  0
LINE
  5
1EC3E
  8
OS
 10
1052.315969808194
 20
428.48474779943427
 30
0.0
 11
1052.315969808194
 21
237.9847477994343
 31
0.0
  0
LINE
  5
1EC3F
  8
OS
 10
1041.815969808194
 20
428.48474779943427
 30
0.0
 11
1041.815969808194
 21
237.9847477994343
 31
0.0
  0
LINE
  5
1EC40
  8
OS
 10
1035.815969808194
 20
434.48474779943427
 30
0.0
 11
1035.815969808194
 21
231.9847477994343
 31
0.0
  0
LINE
  5
1EC41
  8
OS
 10
1043.815969808194
 20
428.48474779943427
 30
0.0
 11
1043.815969808194
 21
237.9847477994343
 31
0.0
  0
LINE
  5
1EC42
  8
OS
 10
1054.315969808194
 20
385.73474779943427
 30
0.0
 11
1100.3159722567229
 21
339.73467815573667
 31
0.0
  0
LINE
  5
1EC43
  8
OS
 10
1100.3159722567229
 20
239.9847477994343
 30
0.0
 11
1054.315969808194
 21
239.9847477994343
 31
0.0
  0
LINE
  5
1EC44
  8
OS
 10
1100.3159722567229
 20
237.9847477994343
 30
0.0
 11
1041.815969808194
 21
237.9847477994343
 31
0.0
  0
LINE
  5
1EC45
  8
OS
 10
1100.3159722567229
 20
231.9847477994343
 30
0.0
 11
1035.815969808194
 21
231.9847477994343
 31
0.0
  0
LINE
  5
1EC46
  8
OS
 10
1100.3159722567229
 20
326.73492125943523
 30
0.0
 11
1054.315969808194
 21
280.73474779943427
 31
0.0
  0
LINE
  5
1EC47
  8
OS
 10
1100.3159722567229
 20
248.4847477994343
 30
0.0
 11
1054.315969808194
 21
248.4847477994343
 31
0.0
  0
LINE
  5
1EC48
  8
OS
 10
1100.3159722567229
 20
250.4847477994343
 30
0.0
 11
1054.315969808194
 21
250.4847477994343
 31
0.0
  0
LINE
  5
1EC49
  8
OS
 10
1100.3159722567229
 20
280.73474779943427
 30
0.0
 11
1054.315969808194
 21
280.73474779943427
 31
0.0
  0
LINE
  5
1EC4A
  8
OS
 10
1100.3159722567229
 20
426.48474779943427
 30
0.0
 11
1054.315969808194
 21
426.48474779943427
 31
0.0
  0
LINE
  5
1EC4B
  8
OS
 10
1100.3159722567229
 20
428.48474779943427
 30
0.0
 11
1041.815969808194
 21
428.48474779943427
 31
0.0
  0
LINE
  5
1EC4C
  8
OS
 10
1100.3159722567229
 20
434.48474779943427
 30
0.0
 11
1035.815969808194
 21
434.48474779943427
 31
0.0
  0
LINE
  5
1EC4D
  8
OS
 10
1100.3159722567229
 20
417.98474779943427
 30
0.0
 11
1054.315969808194
 21
417.98474779943427
 31
0.0
  0
LINE
  5
1EC4E
  8
OS
 10
1100.3159722567229
 20
385.73474779943427
 30
0.0
 11
1054.315969808194
 21
385.73474779943427
 31
0.0
  0
LINE
  5
1EC4F
  8
OS
 10
1100.3159722567229
 20
415.98474779943427
 30
0.0
 11
1054.315969808194
 21
415.98474779943427
 31
0.0
  0
TEXT
  5
1EC50
  8
SU
 10
1090.8538136399079
 20
452.36158451676653
 30
0.0
 40
7.9999999999999982
  1
巾木
 41
0.9
  0
LINE
  5
1EC51
  8
SU
 10
1080.38451550832
 20
433.2993916397437
 30
0.0
 11
1078.548001168085
 21
430.8750948183727
 31
0.0
  0
LINE
  5
1EC52
  8
SU
 10
1079.4989860343489
 20
433.76397484082702
 30
0.0
 11
1078.548001168085
 21
430.8750948183727
 31
0.0
  0
LINE
  5
1EC53
  8
SU
 10
1078.548001168085
 20
430.8750948183727
 30
0.0
 11
1079.9417507713349
 21
433.5316832402853
 31
0.0
  0
LINE
  5
1EC54
  8
SU
 10
1079.9417507713349
 20
433.5316832402853
 30
0.0
 11
1088.556417812777
 21
449.95186708648021
 31
0.0
1001
ACAD
1000
DSTYLE
1002
{
1070
   371
1070
    13
1070
   176
1070
   256
1070
    41
1040
1.5
1070
   147
1040
1.0
1070
    77
1070
     0
1002
}
  0
LINE
  5
1EC55
  8
SU
 10
1088.556417812777
 20
449.95186708648021
 30
0.0
 11
1109.918080499077
 21
449.95186708648021
 31
0.0
1001
ACAD
1000
DSTYLE
1002
{
1070
   371
1070
    13
1070
   176
1070
   256
1070
    41
1040
1.5
1070
   147
1040
1.0
1070
    77
1070
     0
1002
}
  0
LINE
  5
1EC62
  8
KI2
 10
682.8159698081945
 20
353.58474875109312
 30
0.0
 11
574.81596980819324
 21
353.58474875109312
 31
0.0
  0
LINE
  5
1ECAC
  8
KI1
 10
717.8159698081945
 20
370.98474779943149
 30
0.0
 11
577.81596980819324
 21
370.98474779943149
 31
0.0
  0
LINE
  5
1ECAD
  8
KI1
 10
717.8159698081945
 20
370.98474779943149
 30
0.0
 11
717.8159698081945
 21
403.98474684770611
 31
0.0
  0
LINE
  5
1ECAE
  8
KI1
 10
577.81596980819324
 20
403.98474684770611
 30
0.0
 11
717.8159698081945
 21
403.98474684770611
 31
0.0
  0
LINE
  5
1ECAF
  8
KI1
 10
577.81596980819324
 20
370.98474779943149
 30
0.0
 11
577.81596980819324
 21
403.98474684770611
 31
0.0
  0
LINE
  5
1F107
  8
PH
 10
717.8159698081945
 20
334.9847477994316
 30
0.0
 11
577.81596980819324
 21
334.9847477994316
 31
0.0
  0
LINE
  5
1F108
  8
PH
 10
577.81596980819324
 20
334.9847477994316
 30
0.0
 11
577.81596980819324
 21
367.98474684770622
 31
0.0
  0
LINE
  5
1F109
  8
PH
 10
717.8159698081945
 20
334.9847477994316
 30
0.0
 11
717.8159698081945
 21
367.98474684770622
 31
0.0
  0
LINE
  5
1F10A
  8
PH
 10
577.81596980819324
 20
367.98474684770622
 30
0.0
 11
717.8159698081945
 21
367.98474684770622
 31
0.0
  0
LINE
  5
1F113
  8
KI2
 10
682.8159698081945
 20
349.3847487510933
 30
0.0
 11
574.81596980819324
 21
349.3847487510933
 31
0.0
  0
LINE
  5
1F114
  8
KI2
 10
1035.815969808194
 20
385.38474875109318
 30
0.0
 11
717.8159698081945
 21
385.3847487510933
 31
0.0
  0
LINE
  5
1F115
  8
KI2
 10
1035.815969808194
 20
389.58474875109312
 30
0.0
 11
717.8159698081945
 21
389.58474875109312
 31
0.0
  0
LINE
  5
1F118
  8
KI2
 10
1035.815969808194
 20
397.48474875109309
 30
0.0
 11
717.8159698081945
 21
397.48474875109309
 31
0.0
  0
LINE
  5
1F2F3
  8
OS
 10
246.69704926117649
 20
124.2830073963927
 30
0.0
 11
227.6970492611793
 21
112.28302139638861
 31
0.0
  0
LINE
  5
1F2F4
  8
OS
 10
246.6970492611793
 20
112.2830213963929
 30
0.0
 11
246.69704926117649
 21
124.2830073963927
 31
0.0
  0
LINE
  5
1F2F5
  8
OS
 10
227.69704926117649
 20
124.2830073963884
 30
0.0
 11
246.69704926117649
 21
124.2830073963927
 31
0.0
  0
LINE
  5
1F2F6
  8
OS
 10
227.6970492611793
 20
112.28302139638861
 30
0.0
 11
227.69704926117649
 21
124.2830073963884
 31
0.0
  0
LINE
  5
1F432
  8
KI2
 10
1032.815969808194
 20
268.98474900039719
 30
0.0
 11
1035.8159738055981
 21
268.98474900039719
 31
0.0
  0
LINE
  5
1F433
  8
KI2
 10
1032.8159777704341
 20
287.1847499648897
 30
0.0
 11
1032.8159777704341
 21
286.48474996488972
 31
0.0
  0
LINE
  5
1F434
  8
KI2
 10
1038.8159738055981
 20
287.1847499648897
 30
0.0
 11
1032.8159777704341
 21
287.1847499648897
 31
0.0
  0
LINE
  5
1F435
  8
KI2
 10
1038.8159738055981
 20
286.48474996488972
 30
0.0
 11
1032.8159777704341
 21
286.48474996488972
 31
0.0
  0
LINE
  5
1F436
  8
KI2
 10
1032.81597245176
 20
271.48474996488937
 30
0.0
 11
1032.8159722825301
 21
270.78474996488961
 31
0.0
  0
LINE
  5
1F437
  8
KI2
 10
1032.8159722825301
 20
270.78474996488961
 30
0.0
 11
1038.8159730803229
 21
270.78474851433992
 31
0.0
  0
LINE
  5
1F438
  8
KI2
 10
1032.81597245176
 20
271.48474996488937
 30
0.0
 11
1038.815973249554
 21
271.48474851434003
 31
0.0
  0
LINE
  5
1F439
  8
KI2
 10
1041.8159738055981
 20
273.78474851433992
 30
0.0
 11
1041.8159738055981
 21
284.1847499648897
 31
0.0
  0
LINE
  5
1F43A
  8
KI2
 10
1041.1159738055981
 20
273.78474851433992
 30
0.0
 11
1041.1159738055981
 21
284.1847499648897
 31
0.0
  0
ARC
  5
1F43B
  8
KI2
 10
1038.8159738055981
 20
284.1847499648897
 30
0.0
 40
3.0
 50
0.0
 51
90.0
1001
GENIUS_GENODEF_13
1002
{
1000
HIER
1070
     0
1002
}
1002
{
1000
MANEDIT
1070
     0
1002
}
1002
{
1000
NOSEL
1070
     0
1002
}
1002
{
1000
BEHIND
1070
     0
1002
}
1002
{
1000
OTHER
1070
     0
1002
}
1002
{
1000
REACTOR
1002
}
1001
GENIUS_GENOBJ-N-FIL_13
1002
{
1000
OWNER
1000
GEN
1002
}
  0
ARC
  5
1F43C
  8
KI2
 10
1038.8159738055981
 20
284.1847499648897
 30
0.0
 40
2.2999999999999989
 50
0.0
 51
90.0
1001
GENIUS_GENODEF_13
1002
{
1000
HIER
1070
     0
1002
}
1002
{
1000
MANEDIT
1070
     0
1002
}
1002
{
1000
NOSEL
1070
     0
1002
}
1002
{
1000
BEHIND
1070
     0
1002
}
1002
{
1000
OTHER
1070
     0
1002
}
1002
{
1000
REACTOR
1002
}
1001
GENIUS_GENOBJ-N-FIL_13
1002
{
1000
OWNER
1000
GEN
1002
}
  0
ARC
  5
1F43D
  8
KI2
 10
1038.8159738055981
 20
273.78474851433992
 30
0.0
 40
3.0
 50
269.99998614827302
 51
0.0
1001
GENIUS_GENODEF_13
1002
{
1000
HIER
1070
     0
1002
}
1002
{
1000
MANEDIT
1070
     0
1002
}
1002
{
1000
NOSEL
1070
     0
1002
}
1002
{
1000
BEHIND
1070
     0
1002
}
1002
{
1000
OTHER
1070
     0
1002
}
1002
{
1000
REACTOR
1002
}
1001
GENIUS_GENOBJ-N-FIL_13
1002
{
1000
OWNER
1000
GEN
1002
}
  0
ARC
  5
1F43E
  8
KI2
 10
1038.8159738055981
 20
273.78474851433992
 30
0.0
 40
2.2999999999999989
 50
269.99998614827302
 51
0.0
1001
GENIUS_GENODEF_13
1002
{
1000
HIER
1070
     0
1002
}
1002
{
1000
MANEDIT
1070
     0
1002
}
1002
{
1000
NOSEL
1070
     0
1002
}
1002
{
1000
BEHIND
1070
     0
1002
}
1002
{
1000
OTHER
1070
     0
1002
}
1002
{
1000
REACTOR
1002
}
1001
GENIUS_GENOBJ-N-FIL_13
1002
{
1000
OWNER
1000
GEN
1002
}
  0
LINE
  5
1F489
  8
KI2
 10
717.81597777043396
 20
395.68474901315869
 30
0.0
 11
717.81597777043396
 21
394.98474901315859
 31
0.0
  0
LINE
  5
1F48A
  8
KI2
 10
723.81597380559833
 20
395.68474901315869
 30
0.0
 11
717.81597777043396
 21
395.68474901315869
 31
0.0
  0
LINE
  5
1F48B
  8
KI2
 10
723.81597380559833
 20
394.98474901315859
 30
0.0
 11
717.81597777043396
 21
394.98474901315859
 31
0.0
  0
LINE
  5
1F48C
  8
KI2
 10
717.81597245176056
 20
379.98474901315842
 30
0.0
 11
717.81597228252997
 21
379.2847490131586
 31
0.0
  0
LINE
  5
1F48D
  8
KI2
 10
717.81597228252997
 20
379.2847490131586
 30
0.0
 11
723.8159730803236
 21
379.28474756260891
 31
0.0
  0
LINE
  5
1F48E
  8
KI2
 10
717.81597245176056
 20
379.98474901315842
 30
0.0
 11
723.81597324955442
 21
379.98474756260902
 31
0.0
  0
LINE
  5
1F48F
  8
KI2
 10
726.81597380559833
 20
382.28474756260891
 30
0.0
 11
726.81597380559833
 21
392.68474901315869
 31
0.0
  0
LINE
  5
1F490
  8
KI2
 10
726.11597380559817
 20
382.28474756260891
 30
0.0
 11
726.11597380559817
 21
392.68474901315869
 31
0.0
  0
ARC
  5
1F491
  8
KI2
 10
723.81597380559833
 20
392.68474901315869
 30
0.0
 40
3.0
 50
0.0
 51
90.0
1001
GENIUS_GENODEF_13
1002
{
1000
HIER
1070
     0
1002
}
1002
{
1000
MANEDIT
1070
     0
1002
}
1002
{
1000
NOSEL
1070
     0
1002
}
1002
{
1000
BEHIND
1070
     0
1002
}
1002
{
1000
OTHER
1070
     0
1002
}
1002
{
1000
REACTOR
1002
}
1001
GENIUS_GENOBJ-N-FIL_13
1002
{
1000
OWNER
1000
GEN
1002
}
  0
ARC
  5
1F492
  8
KI2
 10
723.81597380559833
 20
392.68474901315869
 30
0.0
 40
2.2999999999999989
 50
0.0
 51
90.0
1001
GENIUS_GENODEF_13
1002
{
1000
HIER
1070
     0
1002
}
1002
{
1000
MANEDIT
1070
     0
1002
}
1002
{
1000
NOSEL
1070
     0
1002
}
1002
{
1000
BEHIND
1070
     0
1002
}
1002
{
1000
OTHER
1070
     0
1002
}
1002
{
1000
REACTOR
1002
}
1001
GENIUS_GENOBJ-N-FIL_13
1002
{
1000
OWNER
1000
GEN
1002
}
  0
ARC
  5
1F493
  8
KI2
 10
723.81597380559833
 20
382.28474756260891
 30
0.0
 40
3.0
 50
269.99998614827302
 51
0.0
1001
GENIUS_GENODEF_13
1002
{
1000
HIER
1070
     0
1002
}
1002
{
1000
MANEDIT
1070
     0
1002
}
1002
{
1000
NOSEL
1070
     0
1002
}
1002
{
1000
BEHIND
1070
     0
1002
}
1002
{
1000
OTHER
1070
     0
1002
}
1002
{
1000
REACTOR
1002
}
1001
GENIUS_GENOBJ-N-FIL_13
1002
{
1000
OWNER
1000
GEN
1002
}
  0
ARC
  5
1F494
  8
KI2
 10
723.81597380559833
 20
382.28474756260891
 30
0.0
 40
2.2999999999999989
 50
269.99998614827302
 51
0.0
1001
GENIUS_GENODEF_13
1002
{
1000
HIER
1070
     0
1002
}
1002
{
1000
MANEDIT
1070
     0
1002
}
1002
{
1000
NOSEL
1070
     0
1002
}
1002
{
1000
BEHIND
1070
     0
1002
}
1002
{
1000
OTHER
1070
     0
1002
}
1002
{
1000
REACTOR
1002
}
1001
GENIUS_GENOBJ-N-FIL_13
1002
{
1000
OWNER
1000
GEN
1002
}
  0
LINE
  5
1F4A8
  8
KI2
 10
822.81597777043407
 20
359.68474901315881
 30
0.0
 11
822.81597777043407
 21
358.98474901315871
 31
0.0
  0
LINE
  5
1F4A9
  8
KI2
 10
828.81597380559822
 20
359.68474901315881
 30
0.0
 11
822.81597777043407
 21
359.68474901315881
 31
0.0
  0
LINE
  5
1F4AA
  8
KI2
 10
828.81597380559822
 20
358.98474901315871
 30
0.0
 11
822.81597777043407
 21
358.98474901315871
 31
0.0
  0
LINE
  5
1F4AB
  8
KI2
 10
822.81597245176056
 20
343.98474901315848
 30
0.0
 11
822.81597228253008
 21
343.28474901315872
 31
0.0
  0
LINE
  5
1F4AC
  8
KI2
 10
822.81597228253008
 20
343.28474901315872
 30
0.0
 11
828.8159730803236
 21
343.28474756260903
 31
0.0
  0
LINE
  5
1F4AD
  8
KI2
 10
822.81597245176056
 20
343.98474901315848
 30
0.0
 11
828.8159732495543
 21
343.98474756260902
 31
0.0
  0
LINE
  5
1F4AE
  8
KI2
 10
831.81597380559833
 20
346.28474756260903
 30
0.0
 11
831.81597380559833
 21
356.68474901315869
 31
0.0
  0
LINE
  5
1F4AF
  8
KI2
 10
831.11597380559817
 20
346.28474756260903
 30
0.0
 11
831.11597380559817
 21
356.68474901315869
 31
0.0
  0
ARC
  5
1F4B0
  8
KI2
 10
828.81597380559822
 20
356.68474901315869
 30
0.0
 40
3.0
 50
0.0
 51
90.0
1001
GENIUS_GENODEF_13
1002
{
1000
HIER
1070
     0
1002
}
1002
{
1000
MANEDIT
1070
     0
1002
}
1002
{
1000
NOSEL
1070
     0
1002
}
1002
{
1000
BEHIND
1070
     0
1002
}
1002
{
1000
OTHER
1070
     0
1002
}
1002
{
1000
REACTOR
1002
}
1001
GENIUS_GENOBJ-N-FIL_13
1002
{
1000
OWNER
1000
GEN
1002
}
  0
ARC
  5
1F4B1
  8
KI2
 10
828.81597380559822
 20
356.68474901315869
 30
0.0
 40
2.2999999999999989
 50
0.0
 51
90.0
1001
GENIUS_GENODEF_13
1002
{
1000
HIER
1070
     0
1002
}
1002
{
1000
MANEDIT
1070
     0
1002
}
1002
{
1000
NOSEL
1070
     0
1002
}
1002
{
1000
BEHIND
1070
     0
1002
}
1002
{
1000
OTHER
1070
     0
1002
}
1002
{
1000
REACTOR
1002
}
1001
GENIUS_GENOBJ-N-FIL_13
1002
{
1000
OWNER
1000
GEN
1002
}
  0
ARC
  5
1F4B2
  8
KI2
 10
828.81597380559822
 20
346.28474756260903
 30
0.0
 40
3.0
 50
269.99998614827302
 51
0.0
1001
GENIUS_GENODEF_13
1002
{
1000
HIER
1070
     0
1002
}
1002
{
1000
MANEDIT
1070
     0
1002
}
1002
{
1000
NOSEL
1070
     0
1002
}
1002
{
1000
BEHIND
1070
     0
1002
}
1002
{
1000
OTHER
1070
     0
1002
}
1002
{
1000
REACTOR
1002
}
1001
GENIUS_GENOBJ-N-FIL_13
1002
{
1000
OWNER
1000
GEN
1002
}
  0
ARC
  5
1F4B3
  8
KI2
 10
828.81597380559822
 20
346.28474756260903
 30
0.0
 40
2.2999999999999989
 50
269.99998614827302
 51
0.0
1001
GENIUS_GENODEF_13
1002
{
1000
HIER
1070
     0
1002
}
1002
{
1000
MANEDIT
1070
     0
1002
}
1002
{
1000
NOSEL
1070
     0
1002
}
1002
{
1000
BEHIND
1070
     0
1002
}
1002
{
1000
OTHER
1070
     0
1002
}
1002
{
1000
REACTOR
1002
}
1001
GENIUS_GENOBJ-N-FIL_13
1002
{
1000
OWNER
1000
GEN
1002
}
  0
LINE
  5
1F4C7
  8
KI2
 10
927.81597777043396
 20
323.18474901315869
 30
0.0
 11
927.81597777043396
 21
322.48474901315871
 31
0.0
  0
LINE
  5
1F4C8
  8
KI2
 10
933.81597380559833
 20
323.18474901315869
 30
0.0
 11
927.81597777043396
 21
323.18474901315869
 31
0.0
  0
LINE
  5
1F4C9
  8
KI2
 10
933.81597380559833
 20
322.48474901315871
 30
0.0
 11
927.81597777043396
 21
322.48474901315871
 31
0.0
  0
LINE
  5
1F4CA
  8
KI2
 10
927.81597245176067
 20
307.48474901315848
 30
0.0
 11
927.81597228252997
 21
306.78474901315872
 31
0.0
  0
LINE
  5
1F4CB
  8
KI2
 10
927.81597228252997
 20
306.78474901315872
 30
0.0
 11
933.81597308032349
 21
306.78474756260903
 31
0.0
  0
LINE
  5
1F4CC
  8
KI2
 10
927.81597245176067
 20
307.48474901315848
 30
0.0
 11
933.81597324955442
 21
307.48474756260902
 31
0.0
  0
LINE
  5
1F4CD
  8
KI2
 10
936.81597380559822
 20
309.78474756260903
 30
0.0
 11
936.81597380559822
 21
320.18474901315881
 31
0.0
  0
LINE
  5
1F4CE
  8
KI2
 10
936.11597380559829
 20
309.78474756260903
 30
0.0
 11
936.11597380559829
 21
320.18474901315881
 31
0.0
  0
ARC
  5
1F4CF
  8
KI2
 10
933.81597380559833
 20
320.18474901315881
 30
0.0
 40
3.0
 50
0.0
 51
90.0
1001
GENIUS_GENODEF_13
1002
{
1000
HIER
1070
     0
1002
}
1002
{
1000
MANEDIT
1070
     0
1002
}
1002
{
1000
NOSEL
1070
     0
1002
}
1002
{
1000
BEHIND
1070
     0
1002
}
1002
{
1000
OTHER
1070
     0
1002
}
1002
{
1000
REACTOR
1002
}
1001
GENIUS_GENOBJ-N-FIL_13
1002
{
1000
OWNER
1000
GEN
1002
}
  0
ARC
  5
1F4D0
  8
KI2
 10
933.81597380559833
 20
320.18474901315881
 30
0.0
 40
2.2999999999999989
 50
0.0
 51
90.0
1001
GENIUS_GENODEF_13
1002
{
1000
HIER
1070
     0
1002
}
1002
{
1000
MANEDIT
1070
     0
1002
}
1002
{
1000
NOSEL
1070
     0
1002
}
1002
{
1000
BEHIND
1070
     0
1002
}
1002
{
1000
OTHER
1070
     0
1002
}
1002
{
1000
REACTOR
1002
}
1001
GENIUS_GENOBJ-N-FIL_13
1002
{
1000
OWNER
1000
GEN
1002
}
  0
ARC
  5
1F4D1
  8
KI2
 10
933.81597380559833
 20
309.78474756260903
 30
0.0
 40
3.0
 50
269.99998614827302
 51
0.0
1001
GENIUS_GENODEF_13
1002
{
1000
HIER
1070
     0
1002
}
1002
{
1000
MANEDIT
1070
     0
1002
}
1002
{
1000
NOSEL
1070
     0
1002
}
1002
{
1000
BEHIND
1070
     0
1002
}
1002
{
1000
OTHER
1070
     0
1002
}
1002
{
1000
REACTOR
1002
}
1001
GENIUS_GENOBJ-N-FIL_13
1002
{
1000
OWNER
1000
GEN
1002
}
  0
ARC
  5
1F4D2
  8
KI2
 10
933.81597380559833
 20
309.78474756260903
 30
0.0
 40
2.2999999999999989
 50
269.99998614827302
 51
0.0
1001
GENIUS_GENODEF_13
1002
{
1000
HIER
1070
     0
1002
}
1002
{
1000
MANEDIT
1070
     0
1002
}
1002
{
1000
NOSEL
1070
     0
1002
}
1002
{
1000
BEHIND
1070
     0
1002
}
1002
{
1000
OTHER
1070
     0
1002
}
1002
{
1000
REACTOR
1002
}
1001
GENIUS_GENOBJ-N-FIL_13
1002
{
1000
OWNER
1000
GEN
1002
}
  0
LINE
  5
1F4F3
  8
KI2
 10
577.81596980819324
 20
397.48474779943308
 30
0.0
 11
574.81596980819324
 21
397.48474779943308
 31
0.0
  0
LINE
  5
1F4F4
  8
KI2
 10
577.81596184595321
 20
395.68474901315869
 30
0.0
 11
577.81596184595321
 21
394.98474901315859
 31
0.0
  0
LINE
  5
1F4F5
  8
KI2
 10
571.81596581078895
 20
395.68474901315869
 30
0.0
 11
577.81596184595321
 21
395.68474901315869
 31
0.0
  0
LINE
  5
1F4F6
  8
KI2
 10
571.81596581078895
 20
394.98474901315859
 30
0.0
 11
577.81596184595321
 21
394.98474901315859
 31
0.0
  0
LINE
  5
1F4F7
  8
KI2
 10
577.81596716462661
 20
379.98474901315842
 30
0.0
 11
577.8159673338572
 21
379.2847490131586
 31
0.0
  0
LINE
  5
1F4F8
  8
KI2
 10
577.8159673338572
 20
379.2847490131586
 30
0.0
 11
571.81596653606357
 21
379.28474756260891
 31
0.0
  0
LINE
  5
1F4F9
  8
KI2
 10
577.81596716462661
 20
379.98474901315842
 30
0.0
 11
571.81596636683287
 21
379.98474756260902
 31
0.0
  0
LINE
  5
1F4FA
  8
KI2
 10
568.81596581078895
 20
382.28474756260891
 30
0.0
 11
568.81596581078895
 21
392.68474901315869
 31
0.0
  0
LINE
  5
1F4FB
  8
KI2
 10
569.515965810789
 20
382.28474756260891
 30
0.0
 11
569.515965810789
 21
392.68474901315869
 31
0.0
  0
ARC
  5
1F4FC
  8
KI2
 10
571.81596581078895
 20
392.68474901315869
 30
0.0
 40
3.0
 50
90.0
 51
180.0
1001
GENIUS_GENODEF_13
1002
{
1000
HIER
1070
     0
1002
}
1002
{
1000
MANEDIT
1070
     0
1002
}
1002
{
1000
NOSEL
1070
     0
1002
}
1002
{
1000
BEHIND
1070
     0
1002
}
1002
{
1000
OTHER
1070
     0
1002
}
1002
{
1000
REACTOR
1002
}
1001
GENIUS_GENOBJ-N-FIL_13
1002
{
1000
OWNER
1000
GEN
1002
}
  0
ARC
  5
1F4FD
  8
KI2
 10
571.81596581078895
 20
392.68474901315869
 30
0.0
 40
2.2999999999999989
 50
90.0
 51
180.0
1001
GENIUS_GENODEF_13
1002
{
1000
HIER
1070
     0
1002
}
1002
{
1000
MANEDIT
1070
     0
1002
}
1002
{
1000
NOSEL
1070
     0
1002
}
1002
{
1000
BEHIND
1070
     0
1002
}
1002
{
1000
OTHER
1070
     0
1002
}
1002
{
1000
REACTOR
1002
}
1001
GENIUS_GENOBJ-N-FIL_13
1002
{
1000
OWNER
1000
GEN
1002
}
  0
ARC
  5
1F4FE
  8
KI2
 10
571.81596581078895
 20
382.28474756260891
 30
0.0
 40
3.0
 50
180.0
 51
270.00001385172698
1001
GENIUS_GENODEF_13
1002
{
1000
HIER
1070
     0
1002
}
1002
{
1000
MANEDIT
1070
     0
1002
}
1002
{
1000
NOSEL
1070
     0
1002
}
1002
{
1000
BEHIND
1070
     0
1002
}
1002
{
1000
OTHER
1070
     0
1002
}
1002
{
1000
REACTOR
1002
}
1001
GENIUS_GENOBJ-N-FIL_13
1002
{
1000
OWNER
1000
GEN
1002
}
  0
ARC
  5
1F4FF
  8
KI2
 10
571.81596581078895
 20
382.28474756260891
 30
0.0
 40
2.2999999999999989
 50
180.0
 51
270.00001385172698
1001
GENIUS_GENODEF_13
1002
{
1000
HIER
1070
     0
1002
}
1002
{
1000
MANEDIT
1070
     0
1002
}
1002
{
1000
NOSEL
1070
     0
1002
}
1002
{
1000
BEHIND
1070
     0
1002
}
1002
{
1000
OTHER
1070
     0
1002
}
1002
{
1000
REACTOR
1002
}
1001
GENIUS_GENOBJ-N-FIL_13
1002
{
1000
OWNER
1000
GEN
1002
}
  0
LINE
  5
1F56E
  8
KI2
 10
682.81596184595435
 20
359.68474901315881
 30
0.0
 11
682.81596184595435
 21
358.98474901315871
 31
0.0
  0
LINE
  5
1F56F
  8
KI2
 10
676.8159658107902
 20
359.68474901315881
 30
0.0
 11
682.81596184595435
 21
359.68474901315881
 31
0.0
  0
LINE
  5
1F570
  8
KI2
 10
676.8159658107902
 20
358.98474901315871
 30
0.0
 11
682.81596184595435
 21
358.98474901315871
 31
0.0
  0
LINE
  5
1F571
  8
KI2
 10
682.81596716462775
 20
343.98474901315848
 30
0.0
 11
682.81596733385845
 21
343.28474901315872
 31
0.0
  0
LINE
  5
1F572
  8
KI2
 10
682.81596733385845
 20
343.28474901315872
 30
0.0
 11
676.81596653606493
 21
343.28474756260903
 31
0.0
  0
LINE
  5
1F573
  8
KI2
 10
682.81596716462775
 20
343.98474901315848
 30
0.0
 11
676.81596636683412
 21
343.98474756260902
 31
0.0
  0
LINE
  5
1F574
  8
KI2
 10
673.81596581079009
 20
346.28474756260903
 30
0.0
 11
673.81596581079009
 21
356.68474901315869
 31
0.0
  0
LINE
  5
1F575
  8
KI2
 10
674.51596581079025
 20
346.28474756260903
 30
0.0
 11
674.51596581079025
 21
356.68474901315869
 31
0.0
  0
ARC
  5
1F576
  8
KI2
 10
676.8159658107902
 20
356.68474901315869
 30
0.0
 40
3.0
 50
90.0
 51
180.0
1001
GENIUS_GENODEF_13
1002
{
1000
HIER
1070
     0
1002
}
1002
{
1000
MANEDIT
1070
     0
1002
}
1002
{
1000
NOSEL
1070
     0
1002
}
1002
{
1000
BEHIND
1070
     0
1002
}
1002
{
1000
OTHER
1070
     0
1002
}
1002
{
1000
REACTOR
1002
}
1001
GENIUS_GENOBJ-N-FIL_13
1002
{
1000
OWNER
1000
GEN
1002
}
  0
ARC
  5
1F577
  8
KI2
 10
676.8159658107902
 20
356.68474901315869
 30
0.0
 40
2.2999999999999989
 50
90.0
 51
180.0
1001
GENIUS_GENODEF_13
1002
{
1000
HIER
1070
     0
1002
}
1002
{
1000
MANEDIT
1070
     0
1002
}
1002
{
1000
NOSEL
1070
     0
1002
}
1002
{
1000
BEHIND
1070
     0
1002
}
1002
{
1000
OTHER
1070
     0
1002
}
1002
{
1000
REACTOR
1002
}
1001
GENIUS_GENOBJ-N-FIL_13
1002
{
1000
OWNER
1000
GEN
1002
}
  0
ARC
  5
1F578
  8
KI2
 10
676.8159658107902
 20
346.28474756260903
 30
0.0
 40
3.0
 50
180.0
 51
270.00001385172698
1001
GENIUS_GENODEF_13
1002
{
1000
HIER
1070
     0
1002
}
1002
{
1000
MANEDIT
1070
     0
1002
}
1002
{
1000
NOSEL
1070
     0
1002
}
1002
{
1000
BEHIND
1070
     0
1002
}
1002
{
1000
OTHER
1070
     0
1002
}
1002
{
1000
REACTOR
1002
}
1001
GENIUS_GENOBJ-N-FIL_13
1002
{
1000
OWNER
1000
GEN
1002
}
  0
ARC
  5
1F579
  8
KI2
 10
676.8159658107902
 20
346.28474756260903
 30
0.0
 40
2.2999999999999989
 50
180.0
 51
270.00001385172698
1001
GENIUS_GENODEF_13
1002
{
1000
HIER
1070
     0
1002
}
1002
{
1000
MANEDIT
1070
     0
1002
}
1002
{
1000
NOSEL
1070
     0
1002
}
1002
{
1000
BEHIND
1070
     0
1002
}
1002
{
1000
OTHER
1070
     0
1002
}
1002
{
1000
REACTOR
1002
}
1001
GENIUS_GENOBJ-N-FIL_13
1002
{
1000
OWNER
1000
GEN
1002
}
  0
LINE
  5
1F58D
  8
KI2
 10
787.81596184595446
 20
323.18474901315869
 30
0.0
 11
787.81596184595446
 21
322.48474901315871
 31
0.0
  0
LINE
  5
1F58E
  8
KI2
 10
781.8159658107902
 20
323.18474901315869
 30
0.0
 11
787.81596184595446
 21
323.18474901315869
 31
0.0
  0
LINE
  5
1F58F
  8
KI2
 10
781.8159658107902
 20
322.48474901315871
 30
0.0
 11
787.81596184595446
 21
322.48474901315871
 31
0.0
  0
LINE
  5
1F590
  8
KI2
 10
787.81596716462786
 20
307.48474901315848
 30
0.0
 11
787.81596733385845
 21
306.78474901315872
 31
0.0
  0
LINE
  5
1F591
  8
KI2
 10
787.81596733385845
 20
306.78474901315872
 30
0.0
 11
781.81596653606493
 21
306.78474756260903
 31
0.0
  0
LINE
  5
1F592
  8
KI2
 10
787.81596716462786
 20
307.48474901315848
 30
0.0
 11
781.81596636683412
 21
307.48474756260902
 31
0.0
  0
LINE
  5
1F593
  8
KI2
 10
778.81596581079009
 20
309.78474756260903
 30
0.0
 11
778.81596581079009
 21
320.18474901315881
 31
0.0
  0
LINE
  5
1F594
  8
KI2
 10
779.51596581079025
 20
309.78474756260903
 30
0.0
 11
779.51596581079025
 21
320.18474901315881
 31
0.0
  0
ARC
  5
1F595
  8
KI2
 10
781.8159658107902
 20
320.18474901315881
 30
0.0
 40
3.0
 50
90.0
 51
180.0
1001
GENIUS_GENODEF_13
1002
{
1000
HIER
1070
     0
1002
}
1002
{
1000
MANEDIT
1070
     0
1002
}
1002
{
1000
NOSEL
1070
     0
1002
}
1002
{
1000
BEHIND
1070
     0
1002
}
1002
{
1000
OTHER
1070
     0
1002
}
1002
{
1000
REACTOR
1002
}
1001
GENIUS_GENOBJ-N-FIL_13
1002
{
1000
OWNER
1000
GEN
1002
}
  0
ARC
  5
1F596
  8
KI2
 10
781.8159658107902
 20
320.18474901315881
 30
0.0
 40
2.2999999999999989
 50
90.0
 51
180.0
1001
GENIUS_GENODEF_13
1002
{
1000
HIER
1070
     0
1002
}
1002
{
1000
MANEDIT
1070
     0
1002
}
1002
{
1000
NOSEL
1070
     0
1002
}
1002
{
1000
BEHIND
1070
     0
1002
}
1002
{
1000
OTHER
1070
     0
1002
}
1002
{
1000
REACTOR
1002
}
1001
GENIUS_GENOBJ-N-FIL_13
1002
{
1000
OWNER
1000
GEN
1002
}
  0
ARC
  5
1F597
  8
KI2
 10
781.8159658107902
 20
309.78474756260903
 30
0.0
 40
3.0
 50
180.0
 51
270.00001385172698
1001
GENIUS_GENODEF_13
1002
{
1000
HIER
1070
     0
1002
}
1002
{
1000
MANEDIT
1070
     0
1002
}
1002
{
1000
NOSEL
1070
     0
1002
}
1002
{
1000
BEHIND
1070
     0
1002
}
1002
{
1000
OTHER
1070
     0
1002
}
1002
{
1000
REACTOR
1002
}
1001
GENIUS_GENOBJ-N-FIL_13
1002
{
1000
OWNER
1000
GEN
1002
}
  0
ARC
  5
1F598
  8
KI2
 10
781.8159658107902
 20
309.78474756260903
 30
0.0
 40
2.2999999999999989
 50
180.0
 51
270.00001385172698
1001
GENIUS_GENODEF_13
1002
{
1000
HIER
1070
     0
1002
}
1002
{
1000
MANEDIT
1070
     0
1002
}
1002
{
1000
NOSEL
1070
     0
1002
}
1002
{
1000
BEHIND
1070
     0
1002
}
1002
{
1000
OTHER
1070
     0
1002
}
1002
{
1000
REACTOR
1002
}
1001
GENIUS_GENOBJ-N-FIL_13
1002
{
1000
OWNER
1000
GEN
1002
}
  0
LINE
  5
1F5AC
  8
KI2
 10
892.81596184595435
 20
287.18474996489527
 30
0.0
 11
892.81596184595435
 21
286.48474996489517
 31
0.0
  0
LINE
  5
1F5AD
  8
KI2
 10
886.8159658107902
 20
287.18474996489527
 30
0.0
 11
892.81596184595435
 21
287.18474996489527
 31
0.0
  0
LINE
  5
1F5AE
  8
KI2
 10
886.8159658107902
 20
286.48474996489517
 30
0.0
 11
892.81596184595435
 21
286.48474996489517
 31
0.0
  0
LINE
  5
1F5AF
  8
KI2
 10
892.81596716462775
 20
271.484749964895
 30
0.0
 11
892.81596733385834
 21
270.78474996489518
 31
0.0
  0
LINE
  5
1F5B0
  8
KI2
 10
892.81596733385834
 20
270.78474996489518
 30
0.0
 11
886.81596653606482
 21
270.78474851434549
 31
0.0
  0
LINE
  5
1F5B1
  8
KI2
 10
892.81596716462775
 20
271.484749964895
 30
0.0
 11
886.81596636683412
 21
271.48474851434548
 31
0.0
  0
LINE
  5
1F5B2
  8
KI2
 10
883.81596581079009
 20
273.78474851434549
 30
0.0
 11
883.81596581079009
 21
284.18474996489527
 31
0.0
  0
LINE
  5
1F5B3
  8
KI2
 10
884.51596581079025
 20
273.78474851434549
 30
0.0
 11
884.51596581079025
 21
284.18474996489527
 31
0.0
  0
ARC
  5
1F5B4
  8
KI2
 10
886.8159658107902
 20
284.18474996489527
 30
0.0
 40
3.0
 50
90.0
 51
180.0
1001
GENIUS_GENODEF_13
1002
{
1000
HIER
1070
     0
1002
}
1002
{
1000
MANEDIT
1070
     0
1002
}
1002
{
1000
NOSEL
1070
     0
1002
}
1002
{
1000
BEHIND
1070
     0
1002
}
1002
{
1000
OTHER
1070
     0
1002
}
1002
{
1000
REACTOR
1002
}
1001
GENIUS_GENOBJ-N-FIL_13
1002
{
1000
OWNER
1000
GEN
1002
}
  0
ARC
  5
1F5B5
  8
KI2
 10
886.8159658107902
 20
284.18474996489527
 30
0.0
 40
2.2999999999999989
 50
90.0
 51
180.0
1001
GENIUS_GENODEF_13
1002
{
1000
HIER
1070
     0
1002
}
1002
{
1000
MANEDIT
1070
     0
1002
}
1002
{
1000
NOSEL
1070
     0
1002
}
1002
{
1000
BEHIND
1070
     0
1002
}
1002
{
1000
OTHER
1070
     0
1002
}
1002
{
1000
REACTOR
1002
}
1001
GENIUS_GENOBJ-N-FIL_13
1002
{
1000
OWNER
1000
GEN
1002
}
  0
ARC
  5
1F5B6
  8
KI2
 10
886.8159658107902
 20
273.78474851434549
 30
0.0
 40
3.0
 50
180.0
 51
270.00001385172698
1001
GENIUS_GENODEF_13
1002
{
1000
HIER
1070
     0
1002
}
1002
{
1000
MANEDIT
1070
     0
1002
}
1002
{
1000
NOSEL
1070
     0
1002
}
1002
{
1000
BEHIND
1070
     0
1002
}
1002
{
1000
OTHER
1070
     0
1002
}
1002
{
1000
REACTOR
1002
}
1001
GENIUS_GENOBJ-N-FIL_13
1002
{
1000
OWNER
1000
GEN
1002
}
  0
ARC
  5
1F5B7
  8
KI2
 10
886.8159658107902
 20
273.78474851434549
 30
0.0
 40
2.2999999999999989
 50
180.0
 51
270.00001385172698
1001
GENIUS_GENODEF_13
1002
{
1000
HIER
1070
     0
1002
}
1002
{
1000
MANEDIT
1070
     0
1002
}
1002
{
1000
NOSEL
1070
     0
1002
}
1002
{
1000
BEHIND
1070
     0
1002
}
1002
{
1000
OTHER
1070
     0
1002
}
1002
{
1000
REACTOR
1002
}
1001
GENIUS_GENOBJ-N-FIL_13
1002
{
1000
OWNER
1000
GEN
1002
}
  0
LINE
  5
1F7AC
  8
OS
 10
102.1970492614016
 20
316.10574394672591
 30
0.0
 11
372.19704926140162
 21
316.10574394672591
 31
0.0
  0
LINE
  5
1F7AD
  8
OS
 10
102.1970492614016
 20
318.10574394672591
 30
0.0
 11
372.19704926140162
 21
318.10574394672591
 31
0.0
  0
LINE
  5
1F7AE
  8
OS
 10
102.1970492614016
 20
322.10574394672591
 30
0.0
 11
372.19704926140162
 21
322.10574394672591
 31
0.0
  0
LINE
  5
1F7AF
  8
OS
 10
102.1970492614016
 20
326.10574394672591
 30
0.0
 11
372.19704926140162
 21
326.10574394672591
 31
0.0
  0
LINE
  5
1F7B0
  8
OS
 10
102.1970492614016
 20
320.10574394672591
 30
0.0
 11
372.19704926140162
 21
320.1057439467254
 31
0.0
  0
LINE
  5
1F7B1
  8
OS
 10
102.1970492614016
 20
324.10574394672591
 30
0.0
 11
372.19704926140162
 21
324.10574394672591
 31
0.0
  0
LINE
  5
1F7B2
  8
OS
 10
102.1970492614016
 20
328.10574394672591
 30
0.0
 11
372.19704926140162
 21
328.10574394672591
 31
0.0
  0
LINE
  5
1F7B3
  8
KI1
 10
116.6970492614023
 20
335.89997258078478
 30
0.0
 11
112.1970492614023
 21
328.10574394672471
 31
0.0
  0
LINE
  5
1F7B4
  8
KI1
 10
107.6970492614023
 20
335.89997258078478
 30
0.0
 11
116.6970492614023
 21
335.89997258078478
 31
0.0
  0
LINE
  5
1F7B5
  8
KI1
 10
112.1970492614023
 20
328.10574394672471
 30
0.0
 11
107.6970492614023
 21
335.89997258078478
 31
0.0
  0
TEXT
  5
1F7B6
  8
OS
 10
106.5649064042594
 20
340.13204394142281
 30
0.0
 40
7.5
  1
FL
 41
0.8299999999999999
 72
     1
 11
112.1970492614023
 21
340.13204394142281
 31
0.0
 73
     1
  0
LINE
  5
1F888
  8
KI1
 10
116.6970492614023
 20
132.0772361217798
 30
0.0
 11
112.1970492614023
 21
124.2830074877197
 31
0.0
  0
LINE
  5
1F889
  8
KI1
 10
107.6970492614023
 20
132.0772361217798
 30
0.0
 11
116.6970492614023
 21
132.0772361217798
 31
0.0
  0
LINE
  5
1F88A
  8
KI1
 10
112.1970492614023
 20
124.2830074877197
 30
0.0
 11
107.6970492614023
 21
132.0772361217798
 31
0.0
  0
TEXT
  5
1F88B
  8
OS
 10
106.5649064042594
 20
136.30930748241781
 30
0.0
 40
7.5
  1
FL
 41
0.8299999999999999
 72
     1
 11
112.1970492614023
 21
136.30930748241781
 31
0.0
 73
     1
  0
LINE
  5
20613
  8
SU
 10
412.19704926140048
 20
131.28300748772079
 30
-0.0000000000000027
 11
412.19704926140042
 21
124.28300748772079
 31
-0.0000000000000027
  0
LINE
  5
20616
  8
SU
 10
717.8159698081945
 20
466.48474779943461
 30
0.0
 11
726.81597380559867
 21
466.48474779943461
 31
0.0
  0
LINE
  5
20618
  8
SU
 10
568.81596980819324
 20
429.48474779943422
 30
0.0
 11
568.81596980819324
 21
469.4847477994345
 31
0.0
  0
LINE
  5
20619
  8
SU
 10
577.81596980819324
 20
466.4847477994345
 30
0.0
 11
568.81596980819324
 21
466.4847477994345
 31
0.0
  0
LINE
  5
2061C
  8
SU
 10
1032.8159738055981
 20
191.4847477994376
 30
0.0
 11
1041.8159738055981
 21
191.4847477994376
 31
0.0
  0
LINE
  5
2061F
  8
SU
 10
167.6970416945685
 20
674.60574394563082
 30
0.0
 11
167.6970416945685
 21
706.6057410073613
 31
0.0
  0
LINE
  5
20620
  8
SU
 10
162.0970410980778
 20
638.10574623659727
 30
0.0
 11
162.0970410980778
 21
706.6057410073613
 31
0.0
  0
LINE
  5
20621
  8
SU
 10
167.6970416945685
 20
703.60574100736142
 30
0.0
 11
162.0970410980778
 21
703.60574100736142
 31
0.0
  0
LINE
  5
20625
  8
SU
 10
306.6970504762503
 20
674.60574394563082
 30
0.0
 11
306.6970504762503
 21
706.6057410073613
 31
0.0
  0
LINE
  5
20626
  8
SU
 10
312.29705107274089
 20
638.10574623659727
 30
0.0
 11
312.29705107274089
 21
706.6057410073613
 31
0.0
  0
LINE
  5
20627
  8
SU
 10
306.6970504762503
 20
703.60574100736142
 30
0.0
 11
312.29705107274089
 21
703.60574100736142
 31
0.0
  0
LINE
  5
2062B
  8
SU
 10
822.8159698081945
 20
333.98474779943149
 30
0.0
 11
822.8159698081945
 21
209.982209455131
 31
0.0
  0
LINE
  5
2062C
  8
SU
 10
787.81596980819415
 20
297.4847477994316
 30
0.0
 11
787.81596980819415
 21
209.982209455131
 31
0.0
  0
LINE
  5
2062D
  8
SU
 10
822.8159698081945
 20
212.98220945513111
 30
0.0
 11
787.81596980819415
 21
212.98220945513111
 31
0.0
  0
LINE
  5
20631
  8
SU
 10
861.67114432989104
 20
367.98474684770622
 30
0.0
 11
861.67114432989104
 21
370.98474779943149
 31
0.0
  0
LINE
  5
20633
  8
SU
 10
718.81596980819438
 20
403.98474684770611
 30
0.0
 11
864.67114432989104
 21
403.98474684770611
 31
0.0
  0
LINE
  5
20634
  8
SU
 10
718.81596980819438
 20
370.98474779943149
 30
0.0
 11
864.67114432989104
 21
370.98474779943149
 31
0.0
  0
LINE
  5
20635
  8
SU
 10
861.67114432989092
 20
403.98474684770611
 30
0.0
 11
861.67114432989092
 21
370.98474779943149
 31
0.0
  0
LINE
  5
20639
  8
SU
 10
861.67114432989104
 20
331.48474684770622
 30
0.0
 11
861.67114432989104
 21
334.9847477994316
 31
0.0
  0
LINE
  5
2063B
  8
SU
 10
717.8159698081945
 20
261.48474779943149
 30
0.0
 11
717.8159698081945
 21
207.9847477994343
 31
0.0
  0
LINE
  5
2063C
  8
SU
 10
682.8159698081945
 20
333.98474779943149
 30
0.0
 11
682.8159698081945
 21
207.9847477994343
 31
0.0
  0
LINE
  5
2063D
  8
SU
 10
717.8159698081945
 20
210.9847477994343
 30
0.0
 11
682.8159698081945
 21
210.9847477994343
 31
0.0
  0
LINE
  5
20641
  8
SU
 10
1031.815969808194
 20
164.9847477994345
 30
0.0
 11
1041.815969808194
 21
170.9847477994345
 31
0.0
  0
LINE
  5
20642
  8
SU
 10
1031.815969808194
 20
176.9847477994345
 30
0.0
 11
1041.815969808194
 21
170.9847477994345
 31
0.0
  0
LINE
  5
20643
  8
SU
 10
1031.815969808194
 20
164.9847477994345
 30
0.0
 11
1031.815969808194
 21
176.9847477994345
 31
0.0
  0
LINE
  5
20644
  8
SU
 10
1041.7482418636271
 20
170.944111032694
 30
0.0
 11
1041.7482418636271
 21
171.02538456617489
 31
0.0
  0
LINE
  5
20645
  8
SU
 10
1041.548241863627
 20
170.82411103269411
 30
0.0
 11
1041.548241863627
 21
171.14538456617481
 31
0.0
  0
LINE
  5
20646
  8
SU
 10
1041.348241863627
 20
170.7041110326939
 30
0.0
 11
1041.348241863627
 21
171.2653845661749
 31
0.0
  0
LINE
  5
20647
  8
SU
 10
1041.1482418636269
 20
170.58411103269401
 30
0.0
 11
1041.1482418636269
 21
171.38538456617499
 31
0.0
  0
LINE
  5
20648
  8
SU
 10
1040.9482418636269
 20
170.46411103269421
 30
0.0
 11
1040.9482418636269
 21
171.50538456617491
 31
0.0
  0
LINE
  5
20649
  8
SU
 10
1040.7482418636271
 20
170.344111032694
 30
0.0
 11
1040.7482418636271
 21
171.6253845661748
 31
0.0
  0
LINE
  5
2064A
  8
SU
 10
1040.548241863627
 20
170.22411103269391
 30
0.0
 11
1040.548241863627
 21
171.74538456617489
 31
0.0
  0
LINE
  5
2064B
  8
SU
 10
1040.348241863627
 20
170.10411103269399
 30
0.0
 11
1040.348241863627
 21
171.86538456617501
 31
0.0
  0
LINE
  5
2064C
  8
SU
 10
1040.1482418636269
 20
169.9841110326941
 30
0.0
 11
1040.1482418636269
 21
171.9853845661749
 31
0.0
  0
LINE
  5
2064D
  8
SU
 10
1039.9482418636269
 20
169.86411103269421
 30
0.0
 11
1039.9482418636269
 21
172.10538456617479
 31
0.0
  0
LINE
  5
2064E
  8
SU
 10
1039.7482418636271
 20
169.74411103269389
 30
0.0
 11
1039.7482418636271
 21
172.22538456617491
 31
0.0
  0
LINE
  5
2064F
  8
SU
 10
1039.548241863627
 20
169.624111032694
 30
0.0
 11
1039.548241863627
 21
172.34538456617511
 31
0.0
  0
LINE
  5
20650
  8
SU
 10
1039.348241863627
 20
169.50411103269411
 30
0.0
 11
1039.348241863627
 21
172.46538456617489
 31
0.0
  0
LINE
  5
20651
  8
SU
 10
1039.1482418636269
 20
169.38411103269399
 30
0.0
 11
1039.1482418636269
 21
172.58538456617481
 31
0.0
  0
LINE
  5
20652
  8
SU
 10
1038.9482418636269
 20
169.2641110326941
 30
0.0
 11
1038.9482418636269
 21
172.70538456617501
 31
0.0
  0
LINE
  5
20653
  8
SU
 10
1038.7482418636271
 20
169.14411103269401
 30
0.0
 11
1038.7482418636271
 21
172.8253845661749
 31
0.0
  0
LINE
  5
20654
  8
SU
 10
1038.548241863627
 20
169.02411103269409
 30
0.0
 11
1038.548241863627
 21
172.94538456617499
 31
0.0
  0
LINE
  5
20655
  8
SU
 10
1038.348241863627
 20
168.904111032694
 30
0.0
 11
1038.348241863627
 21
173.06538456617491
 31
0.0
  0
LINE
  5
20656
  8
SU
 10
1038.1482418636269
 20
168.78411103269411
 30
0.0
 11
1038.1482418636269
 21
173.185384566175
 31
0.0
  0
LINE
  5
20657
  8
SU
 10
1037.9482418636269
 20
168.664111032694
 30
0.0
 11
1037.9482418636269
 21
173.30538456617489
 31
0.0
  0
LINE
  5
20658
  8
SU
 10
1037.7482418636271
 20
168.5441110326941
 30
0.0
 11
1037.7482418636271
 21
173.42538456617501
 31
0.0
  0
LINE
  5
20659
  8
SU
 10
1037.548241863627
 20
168.42411103269421
 30
0.0
 11
1037.548241863627
 21
173.5453845661749
 31
0.0
  0
LINE
  5
2065A
  8
SU
 10
1037.348241863627
 20
168.3041110326941
 30
0.0
 11
1037.348241863627
 21
173.66538456617499
 31
0.0
  0
LINE
  5
2065B
  8
SU
 10
1037.1482418636269
 20
168.18411103269389
 30
0.0
 11
1037.1482418636269
 21
173.78538456617491
 31
0.0
  0
LINE
  5
2065C
  8
SU
 10
1036.9482418636269
 20
168.06411103269409
 30
0.0
 11
1036.9482418636269
 21
173.905384566175
 31
0.0
  0
LINE
  5
2065D
  8
SU
 10
1036.7482418636271
 20
167.944111032694
 30
0.0
 11
1036.7482418636271
 21
174.02538456617489
 31
0.0
  0
LINE
  5
2065E
  8
SU
 10
1036.548241863627
 20
167.82411103269411
 30
0.0
 11
1036.548241863627
 21
174.14538456617481
 31
0.0
  0
LINE
  5
2065F
  8
SU
 10
1036.348241863627
 20
167.7041110326939
 30
0.0
 11
1036.348241863627
 21
174.2653845661749
 31
0.0
  0
LINE
  5
20660
  8
SU
 10
1036.1482418636269
 20
167.58411103269401
 30
0.0
 11
1036.1482418636269
 21
174.38538456617499
 31
0.0
  0
LINE
  5
20661
  8
SU
 10
1035.9482418636269
 20
167.46411103269421
 30
0.0
 11
1035.9482418636269
 21
174.50538456617491
 31
0.0
  0
LINE
  5
20662
  8
SU
 10
1035.7482418636271
 20
167.344111032694
 30
0.0
 11
1035.7482418636271
 21
174.6253845661748
 31
0.0
  0
LINE
  5
20663
  8
SU
 10
1035.548241863627
 20
167.22411103269391
 30
0.0
 11
1035.548241863627
 21
174.74538456617489
 31
0.0
  0
LINE
  5
20664
  8
SU
 10
1035.348241863627
 20
167.10411103269399
 30
0.0
 11
1035.348241863627
 21
174.86538456617501
 31
0.0
  0
LINE
  5
20665
  8
SU
 10
1035.1482418636269
 20
166.9841110326941
 30
0.0
 11
1035.1482418636269
 21
174.9853845661749
 31
0.0
  0
LINE
  5
20666
  8
SU
 10
1034.9482418636269
 20
166.8641110326943
 30
0.0
 11
1034.9482418636269
 21
175.10538456617479
 31
0.0
  0
LINE
  5
20667
  8
SU
 10
1034.7482418636271
 20
166.74411103269389
 30
0.0
 11
1034.7482418636271
 21
175.22538456617499
 31
0.0
  0
LINE
  5
20668
  8
SU
 10
1034.548241863627
 20
166.624111032694
 30
0.0
 11
1034.548241863627
 21
175.345384566175
 31
0.0
  0
LINE
  5
20669
  8
SU
 10
1034.348241863627
 20
166.50411103269411
 30
0.0
 11
1034.348241863627
 21
175.46538456617489
 31
0.0
  0
LINE
  5
2066A
  8
SU
 10
1034.1482418636269
 20
166.38411103269399
 30
0.0
 11
1034.1482418636269
 21
175.58538456617481
 31
0.0
  0
LINE
  5
2066B
  8
SU
 10
1033.9482418636269
 20
166.2641110326941
 30
0.0
 11
1033.9482418636269
 21
175.70538456617501
 31
0.0
  0
LINE
  5
2066C
  8
SU
 10
1033.7482418636271
 20
166.14411103269401
 30
0.0
 11
1033.7482418636271
 21
175.82538456617479
 31
0.0
  0
LINE
  5
2066D
  8
SU
 10
1033.548241863627
 20
166.02411103269409
 30
0.0
 11
1033.548241863627
 21
175.94538456617499
 31
0.0
  0
LINE
  5
2066E
  8
SU
 10
1033.348241863627
 20
165.904111032694
 30
0.0
 11
1033.348241863627
 21
176.06538456617491
 31
0.0
  0
LINE
  5
2066F
  8
SU
 10
1033.1482418636269
 20
165.78411103269411
 30
0.0
 11
1033.1482418636269
 21
176.185384566175
 31
0.0
  0
LINE
  5
20670
  8
SU
 10
1032.9482418636269
 20
165.664111032694
 30
0.0
 11
1032.9482418636269
 21
176.30538456617489
 31
0.0
  0
LINE
  5
20671
  8
SU
 10
1032.7482418636271
 20
165.5441110326941
 30
0.0
 11
1032.7482418636271
 21
176.42538456617501
 31
0.0
  0
LINE
  5
20672
  8
SU
 10
1032.548241863627
 20
165.42411103269421
 30
0.0
 11
1032.548241863627
 21
176.5453845661749
 31
0.0
  0
LINE
  5
20673
  8
SU
 10
1032.348241863627
 20
165.3041110326941
 30
0.0
 11
1032.348241863627
 21
176.66538456617499
 31
0.0
  0
LINE
  5
20674
  8
SU
 10
1032.1482418636269
 20
165.18411103269389
 30
0.0
 11
1032.1482418636269
 21
176.78538456617491
 31
0.0
  0
LINE
  5
20675
  8
SU
 10
1031.9482418636269
 20
165.06411103269409
 30
0.0
 11
1031.9482418636269
 21
176.905384566175
 31
0.0
  0
LINE
  5
20676
  8
SU
 10
578.81596980819324
 20
164.9847477994343
 30
0.0
 11
568.81596980819324
 21
170.9847477994343
 31
0.0
  0
LINE
  5
20677
  8
SU
 10
578.81596980819324
 20
176.9847477994343
 30
0.0
 11
568.81596980819324
 21
170.9847477994343
 31
0.0
  0
LINE
  5
20678
  8
SU
 10
578.81596980819324
 20
164.9847477994343
 30
0.0
 11
578.81596980819324
 21
176.9847477994343
 31
0.0
  0
LINE
  5
20679
  8
SU
 10
568.88369775276044
 20
170.94411103269371
 30
0.0
 11
568.88369775276044
 21
171.02538456617469
 31
0.0
  0
LINE
  5
2067A
  8
SU
 10
569.08369775276014
 20
170.82411103269379
 30
0.0
 11
569.08369775276014
 21
171.14538456617461
 31
0.0
  0
LINE
  5
2067B
  8
SU
 10
569.28369775276053
 20
170.7041110326937
 30
0.0
 11
569.28369775276053
 21
171.2653845661747
 31
0.0
  0
LINE
  5
2067C
  8
SU
 10
569.48369775276035
 20
170.58411103269381
 30
0.0
 11
569.48369775276035
 21
171.38538456617479
 31
0.0
  0
LINE
  5
2067D
  8
SU
 10
569.68369775276062
 20
170.46411103269389
 30
0.0
 11
569.68369775276062
 21
171.50538456617471
 31
0.0
  0
LINE
  5
2067E
  8
SU
 10
569.88369775276044
 20
170.3441110326938
 30
0.0
 11
569.88369775276044
 21
171.6253845661746
 31
0.0
  0
LINE
  5
2067F
  8
SU
 10
570.08369775276014
 20
170.22411103269371
 30
0.0
 11
570.08369775276014
 21
171.74538456617469
 31
0.0
  0
LINE
  5
20680
  8
SU
 10
570.28369775276053
 20
170.10411103269379
 30
0.0
 11
570.28369775276053
 21
171.86538456617481
 31
0.0
  0
LINE
  5
20681
  8
SU
 10
570.48369775276035
 20
169.9841110326939
 30
0.0
 11
570.48369775276035
 21
171.9853845661747
 31
0.0
  0
LINE
  5
20682
  8
SU
 10
570.68369775276062
 20
169.86411103269401
 30
0.0
 11
570.68369775276062
 21
172.10538456617459
 31
0.0
  0
LINE
  5
20683
  8
SU
 10
570.88369775276044
 20
169.7441110326937
 30
0.0
 11
570.88369775276044
 21
172.22538456617471
 31
0.0
  0
LINE
  5
20684
  8
SU
 10
571.08369775276014
 20
169.6241110326938
 30
0.0
 11
571.08369775276014
 21
172.3453845661748
 31
0.0
  0
LINE
  5
20685
  8
SU
 10
571.28369775276053
 20
169.50411103269391
 30
0.0
 11
571.28369775276053
 21
172.46538456617469
 31
0.0
  0
LINE
  5
20686
  8
SU
 10
571.48369775276035
 20
169.3841110326938
 30
0.0
 11
571.48369775276035
 21
172.58538456617461
 31
0.0
  0
LINE
  5
20687
  8
SU
 10
571.68369775276062
 20
169.2641110326939
 30
0.0
 11
571.68369775276062
 21
172.7053845661747
 31
0.0
  0
LINE
  5
20688
  8
SU
 10
571.88369775276044
 20
169.14411103269379
 30
0.0
 11
571.88369775276044
 21
172.82538456617459
 31
0.0
  0
LINE
  5
20689
  8
SU
 10
572.08369775276026
 20
169.0241110326939
 30
0.0
 11
572.08369775276026
 21
172.94538456617471
 31
0.0
  0
LINE
  5
2068A
  8
SU
 10
572.28369775276053
 20
168.90411103269381
 30
0.0
 11
572.28369775276053
 21
173.0653845661746
 31
0.0
  0
LINE
  5
2068B
  8
SU
 10
572.48369775276035
 20
168.78411103269389
 30
0.0
 11
572.48369775276035
 21
173.1853845661748
 31
0.0
  0
LINE
  5
2068C
  8
SU
 10
572.68369775276062
 20
168.66411103269371
 30
0.0
 11
572.68369775276062
 21
173.30538456617461
 31
0.0
  0
LINE
  5
2068D
  8
SU
 10
572.88369775276044
 20
168.54411103269391
 30
0.0
 11
572.88369775276044
 21
173.42538456617481
 31
0.0
  0
LINE
  5
2068E
  8
SU
 10
573.08369775276014
 20
168.42411103269399
 30
0.0
 11
573.08369775276014
 21
173.54538456617459
 31
0.0
  0
LINE
  5
2068F
  8
SU
 10
573.28369775276053
 20
168.30411103269381
 30
0.0
 11
573.28369775276053
 21
173.66538456617479
 31
0.0
  0
LINE
  5
20690
  8
SU
 10
573.48369775276035
 20
168.18411103269369
 30
0.0
 11
573.48369775276035
 21
173.78538456617471
 31
0.0
  0
LINE
  5
20691
  8
SU
 10
573.68369775276062
 20
168.0641110326938
 30
0.0
 11
573.68369775276062
 21
173.9053845661748
 31
0.0
  0
LINE
  5
20692
  8
SU
 10
573.88369775276044
 20
167.94411103269371
 30
0.0
 11
573.88369775276044
 21
174.02538456617469
 31
0.0
  0
LINE
  5
20693
  8
SU
 10
574.08369775276014
 20
167.82411103269379
 30
0.0
 11
574.08369775276014
 21
174.14538456617461
 31
0.0
  0
LINE
  5
20694
  8
SU
 10
574.28369775276053
 20
167.7041110326937
 30
0.0
 11
574.28369775276053
 21
174.2653845661747
 31
0.0
  0
LINE
  5
20695
  8
SU
 10
574.48369775276035
 20
167.58411103269381
 30
0.0
 11
574.48369775276035
 21
174.38538456617479
 31
0.0
  0
LINE
  5
20696
  8
SU
 10
574.68369775276062
 20
167.46411103269389
 30
0.0
 11
574.68369775276062
 21
174.50538456617471
 31
0.0
  0
LINE
  5
20697
  8
SU
 10
574.88369775276044
 20
167.3441110326938
 30
0.0
 11
574.88369775276044
 21
174.6253845661746
 31
0.0
  0
LINE
  5
20698
  8
SU
 10
575.08369775276014
 20
167.22411103269371
 30
0.0
 11
575.08369775276014
 21
174.74538456617469
 31
0.0
  0
LINE
  5
20699
  8
SU
 10
575.28369775276053
 20
167.10411103269379
 30
0.0
 11
575.28369775276053
 21
174.86538456617481
 31
0.0
  0
LINE
  5
2069A
  8
SU
 10
575.48369775276035
 20
166.9841110326939
 30
0.0
 11
575.48369775276035
 21
174.9853845661747
 31
0.0
  0
LINE
  5
2069B
  8
SU
 10
575.68369775276062
 20
166.86411103269401
 30
0.0
 11
575.68369775276062
 21
175.10538456617459
 31
0.0
  0
LINE
  5
2069C
  8
SU
 10
575.88369775276044
 20
166.7441110326937
 30
0.0
 11
575.88369775276044
 21
175.22538456617471
 31
0.0
  0
LINE
  5
2069D
  8
SU
 10
576.08369775276014
 20
166.6241110326938
 30
0.0
 11
576.08369775276014
 21
175.3453845661748
 31
0.0
  0
LINE
  5
2069E
  8
SU
 10
576.28369775276053
 20
166.50411103269391
 30
0.0
 11
576.28369775276053
 21
175.46538456617469
 31
0.0
  0
LINE
  5
2069F
  8
SU
 10
576.48369775276035
 20
166.3841110326938
 30
0.0
 11
576.48369775276035
 21
175.58538456617461
 31
0.0
  0
LINE
  5
206A0
  8
SU
 10
576.68369775276062
 20
166.2641110326939
 30
0.0
 11
576.68369775276062
 21
175.7053845661747
 31
0.0
  0
LINE
  5
206A1
  8
SU
 10
576.88369775276044
 20
166.14411103269379
 30
0.0
 11
576.88369775276044
 21
175.82538456617459
 31
0.0
  0
LINE
  5
206A2
  8
SU
 10
577.08369775276014
 20
166.0241110326939
 30
0.0
 11
577.08369775276014
 21
175.94538456617471
 31
0.0
  0
LINE
  5
206A3
  8
SU
 10
577.28369775276053
 20
165.90411103269381
 30
0.0
 11
577.28369775276053
 21
176.0653845661746
 31
0.0
  0
LINE
  5
206A4
  8
SU
 10
577.48369775276035
 20
165.78411103269389
 30
0.0
 11
577.48369775276035
 21
176.1853845661748
 31
0.0
  0
LINE
  5
206A5
  8
SU
 10
577.68369775276062
 20
165.66411103269371
 30
0.0
 11
577.68369775276062
 21
176.30538456617461
 31
0.0
  0
LINE
  5
206A6
  8
SU
 10
577.88369775276044
 20
165.54411103269391
 30
0.0
 11
577.88369775276044
 21
176.4253845661747
 31
0.0
  0
LINE
  5
206A7
  8
SU
 10
578.08369775276014
 20
165.42411103269399
 30
0.0
 11
578.08369775276014
 21
176.54538456617459
 31
0.0
  0
LINE
  5
206A8
  8
SU
 10
578.28369775276053
 20
165.30411103269381
 30
0.0
 11
578.28369775276053
 21
176.66538456617479
 31
0.0
  0
LINE
  5
206A9
  8
SU
 10
578.48369775276035
 20
165.18411103269369
 30
0.0
 11
578.48369775276035
 21
176.78538456617471
 31
0.0
  0
LINE
  5
206AA
  8
SU
 10
578.68369775276062
 20
165.0641110326938
 30
0.0
 11
578.68369775276062
 21
176.9053845661748
 31
0.0
  0
LINE
  5
206AB
  8
SU
 10
577.81596980819324
 20
404.98474684770611
 30
0.0
 11
577.81596980819324
 21
469.48474779943461
 31
0.0
  0
LINE
  5
206AC
  8
SU
 10
717.8159698081945
 20
404.98474684770611
 30
0.0
 11
717.8159698081945
 21
469.48474779943461
 31
0.0
  0
LINE
  5
206AD
  8
SU
 10
577.81596980819324
 20
466.48474779943461
 30
0.0
 11
717.8159698081945
 21
466.48474779943461
 31
0.0
  0
LINE
  5
206B1
  8
SU
 10
1035.815969808194
 20
435.48474779943427
 30
0.0
 11
1035.815969808194
 21
469.48474779943461
 31
0.0
  0
LINE
  5
206B2
  8
SU
 10
726.81597380559833
 20
393.68474901315869
 30
0.0
 11
726.81597380559833
 21
469.48474779943461
 31
0.0
  0
LINE
  5
206B3
  8
SU
 10
1035.815969808194
 20
466.48474779943461
 30
0.0
 11
726.81597380559833
 21
466.48474779943461
 31
0.0
  0
LINE
  5
206B7
  8
SU
 10
1041.815969808194
 20
236.9847477994343
 30
0.0
 11
1041.815969808194
 21
167.9847477994343
 31
0.0
  0
LINE
  5
206B8
  8
SU
 10
568.81596980819324
 20
236.9847477994343
 30
0.0
 11
568.81596980819324
 21
167.9847477994343
 31
0.0
  0
LINE
  5
206B9
  8
SU
 10
1041.815969808194
 20
170.9847477994343
 30
0.0
 11
568.81596980819324
 21
170.9847477994343
 31
0.0
  0
LINE
  5
206BB
  8
SU
 10
927.81596980819438
 20
297.4847477994316
 30
0.0
 11
927.81596980819438
 21
207.9847477994343
 31
0.0
  0
LINE
  5
206BC
  8
SU
 10
892.8159698081945
 20
210.9847477994343
 30
0.0
 11
927.81596980819438
 21
210.9847477994343
 31
0.0
  0
LINE
  5
206C0
  8
SU
 10
1032.815969808194
 20
261.4847487511625
 30
0.0
 11
1032.815969808194
 21
187.9847477994343
 31
0.0
  0
LINE
  5
206C1
  8
SU
 10
892.8159698081945
 20
261.4847487511625
 30
0.0
 11
892.8159698081945
 21
187.9847477994343
 31
0.0
  0
LINE
  5
206C2
  8
SU
 10
1032.815969808194
 20
190.9847477994343
 30
0.0
 11
892.8159698081945
 21
190.9847477994343
 31
0.0
  0
LINE
  5
206C6
  8
SU
 10
823.8159698081945
 20
367.98474684770622
 30
0.0
 11
864.67114432989104
 21
367.98474684770622
 31
0.0
  0
LINE
  5
206C7
  8
SU
 10
823.8159698081945
 20
334.9847477994316
 30
0.0
 11
864.67114432989104
 21
334.9847477994316
 31
0.0
  0
LINE
  5
206C8
  8
SU
 10
861.67114432989092
 20
367.98474684770622
 30
0.0
 11
861.67114432989092
 21
334.9847477994316
 31
0.0
  0
LINE
  5
206CC
  8
SU
 10
891.8159698081945
 20
295.48474779943712
 30
0.0
 11
858.67114432989092
 21
295.48474779943712
 31
0.0
  0
LINE
  5
206CD
  8
SU
 10
891.92114432989138
 20
262.4847487511625
 30
0.0
 11
858.67114432989092
 21
262.4847487511625
 31
0.0
  0
LINE
  5
206CE
  8
SU
 10
861.67114432989092
 20
295.48474779943712
 30
0.0
 11
861.67114432989092
 21
262.4847487511625
 31
0.0
  0
LINE
  5
206D2
  8
SU
 10
861.67114432989104
 20
298.4847477994316
 30
0.0
 11
861.67114432989104
 21
295.48474779944269
 31
0.0
  0
LINE
  5
206D4
  8
SU
 10
891.8159698081945
 20
298.4847477994316
 30
0.0
 11
858.67114432989092
 21
298.4847477994316
 31
0.0
  0
LINE
  5
206D5
  8
SU
 10
891.8159698081945
 20
331.48474684770622
 30
0.0
 11
858.67114432989092
 21
331.48474684770622
 31
0.0
  0
LINE
  5
206D6
  8
SU
 10
861.67114432989092
 20
298.4847477994316
 30
0.0
 11
861.67114432989092
 21
331.48474684770622
 31
0.0
  0
LINE
  5
206DA
  8
SU
 10
165.19706926110339
 20
126.183031098744
 30
0.0
 11
165.19706926110339
 21
161.17861459537539
 31
0.0
  0
LINE
  5
206DB
  8
SU
 10
309.19700926124739
 20
126.183031098744
 30
0.0
 11
309.19700926124739
 21
161.17861459537539
 31
0.0
  0
LINE
  5
206DC
  8
SU
 10
165.19706926110339
 20
158.17861459537539
 30
0.0
 11
309.19700926124739
 21
158.17861459537539
 31
0.0
  0
LINE
  5
206E0
  8
SU
 10
162.0970416945683
 20
590.62041032103377
 30
0.0
 11
312.29704926133218
 21
590.62041032103377
 31
0.0
  0
LINE
  5
206E4
  8
SU
 10
238.9470416945683
 20
570.62041032103377
 30
0.0
 11
271.9470416945685
 21
570.62041032103377
 31
0.0
  0
LINE
  5
206E6
  8
SU
 10
235.4470492611749
 20
586.62041032103377
 30
0.0
 11
235.4470492611749
 21
567.62041032103389
 31
0.0
  0
LINE
  5
206E7
  8
SU
 10
238.9470492611749
 20
586.62041032103377
 30
0.0
 11
238.9470492611749
 21
567.62041032103389
 31
0.0
  0
LINE
  5
206E8
  8
SU
 10
235.4470492611749
 20
570.62041032103377
 30
0.0
 11
238.9470492611749
 21
570.62041032103377
 31
0.0
  0
LINE
  5
206ED
  8
SU
 10
301.44704926131197
 20
327.10574394672938
 30
0.0
 11
301.44704926131197
 21
292.10574394672938
 31
0.0
  0
LINE
  5
206EE
  8
SU
 10
245.44704926131359
 20
295.10574394672938
 30
0.0
 11
301.44704926131197
 21
295.10574394672938
 31
0.0
  0
LINE
  5
206F2
  8
SU
 10
228.94704926131359
 20
327.1057439467258
 30
0.0
 11
228.94704926131359
 21
292.10574394672938
 31
0.0
  0
LINE
  5
206F3
  8
SU
 10
245.44704926131359
 20
327.1057439467258
 30
0.0
 11
245.44704926131359
 21
292.10574394672938
 31
0.0
  0
LINE
  5
206F4
  8
SU
 10
228.94704926131359
 20
295.10574394672938
 30
0.0
 11
245.44704926131359
 21
295.10574394672938
 31
0.0
  0
LINE
  5
206F8
  8
SU
 10
172.94704926131519
 20
327.10574394672608
 30
0.0
 11
172.94704926131519
 21
292.10574394672562
 31
0.0
  0
LINE
  5
206FA
  8
SU
 10
172.94704926131519
 20
295.10574394672562
 30
0.0
 11
228.94704926131359
 21
295.10574394672562
 31
0.0
  0
LINE
  5
206FE
  8
SU
 10
202.4470416945683
 20
570.62041032103377
 30
0.0
 11
235.4470492611749
 21
570.62041032103377
 31
0.0
  0
LINE
  5
20700
  8
SU
 10
274.94705804285672
 20
570.62041032103377
 30
0.0
 11
307.9470504762503
 21
570.62041032103377
 31
0.0
  0
LINE
  5
20702
  8
SU
 10
438.19704926140031
 20
654.10574394563093
 30
0.0
 11
432.19704926140042
 21
664.10574394563093
 31
0.0
  0
LINE
  5
20703
  8
SU
 10
426.19704926140031
 20
654.10574394563093
 30
0.0
 11
432.19704926140042
 21
664.10574394563093
 31
0.0
  0
LINE
  5
20704
  8
SU
 10
438.19704926140031
 20
654.10574394563093
 30
0.0
 11
426.19704926140031
 21
654.10574394563093
 31
0.0
  0
LINE
  5
20705
  8
SU
 10
432.2376860281409
 20
664.03801600106374
 30
0.0
 11
432.15641249466
 21
664.03801600106374
 31
0.0
  0
LINE
  5
20706
  8
SU
 10
432.35768602814079
 20
663.83801600106392
 30
0.0
 11
432.03641249466011
 21
663.83801600106392
 31
0.0
  0
LINE
  5
20707
  8
SU
 10
432.47768602814091
 20
663.63801600106365
 30
0.0
 11
431.91641249465999
 21
663.63801600106365
 31
0.0
  0
LINE
  5
20708
  8
SU
 10
432.5976860281408
 20
663.43801600106383
 30
0.0
 11
431.79641249465982
 21
663.43801600106383
 31
0.0
  0
LINE
  5
20709
  8
SU
 10
432.71768602814069
 20
663.23801600106356
 30
0.0
 11
431.67641249465993
 21
663.23801600106356
 31
0.0
  0
LINE
  5
2070A
  8
SU
 10
432.83768602814081
 20
663.03801600106374
 30
0.0
 11
431.55641249465998
 21
663.03801600106374
 31
0.0
  0
LINE
  5
2070B
  8
SU
 10
432.95768602814093
 20
662.83801600106392
 30
0.0
 11
431.43641249465998
 21
662.83801600106392
 31
0.0
  0
LINE
  5
2070C
  8
SU
 10
433.07768602814082
 20
662.63801600106365
 30
0.0
 11
431.3164124946598
 21
662.63801600106365
 31
0.0
  0
LINE
  5
2070D
  8
SU
 10
433.19768602814071
 20
662.43801600106383
 30
0.0
 11
431.19641249465991
 21
662.43801600106383
 31
0.0
  0
LINE
  5
2070E
  8
SU
 10
433.3176860281406
 20
662.23801600106356
 30
0.0
 11
431.07641249466002
 21
662.23801600106356
 31
0.0
  0
LINE
  5
2070F
  8
SU
 10
433.437686028141
 20
662.03801600106374
 30
0.0
 11
430.9564124946599
 21
662.03801600106374
 31
0.0
  0
LINE
  5
20710
  8
SU
 10
433.55768602814089
 20
661.83801600106392
 30
0.0
 11
430.83641249465978
 21
661.83801600106392
 31
0.0
  0
LINE
  5
20711
  8
SU
 10
433.67768602814078
 20
661.63801600106365
 30
0.0
 11
430.71641249465989
 21
661.63801600106365
 31
0.0
  0
LINE
  5
20712
  8
SU
 10
433.7976860281409
 20
661.43801600106383
 30
0.0
 11
430.59641249466
 21
661.43801600106383
 31
0.0
  0
LINE
  5
20713
  8
SU
 10
433.91768602814079
 20
661.23801600106356
 30
0.0
 11
430.47641249465988
 21
661.23801600106356
 31
0.0
  0
LINE
  5
20714
  8
SU
 10
434.0376860281408
 20
661.03801600106374
 30
0.0
 11
430.35641249465999
 21
661.03801600106374
 31
0.0
  0
LINE
  5
20715
  8
SU
 10
434.15768602814069
 20
660.83801600106392
 30
0.0
 11
430.23641249465987
 21
660.83801600106392
 31
0.0
  0
LINE
  5
20716
  8
SU
 10
434.27768602814092
 20
660.63801600106365
 30
0.0
 11
430.11641249465998
 21
660.63801600106365
 31
0.0
  0
LINE
  5
20717
  8
SU
 10
434.39768602814081
 20
660.43801600106383
 30
0.0
 11
429.99641249465981
 21
660.43801600106383
 31
0.0
  0
LINE
  5
20718
  8
SU
 10
434.51768602814087
 20
660.23801600106356
 30
0.0
 11
429.87641249465992
 21
660.23801600106356
 31
0.0
  0
LINE
  5
20719
  8
SU
 10
434.63768602814082
 20
660.03801600106374
 30
0.0
 11
429.75641249465991
 21
660.03801600106374
 31
0.0
  0
LINE
  5
2071A
  8
SU
 10
434.75768602814071
 20
659.83801600106392
 30
0.0
 11
429.63641249466002
 21
659.83801600106392
 31
0.0
  0
LINE
  5
2071B
  8
SU
 10
434.87768602814077
 20
659.63801600106365
 30
0.0
 11
429.5164124946599
 21
659.63801600106365
 31
0.0
  0
LINE
  5
2071C
  8
SU
 10
434.99768602814089
 20
659.43801600106383
 30
0.0
 11
429.39641249466001
 21
659.43801600106383
 31
0.0
  0
LINE
  5
2071D
  8
SU
 10
435.11768602814078
 20
659.23801600106356
 30
0.0
 11
429.27641249465978
 21
659.23801600106356
 31
0.0
  0
LINE
  5
2071E
  8
SU
 10
435.2376860281409
 20
659.03801600106374
 30
0.0
 11
429.15641249465989
 21
659.03801600106374
 31
0.0
  0
LINE
  5
2071F
  8
SU
 10
435.35768602814079
 20
658.83801600106392
 30
0.0
 11
429.03641249466
 21
658.83801600106392
 31
0.0
  0
LINE
  5
20720
  8
SU
 10
435.47768602814091
 20
658.63801600106365
 30
0.0
 11
428.91641249465999
 21
658.63801600106365
 31
0.0
  0
LINE
  5
20721
  8
SU
 10
435.5976860281408
 20
658.43801600106383
 30
0.0
 11
428.79641249465982
 21
658.43801600106383
 31
0.0
  0
LINE
  5
20722
  8
SU
 10
435.71768602814069
 20
658.23801600106356
 30
0.0
 11
428.67641249465993
 21
658.23801600106356
 31
0.0
  0
LINE
  5
20723
  8
SU
 10
435.83768602814081
 20
658.03801600106374
 30
0.0
 11
428.55641249466009
 21
658.03801600106374
 31
0.0
  0
LINE
  5
20724
  8
SU
 10
435.95768602814098
 20
657.83801600106392
 30
0.0
 11
428.43641249465992
 21
657.83801600106392
 31
0.0
  0
LINE
  5
20725
  8
SU
 10
436.07768602814087
 20
657.63801600106365
 30
0.0
 11
428.31641249465991
 21
657.63801600106365
 31
0.0
  0
LINE
  5
20726
  8
SU
 10
436.19768602814082
 20
657.43801600106383
 30
0.0
 11
428.19641249466002
 21
657.43801600106383
 31
0.0
  0
LINE
  5
20727
  8
SU
 10
436.3176860281406
 20
657.23801600106356
 30
0.0
 11
428.07641249466008
 21
657.23801600106356
 31
0.0
  0
LINE
  5
20728
  8
SU
 10
436.43768602814089
 20
657.03801600106374
 30
0.0
 11
427.9564124946599
 21
657.03801600106374
 31
0.0
  0
LINE
  5
20729
  8
SU
 10
436.55768602814078
 20
656.83801600106392
 30
0.0
 11
427.83641249465978
 21
656.83801600106392
 31
0.0
  0
LINE
  5
2072A
  8
SU
 10
436.67768602814073
 20
656.63801600106365
 30
0.0
 11
427.71641249465989
 21
656.63801600106365
 31
0.0
  0
LINE
  5
2072B
  8
SU
 10
436.7976860281409
 20
656.43801600106383
 30
0.0
 11
427.59641249466
 21
656.43801600106383
 31
0.0
  0
LINE
  5
2072C
  8
SU
 10
436.91768602814079
 20
656.23801600106356
 30
0.0
 11
427.47641249465988
 21
656.23801600106356
 31
0.0
  0
LINE
  5
2072D
  8
SU
 10
437.03768602814091
 20
656.03801600106374
 30
0.0
 11
427.35641249465999
 21
656.03801600106374
 31
0.0
  0
LINE
  5
2072E
  8
SU
 10
437.1576860281408
 20
655.83801600106392
 30
0.0
 11
427.23641249465987
 21
655.83801600106392
 31
0.0
  0
LINE
  5
2072F
  8
SU
 10
437.27768602814092
 20
655.63801600106365
 30
0.0
 11
427.11641249465998
 21
655.63801600106365
 31
0.0
  0
LINE
  5
20730
  8
SU
 10
437.39768602814081
 20
655.43801600106383
 30
0.0
 11
426.99641249465992
 21
655.43801600106383
 31
0.0
  0
LINE
  5
20731
  8
SU
 10
437.51768602814087
 20
655.23801600106356
 30
0.0
 11
426.87641249465997
 21
655.23801600106356
 31
0.0
  0
LINE
  5
20732
  8
SU
 10
437.63768602814082
 20
655.03801600106374
 30
0.0
 11
426.7564124946598
 21
655.03801600106374
 31
0.0
  0
LINE
  5
20733
  8
SU
 10
437.75768602814071
 20
654.83801600106392
 30
0.0
 11
426.63641249466002
 21
654.83801600106392
 31
0.0
  0
LINE
  5
20734
  8
SU
 10
437.87768602814077
 20
654.63801600106365
 30
0.0
 11
426.5164124946599
 21
654.63801600106365
 31
0.0
  0
LINE
  5
20735
  8
SU
 10
437.99768602814089
 20
654.43801600106383
 30
0.0
 11
426.39641249466001
 21
654.43801600106383
 31
0.0
  0
LINE
  5
20736
  8
SU
 10
438.11768602814078
 20
654.23801600106356
 30
0.0
 11
426.27641249465978
 21
654.23801600106356
 31
0.0
  0
LINE
  5
20737
  8
SU
 10
438.19704926140008
 20
338.10574394672591
 30
0.0
 11
432.19704926140008
 21
328.10574394672591
 31
0.0
  0
LINE
  5
20738
  8
SU
 10
426.19704926140008
 20
338.10574394672591
 30
0.0
 11
432.19704926140008
 21
328.10574394672591
 31
0.0
  0
LINE
  5
20739
  8
SU
 10
438.19704926140008
 20
338.10574394672591
 30
0.0
 11
426.19704926140008
 21
338.10574394672591
 31
0.0
  0
LINE
  5
2073A
  8
SU
 10
432.23768602814067
 20
328.1734718912931
 30
0.0
 11
432.15641249465972
 21
328.1734718912931
 31
0.0
  0
LINE
  5
2073B
  8
SU
 10
432.35768602814062
 20
328.37347189129292
 30
0.0
 11
432.03641249465988
 21
328.37347189129292
 31
0.0
  0
LINE
  5
2073C
  8
SU
 10
432.47768602814068
 20
328.5734718912932
 30
0.0
 11
431.91641249465971
 21
328.5734718912932
 31
0.0
  0
LINE
  5
2073D
  8
SU
 10
432.59768602814057
 20
328.77347189129301
 30
0.0
 11
431.79641249465959
 21
328.77347189129301
 31
0.0
  0
LINE
  5
2073E
  8
SU
 10
432.71768602814041
 20
328.97347189129317
 30
0.0
 11
431.67641249465981
 21
328.97347189129317
 31
0.0
  0
LINE
  5
2073F
  8
SU
 10
432.83768602814058
 20
329.17347189129299
 30
0.0
 11
431.55641249465992
 21
329.17347189129299
 31
0.0
  0
LINE
  5
20740
  8
SU
 10
432.9576860281407
 20
329.37347189129292
 30
0.0
 11
431.43641249465969
 21
329.37347189129292
 31
0.0
  0
LINE
  5
20741
  8
SU
 10
433.07768602814059
 20
329.57347189129308
 30
0.0
 11
431.31641249465957
 21
329.57347189129308
 31
0.0
  0
LINE
  5
20742
  8
SU
 10
433.19768602814048
 20
329.77347189129301
 30
0.0
 11
431.19641249465968
 21
329.77347189129301
 31
0.0
  0
LINE
  5
20743
  8
SU
 10
433.31768602814037
 20
329.97347189129317
 30
0.0
 11
431.07641249465979
 21
329.97347189129317
 31
0.0
  0
LINE
  5
20744
  8
SU
 10
433.43768602814072
 20
330.1734718912931
 30
0.0
 11
430.95641249465967
 21
330.1734718912931
 31
0.0
  0
LINE
  5
20745
  8
SU
 10
433.55768602814061
 20
330.37347189129292
 30
0.0
 11
430.83641249465961
 21
330.37347189129292
 31
0.0
  0
LINE
  5
20746
  8
SU
 10
433.6776860281405
 20
330.5734718912932
 30
0.0
 11
430.71641249465972
 21
330.5734718912932
 31
0.0
  0
LINE
  5
20747
  8
SU
 10
433.79768602814067
 20
330.77347189129301
 30
0.0
 11
430.59641249465977
 21
330.77347189129301
 31
0.0
  0
LINE
  5
20748
  8
SU
 10
433.91768602814051
 20
330.97347189129317
 30
0.0
 11
430.47641249465971
 21
330.97347189129317
 31
0.0
  0
LINE
  5
20749
  8
SU
 10
434.03768602814068
 20
331.17347189129299
 30
0.0
 11
430.35641249465982
 21
331.17347189129299
 31
0.0
  0
LINE
  5
2074A
  8
SU
 10
434.15768602814052
 20
331.37347189129292
 30
0.0
 11
430.23641249465959
 21
331.37347189129292
 31
0.0
  0
LINE
  5
2074B
  8
SU
 10
434.27768602814058
 20
331.57347189129308
 30
0.0
 11
430.1164124946597
 21
331.57347189129308
 31
0.0
  0
LINE
  5
2074C
  8
SU
 10
434.39768602814053
 20
331.77347189129301
 30
0.0
 11
429.99641249465969
 21
331.77347189129301
 31
0.0
  0
LINE
  5
2074D
  8
SU
 10
434.5176860281407
 20
331.97347189129317
 30
0.0
 11
429.8764124946598
 21
331.97347189129317
 31
0.0
  0
LINE
  5
2074E
  8
SU
 10
434.63768602814059
 20
332.1734718912931
 30
0.0
 11
429.75641249465963
 21
332.1734718912931
 31
0.0
  0
LINE
  5
2074F
  8
SU
 10
434.75768602814048
 20
332.37347189129292
 30
0.0
 11
429.63641249465979
 21
332.37347189129292
 31
0.0
  0
LINE
  5
20750
  8
SU
 10
434.8776860281406
 20
332.5734718912932
 30
0.0
 11
429.51641249465962
 21
332.5734718912932
 31
0.0
  0
LINE
  5
20751
  8
SU
 10
434.99768602814072
 20
332.77347189129301
 30
0.0
 11
429.39641249465973
 21
332.77347189129301
 31
0.0
  0
LINE
  5
20752
  8
SU
 10
435.1176860281405
 20
332.97347189129317
 30
0.0
 11
429.27641249465972
 21
332.97347189129317
 31
0.0
  0
LINE
  5
20753
  8
SU
 10
435.23768602814067
 20
333.17347189129299
 30
0.0
 11
429.15641249465978
 21
333.17347189129299
 31
0.0
  0
LINE
  5
20754
  8
SU
 10
435.35768602814062
 20
333.37347189129292
 30
0.0
 11
429.03641249465988
 21
333.37347189129292
 31
0.0
  0
LINE
  5
20755
  8
SU
 10
435.47768602814068
 20
333.57347189129308
 30
0.0
 11
428.91641249465971
 21
333.57347189129308
 31
0.0
  0
LINE
  5
20756
  8
SU
 10
435.59768602814057
 20
333.77347189129301
 30
0.0
 11
428.79641249465959
 21
333.77347189129301
 31
0.0
  0
LINE
  5
20757
  8
SU
 10
435.71768602814052
 20
333.97347189129317
 30
0.0
 11
428.6764124946597
 21
333.97347189129317
 31
0.0
  0
LINE
  5
20758
  8
SU
 10
435.83768602814058
 20
334.1734718912931
 30
0.0
 11
428.55641249465981
 21
334.1734718912931
 31
0.0
  0
LINE
  5
20759
  8
SU
 10
435.9576860281407
 20
334.37347189129292
 30
0.0
 11
428.43641249465981
 21
334.37347189129292
 31
0.0
  0
LINE
  5
2075A
  8
SU
 10
436.07768602814059
 20
334.5734718912932
 30
0.0
 11
428.31641249465957
 21
334.5734718912932
 31
0.0
  0
LINE
  5
2075B
  8
SU
 10
436.19768602814048
 20
334.77347189129301
 30
0.0
 11
428.19641249465968
 21
334.77347189129301
 31
0.0
  0
LINE
  5
2075C
  8
SU
 10
436.31768602814037
 20
334.97347189129317
 30
0.0
 11
428.07641249465979
 21
334.97347189129317
 31
0.0
  0
LINE
  5
2075D
  8
SU
 10
436.43768602814072
 20
335.17347189129299
 30
0.0
 11
427.95641249465967
 21
335.17347189129299
 31
0.0
  0
LINE
  5
2075E
  8
SU
 10
436.55768602814061
 20
335.37347189129281
 30
0.0
 11
427.83641249465961
 21
335.37347189129281
 31
0.0
  0
LINE
  5
2075F
  8
SU
 10
436.6776860281405
 20
335.57347189129308
 30
0.0
 11
427.71641249465972
 21
335.57347189129308
 31
0.0
  0
LINE
  5
20760
  8
SU
 10
436.79768602814062
 20
335.77347189129301
 30
0.0
 11
427.59641249465977
 21
335.77347189129301
 31
0.0
  0
LINE
  5
20761
  8
SU
 10
436.91768602814051
 20
335.97347189129317
 30
0.0
 11
427.47641249465971
 21
335.97347189129317
 31
0.0
  0
LINE
  5
20762
  8
SU
 10
437.03768602814068
 20
336.1734718912931
 30
0.0
 11
427.35641249465982
 21
336.1734718912931
 31
0.0
  0
LINE
  5
20763
  8
SU
 10
437.15768602814057
 20
336.37347189129292
 30
0.0
 11
427.2364124946597
 21
336.37347189129292
 31
0.0
  0
LINE
  5
20764
  8
SU
 10
437.27768602814058
 20
336.5734718912932
 30
0.0
 11
427.11641249465981
 21
336.5734718912932
 31
0.0
  0
LINE
  5
20765
  8
SU
 10
437.39768602814053
 20
336.77347189129301
 30
0.0
 11
426.99641249465958
 21
336.77347189129301
 31
0.0
  0
LINE
  5
20766
  8
SU
 10
437.51768602814059
 20
336.97347189129317
 30
0.0
 11
426.87641249465969
 21
336.97347189129317
 31
0.0
  0
LINE
  5
20767
  8
SU
 10
437.63768602814048
 20
337.17347189129299
 30
0.0
 11
426.75641249465968
 21
337.17347189129299
 31
0.0
  0
LINE
  5
20768
  8
SU
 10
437.75768602814043
 20
337.37347189129281
 30
0.0
 11
426.63641249465979
 21
337.37347189129281
 31
0.0
  0
LINE
  5
20769
  8
SU
 10
437.8776860281406
 20
337.57347189129308
 30
0.0
 11
426.51641249465962
 21
337.57347189129308
 31
0.0
  0
LINE
  5
2076A
  8
SU
 10
437.99768602814072
 20
337.7734718912929
 30
0.0
 11
426.39641249465973
 21
337.7734718912929
 31
0.0
  0
LINE
  5
2076B
  8
SU
 10
438.11768602814061
 20
337.97347189129317
 30
0.0
 11
426.27641249465961
 21
337.97347189129317
 31
0.0
  0
LINE
  5
2076C
  8
SU
 10
438.1970492614002
 20
134.28300748772079
 30
0.0
 11
432.1970492614002
 21
124.28300748772079
 31
0.0
  0
LINE
  5
2076D
  8
SU
 10
426.1970492614002
 20
134.28300748772079
 30
0.0
 11
432.1970492614002
 21
124.28300748772079
 31
0.0
  0
LINE
  5
2076E
  8
SU
 10
438.1970492614002
 20
134.28300748772079
 30
0.0
 11
426.1970492614002
 21
134.28300748772079
 31
0.0
  0
LINE
  5
2076F
  8
SU
 10
432.23768602814079
 20
124.350735432288
 30
0.0
 11
432.15641249465989
 21
124.350735432288
 31
0.0
  0
LINE
  5
20770
  8
SU
 10
432.35768602814068
 20
124.55073543228779
 30
0.0
 11
432.03641249466
 21
124.55073543228779
 31
0.0
  0
LINE
  5
20771
  8
SU
 10
432.47768602814079
 20
124.7507354322881
 30
0.0
 11
431.91641249465982
 21
124.7507354322881
 31
0.0
  0
LINE
  5
20772
  8
SU
 10
432.59768602814069
 20
124.9507354322879
 30
0.0
 11
431.79641249465971
 21
124.9507354322879
 31
0.0
  0
LINE
  5
20773
  8
SU
 10
432.71768602814058
 20
125.1507354322882
 30
0.0
 11
431.67641249465981
 21
125.1507354322882
 31
0.0
  0
LINE
  5
20774
  8
SU
 10
432.83768602814069
 20
125.350735432288
 30
0.0
 11
431.55641249465992
 21
125.350735432288
 31
0.0
  0
LINE
  5
20775
  8
SU
 10
432.95768602814093
 20
125.55073543228779
 30
0.0
 11
431.43641249465992
 21
125.55073543228779
 31
0.0
  0
LINE
  5
20776
  8
SU
 10
433.07768602814082
 20
125.7507354322881
 30
0.0
 11
431.31641249465969
 21
125.7507354322881
 31
0.0
  0
LINE
  5
20777
  8
SU
 10
433.19768602814071
 20
125.9507354322879
 30
0.0
 11
431.1964124946598
 21
125.9507354322879
 31
0.0
  0
LINE
  5
20778
  8
SU
 10
433.31768602814049
 20
126.1507354322882
 30
0.0
 11
431.07641249465991
 21
126.1507354322882
 31
0.0
  0
LINE
  5
20779
  8
SU
 10
433.43768602814077
 20
126.350735432288
 30
0.0
 11
430.95641249465979
 21
126.350735432288
 31
0.0
  0
LINE
  5
2077A
  8
SU
 10
433.55768602814072
 20
126.55073543228779
 30
0.0
 11
430.83641249465973
 21
126.55073543228779
 31
0.0
  0
LINE
  5
2077B
  8
SU
 10
433.67768602814061
 20
126.7507354322881
 30
0.0
 11
430.71641249465978
 21
126.7507354322881
 31
0.0
  0
LINE
  5
2077C
  8
SU
 10
433.79768602814079
 20
126.9507354322879
 30
0.0
 11
430.59641249465989
 21
126.9507354322879
 31
0.0
  0
LINE
  5
2077D
  8
SU
 10
433.91768602814068
 20
127.1507354322882
 30
0.0
 11
430.47641249465983
 21
127.1507354322882
 31
0.0
  0
LINE
  5
2077E
  8
SU
 10
434.03768602814068
 20
127.350735432288
 30
0.0
 11
430.35641249465988
 21
127.350735432288
 31
0.0
  0
LINE
  5
2077F
  8
SU
 10
434.15768602814057
 20
127.55073543228779
 30
0.0
 11
430.23641249465982
 21
127.55073543228779
 31
0.0
  0
LINE
  5
20780
  8
SU
 10
434.27768602814081
 20
127.7507354322881
 30
0.0
 11
430.11641249465993
 21
127.7507354322881
 31
0.0
  0
LINE
  5
20781
  8
SU
 10
434.3976860281407
 20
127.9507354322879
 30
0.0
 11
429.99641249465981
 21
127.9507354322879
 31
0.0
  0
LINE
  5
20782
  8
SU
 10
434.51768602814082
 20
128.1507354322882
 30
0.0
 11
429.87641249465992
 21
128.1507354322882
 31
0.0
  0
LINE
  5
20783
  8
SU
 10
434.63768602814071
 20
128.35073543228799
 30
0.0
 11
429.7564124946598
 21
128.35073543228799
 31
0.0
  0
LINE
  5
20784
  8
SU
 10
434.7576860281406
 20
128.55073543228781
 30
0.0
 11
429.63641249465991
 21
128.55073543228781
 31
0.0
  0
LINE
  5
20785
  8
SU
 10
434.8776860281406
 20
128.75073543228811
 30
0.0
 11
429.51641249465968
 21
128.75073543228811
 31
0.0
  0
LINE
  5
20786
  8
SU
 10
434.99768602814078
 20
128.9507354322879
 30
0.0
 11
429.39641249465978
 21
128.9507354322879
 31
0.0
  0
LINE
  5
20787
  8
SU
 10
435.11768602814072
 20
129.1507354322882
 30
0.0
 11
429.27641249465972
 21
129.1507354322882
 31
0.0
  0
LINE
  5
20788
  8
SU
 10
435.23768602814079
 20
129.35073543228799
 30
0.0
 11
429.15641249465989
 21
129.35073543228799
 31
0.0
  0
LINE
  5
20789
  8
SU
 10
435.35768602814068
 20
129.55073543228789
 30
0.0
 11
429.03641249466
 21
129.55073543228789
 31
0.0
  0
LINE
  5
2078A
  8
SU
 10
435.47768602814079
 20
129.75073543228811
 30
0.0
 11
428.91641249465988
 21
129.75073543228811
 31
0.0
  0
LINE
  5
2078B
  8
SU
 10
435.59768602814069
 20
129.9507354322879
 30
0.0
 11
428.79641249465971
 21
129.9507354322879
 31
0.0
  0
LINE
  5
2078C
  8
SU
 10
435.71768602814058
 20
130.1507354322882
 30
0.0
 11
428.67641249465981
 21
130.1507354322882
 31
0.0
  0
LINE
  5
2078D
  8
SU
 10
435.83768602814069
 20
130.35073543228799
 30
0.0
 11
428.55641249465992
 21
130.35073543228799
 31
0.0
  0
LINE
  5
2078E
  8
SU
 10
435.95768602814081
 20
130.55073543228789
 30
0.0
 11
428.43641249465981
 21
130.55073543228789
 31
0.0
  0
LINE
  5
2078F
  8
SU
 10
436.0776860281407
 20
130.75073543228811
 30
0.0
 11
428.31641249465969
 21
130.75073543228811
 31
0.0
  0
LINE
  5
20790
  8
SU
 10
436.19768602814059
 20
130.9507354322879
 30
0.0
 11
428.1964124946598
 21
130.9507354322879
 31
0.0
  0
LINE
  5
20791
  8
SU
 10
436.31768602814049
 20
131.1507354322882
 30
0.0
 11
428.07641249465991
 21
131.1507354322882
 31
0.0
  0
LINE
  5
20792
  8
SU
 10
436.43768602814077
 20
131.35073543228799
 30
0.0
 11
427.95641249465979
 21
131.35073543228799
 31
0.0
  0
LINE
  5
20793
  8
SU
 10
436.55768602814072
 20
131.55073543228781
 30
0.0
 11
427.83641249465973
 21
131.55073543228781
 31
0.0
  0
LINE
  5
20794
  8
SU
 10
436.67768602814061
 20
131.75073543228811
 30
0.0
 11
427.71641249465978
 21
131.75073543228811
 31
0.0
  0
LINE
  5
20795
  8
SU
 10
436.79768602814079
 20
131.9507354322879
 30
0.0
 11
427.59641249465989
 21
131.9507354322879
 31
0.0
  0
LINE
  5
20796
  8
SU
 10
436.91768602814062
 20
132.1507354322882
 30
0.0
 11
427.47641249465983
 21
132.1507354322882
 31
0.0
  0
LINE
  5
20797
  8
SU
 10
437.0376860281408
 20
132.35073543228799
 30
0.0
 11
427.35641249465988
 21
132.35073543228799
 31
0.0
  0
LINE
  5
20798
  8
SU
 10
437.15768602814069
 20
132.55073543228781
 30
0.0
 11
427.23641249465982
 21
132.55073543228781
 31
0.0
  0
LINE
  5
20799
  8
SU
 10
437.27768602814069
 20
132.75073543228811
 30
0.0
 11
427.11641249465993
 21
132.75073543228811
 31
0.0
  0
LINE
  5
2079A
  8
SU
 10
437.39768602814058
 20
132.9507354322879
 30
0.0
 11
426.99641249465969
 21
132.9507354322879
 31
0.0
  0
LINE
  5
2079B
  8
SU
 10
437.51768602814082
 20
133.1507354322882
 30
0.0
 11
426.8764124946598
 21
133.1507354322882
 31
0.0
  0
LINE
  5
2079C
  8
SU
 10
437.63768602814071
 20
133.35073543228799
 30
0.0
 11
426.7564124946598
 21
133.35073543228799
 31
0.0
  0
LINE
  5
2079D
  8
SU
 10
437.7576860281406
 20
133.55073543228781
 30
0.0
 11
426.63641249465991
 21
133.55073543228781
 31
0.0
  0
LINE
  5
2079E
  8
SU
 10
437.87768602814072
 20
133.75073543228811
 30
0.0
 11
426.51641249465979
 21
133.75073543228811
 31
0.0
  0
LINE
  5
2079F
  8
SU
 10
437.99768602814078
 20
133.9507354322879
 30
0.0
 11
426.3964124946599
 21
133.9507354322879
 31
0.0
  0
LINE
  5
207A0
  8
SU
 10
438.11768602814061
 20
134.1507354322882
 30
0.0
 11
426.27641249465972
 21
134.1507354322882
 31
0.0
  0
LINE
  5
207A1
  8
SU
 10
166.4470492611749
 20
626.10574473009865
 30
0.0
 11
166.4470492611749
 21
567.37649349545154
 31
0.0
  0
LINE
  5
207A2
  8
SU
 10
162.0970416945683
 20
623.10574424387733
 30
0.0
 11
162.0970416945683
 21
567.37649349545154
 31
0.0
  0
LINE
  5
207A3
  8
SU
 10
166.4470492611749
 20
570.37649349545154
 30
0.0
 11
162.0970416945683
 21
570.37649349545154
 31
0.0
  0
LINE
  5
207A4
  8
SU
 10
162.0970416945683
 20
570.37649349545154
 30
0.0
 11
130.5303750279017
 21
570.37649349545154
 31
0.0
  0
LINE
  5
207A8
  8
SU
 10
307.94704926117493
 20
626.10574473009865
 30
0.0
 11
307.94704926117493
 21
567.62041032103389
 31
0.0
  0
LINE
  5
207A9
  8
SU
 10
312.29698709769059
 20
623.10574424387733
 30
0.0
 11
312.29698709769059
 21
567.62041032103389
 31
0.0
  0
LINE
  5
207AA
  8
SU
 10
307.94704926117493
 20
570.62041032103377
 30
0.0
 11
312.29698709769059
 21
570.62041032103377
 31
0.0
  0
LINE
  5
207AB
  8
SU
 10
312.29698709769059
 20
570.62041032103377
 30
0.0
 11
343.86365376435731
 21
570.62041032103377
 31
0.0
  0
LINE
  5
207AF
  8
OS
 10
167.6970416945685
 20
673.60574394563082
 30
0.0
 11
306.6970504762503
 21
673.60574394563082
 31
0.0
1001
GENIUS_GENREC_14
1002
{
1000
PYDIR
1011
167.6970416945685
1021
0.0
1031
0.0
1021
664.10574394563082
1031
0.0
1002
}
1002
{
1000
PXDIR
1011
306.6970504762503
1021
0.0
1031
0.0
1021
673.60574394563082
1031
0.0
1002
}
1002
{
1000
PORI
1011
167.6970416945685
1021
0.0
1031
0.0
1021
673.60574394563082
1031
0.0
1002
}
1002
{
1000
PINS
1011
167.6970416945685
1021
0.0
1031
0.0
1021
673.60574394563082
1031
0.0
1002
}
1002
{
1000
PINS2
1011
306.6970504762503
1021
0.0
1031
0.0
1021
664.10574394563082
1031
0.0
1002
}
1002
{
1000
C
1070
     1
1002
}
1001
GENIUS_GENODEF_13
1002
{
1000
HIER
1070
     0
1002
}
1002
{
1000
MANEDIT
1070
     0
1002
}
1002
{
1000
NOSEL
1070
     0
1002
}
1002
{
1000
BEHIND
1070
     0
1002
}
1002
{
1000
OTHER
1070
     0
1002
}
1002
{
1000
REACTOR
1002
}
1001
GENIUS_GENOBJ-N-REC_13
1002
{
1000
OWNER
1000
GEN
1002
}
  0
LINE
  5
207B0
  8
OS
 10
306.6970504762503
 20
673.60574394563082
 30
0.0
 11
306.6970504762503
 21
664.10574394563082
 31
0.0
1001
GENIUS_GENREC_14
1002
{
1000
PYDIR
1011
167.6970416945685
1021
0.0
1031
0.0
1021
664.10574394563082
1031
0.0
1002
}
1002
{
1000
PXDIR
1011
306.6970504762503
1021
0.0
1031
0.0
1021
673.60574394563082
1031
0.0
1002
}
1002
{
1000
PORI
1011
167.6970416945685
1021
0.0
1031
0.0
1021
673.60574394563082
1031
0.0
1002
}
1002
{
1000
PINS
1011
167.6970416945685
1021
0.0
1031
0.0
1021
673.60574394563082
1031
0.0
1002
}
1002
{
1000
PINS2
1011
306.6970504762503
1021
0.0
1031
0.0
1021
664.10574394563082
1031
0.0
1002
}
1002
{
1000
C
1070
     1
1002
}
1001
GENIUS_GENODEF_13
1002
{
1000
HIER
1070
     0
1002
}
1002
{
1000
MANEDIT
1070
     0
1002
}
1002
{
1000
NOSEL
1070
     0
1002
}
1002
{
1000
BEHIND
1070
     0
1002
}
1002
{
1000
OTHER
1070
     0
1002
}
1002
{
1000
REACTOR
1002
}
1001
GENIUS_GENOBJ-N-REC_13
1002
{
1000
OWNER
1000
GEN
1002
}
  0
LINE
  5
207B1
  8
OS
 10
306.6970504762503
 20
664.10574394563082
 30
0.0
 11
167.6970416945685
 21
664.10574394563082
 31
0.0
1001
GENIUS_GENREC_14
1002
{
1000
PYDIR
1011
167.6970416945685
1021
0.0
1031
0.0
1021
664.10574394563082
1031
0.0
1002
}
1002
{
1000
PXDIR
1011
306.6970504762503
1021
0.0
1031
0.0
1021
673.60574394563082
1031
0.0
1002
}
1002
{
1000
PORI
1011
167.6970416945685
1021
0.0
1031
0.0
1021
673.60574394563082
1031
0.0
1002
}
1002
{
1000
PINS
1011
167.6970416945685
1021
0.0
1031
0.0
1021
673.60574394563082
1031
0.0
1002
}
1002
{
1000
PINS2
1011
306.6970504762503
1021
0.0
1031
0.0
1021
664.10574394563082
1031
0.0
1002
}
1002
{
1000
C
1070
     1
1002
}
1001
GENIUS_GENODEF_13
1002
{
1000
HIER
1070
     0
1002
}
1002
{
1000
MANEDIT
1070
     0
1002
}
1002
{
1000
NOSEL
1070
     0
1002
}
1002
{
1000
BEHIND
1070
     0
1002
}
1002
{
1000
OTHER
1070
     0
1002
}
1002
{
1000
REACTOR
1002
}
1001
GENIUS_GENOBJ-N-REC_13
1002
{
1000
OWNER
1000
GEN
1002
}
  0
LINE
  5
207B2
  8
OS
 10
167.6970416945685
 20
664.10574394563082
 30
0.0
 11
167.6970416945685
 21
673.60574394563082
 31
0.0
1001
GENIUS_GENREC_14
1002
{
1000
PYDIR
1011
167.6970416945685
1021
0.0
1031
0.0
1021
664.10574394563082
1031
0.0
1002
}
1002
{
1000
PXDIR
1011
306.6970504762503
1021
0.0
1031
0.0
1021
673.60574394563082
1031
0.0
1002
}
1002
{
1000
PORI
1011
167.6970416945685
1021
0.0
1031
0.0
1021
673.60574394563082
1031
0.0
1002
}
1002
{
1000
PINS
1011
167.6970416945685
1021
0.0
1031
0.0
1021
673.60574394563082
1031
0.0
1002
}
1002
{
1000
PINS2
1011
306.6970504762503
1021
0.0
1031
0.0
1021
664.10574394563082
1031
0.0
1002
}
1002
{
1000
C
1070
     1
1002
}
1001
GENIUS_GENODEF_13
1002
{
1000
HIER
1070
     0
1002
}
1002
{
1000
MANEDIT
1070
     0
1002
}
1002
{
1000
NOSEL
1070
     0
1002
}
1002
{
1000
BEHIND
1070
     0
1002
}
1002
{
1000
OTHER
1070
     0
1002
}
1002
{
1000
REACTOR
1002
}
1001
GENIUS_GENOBJ-N-REC_13
1002
{
1000
OWNER
1000
GEN
1002
}
  0
LINE
  5
207B3
  8
SU
 10
306.6970504762503
 20
703.60574100736142
 30
0.0
 11
167.6970416945685
 21
703.60574100736142
 31
0.0
  0
LINE
  5
207B5
  8
SU
 10
373.19704926140162
 20
112.28300748772079
 30
0.0
 11
435.19704926140048
 21
112.28300748772079
 31
0.0
  0
LINE
  5
207B6
  8
SU
 10
432.19704926140048
 20
124.28300748772079
 30
0.0
 11
432.19704926140048
 21
112.28300748772079
 31
0.0
  0
LINE
  5
207B9
  8
SU
 10
271.94705804285672
 20
586.62041032103377
 30
0.0
 11
271.94705804285672
 21
567.62041032103389
 31
0.0
  0
LINE
  5
207BA
  8
SU
 10
274.94705804285672
 20
586.62041032103377
 30
0.0
 11
274.94705804285672
 21
567.62041032103389
 31
0.0
  0
LINE
  5
207BB
  8
SU
 10
271.94705804285672
 20
570.62041032103377
 30
0.0
 11
274.94705804285672
 21
570.62041032103377
 31
0.0
  0
LINE
  5
207BF
  8
SU
 10
174.6970492611749
 20
111.28300748772079
 30
0.0
 11
174.6970492611749
 21
68.129030084138321
 31
0.0
  0
LINE
  5
207C0
  8
SU
 10
299.69704926124717
 20
111.28300748772079
 30
0.0
 11
299.69704926124717
 21
68.129030084138321
 31
0.0
  0
LINE
  5
207C1
  8
SU
 10
174.6970492611749
 20
71.129030084138321
 30
0.0
 11
299.69704926124717
 21
71.129030084138321
 31
0.0
  0
LINE
  5
207C5
  8
SU
 10
199.4470492611749
 20
586.62041032103377
 30
0.0
 11
199.4470492611749
 21
567.62041032103389
 31
0.0
  0
LINE
  5
207C6
  8
SU
 10
202.4470492611749
 20
586.62041032103377
 30
0.0
 11
202.4470492611749
 21
567.62041032103389
 31
0.0
  0
LINE
  5
207C7
  8
SU
 10
199.4470492611749
 20
570.62041032103377
 30
0.0
 11
202.4470492611749
 21
570.62041032103377
 31
0.0
  0
LINE
  5
207CB
  8
SU
 10
166.4470492611749
 20
570.62041032103377
 30
0.0
 11
199.4470492611749
 21
570.62041032103377
 31
0.0
  0
LINE
  5
207CD
  8
SU
 10
176.9970692611036
 20
111.98300739639031
 30
0.0
 11
176.9970692611036
 21
88.283007487720838
 31
0.0
  0
LINE
  5
207CE
  8
SU
 10
297.39702926124937
 20
112.0271128439208
 30
0.0
 11
297.39702926124937
 21
88.283007487720838
 31
0.0
  0
LINE
  5
207CF
  8
SU
 10
176.9970692611036
 20
91.283007487720852
 30
0.0
 11
297.39702926124937
 21
91.283007487720852
 31
0.0
  0
LINE
  5
207D3
  8
SU
 10
306.1970292612491
 20
126.88300739639089
 30
0.0
 11
395.19704926140162
 21
126.88300739639089
 31
0.0
  0
LINE
  5
207D4
  8
SU
 10
392.19704926140162
 20
124.28300748772079
 30
0.0
 11
392.19704926140162
 21
114.6830074877208
 31
0.0
  0
LINE
  5
207D5
  8
SU
 10
392.19704926140162
 20
126.88300739639089
 30
0.0
 11
392.19704926140167
 21
160.8563407297242
 31
0.0
  0
LINE
  5
207D6
  8
SU
 10
392.19704926140162
 20
124.28300748772079
 30
0.0
 11
392.19704926140162
 21
126.88300739639089
 31
0.0
  0
LINE
  5
207DA
  8
SU
 10
373.19704926140162
 20
124.28300748772079
 30
0.0
 11
435.1970492614002
 21
124.28300748772079
 31
0.0
  0
LINE
  5
207DB
  8
SU
 10
432.19704926140031
 20
244.28300748772091
 30
0.0
 11
432.1970492614002
 21
124.28300748772079
 31
0.0
  0
LINE
  5
207DD
  8
SU
 10
308.94704926117811
 20
131.28300748772079
 30
0.0
 11
415.19704926140048
 21
131.28300748772079
 31
0.0
  0
LINE
  5
207DE
  8
SU
 10
412.19704926140048
 20
131.28300748772079
 30
0.0
 11
412.19704926140048
 21
244.28300748772091
 31
0.0
  0
LINE
  5
207E1
  8
SU
 10
312.79704169456858
 20
623.60574394563082
 30
0.0
 11
395.19704926140042
 21
623.60574394563082
 31
0.0
  0
LINE
  5
207E2
  8
SU
 10
392.19704926140042
 20
627.10574442541451
 30
0.0
 11
392.19704926140042
 21
623.60574394563082
 31
0.0
  0
LINE
  5
207E3
  8
SU
 10
392.19704926140042
 20
623.60574394563082
 30
0.0
 11
392.19704926140042
 21
599.23241061229749
 31
0.0
  0
LINE
  5
207E7
  8
SU
 10
311.99704169456862
 20
636.60574394563082
 30
0.0
 11
415.19704926140042
 21
636.60574394563082
 31
0.0
  0
LINE
  5
207E8
  8
SU
 10
412.19704926140042
 20
664.10574394563093
 30
0.0
 11
412.19704926140031
 21
636.60574394563082
 31
0.0
  0
LINE
  5
207EC
  8
SU
 10
412.19704926140031
 20
636.60574394563082
 30
0.0
 11
412.19704926140031
 21
627.10574442541451
 31
0.0
  0
LINE
  5
207EF
  8
SU
 10
297.74707185773332
 20
333.10573902738793
 30
0.0
 11
395.19704926140162
 21
333.10573902738793
 31
0.0
  0
LINE
  5
207F0
  8
SU
 10
392.19704926140162
 20
333.10573902738793
 30
0.0
 11
392.19704926140162
 21
328.1057439467258
 31
0.0
  0
LINE
  5
207F1
  8
SU
 10
392.19704926140162
 20
328.1057439467258
 30
0.0
 11
392.19704926140162
 21
312.03241061339253
 31
0.0
  0
LINE
  5
207F5
  8
SU
 10
412.19704926140031
 20
337.1057439467258
 30
0.0
 11
412.19704926140031
 21
328.1057439467258
 31
0.0
  0
LINE
  5
207F8
  8
SU
 10
373.19704047971982
 20
664.10574394563093
 30
0.0
 11
435.19704926140071
 21
664.10574394563093
 31
0.0
  0
LINE
  5
207F9
  8
SU
 10
372.69549743443707
 20
328.10574394672591
 30
0.0
 11
435.19704926140059
 21
328.1057439467258
 31
0.0
  0
LINE
  5
207FA
  8
SU
 10
432.19704926140059
 20
664.10574394563093
 30
0.0
 11
432.19704926140048
 21
328.1057439467258
 31
0.0
  0
LINE
  5
207FC
  8
SU
 10
308.94704926124427
 20
337.1057439467258
 30
0.0
 11
415.19704926140031
 21
337.1057439467258
 31
0.0
  0
LINE
  5
207FD
  8
SU
 10
308.94704926117493
 20
627.10574442541451
 30
0.0
 11
415.19704926140031
 21
627.10574442541451
 31
0.0
  0
LINE
  5
207FE
  8
SU
 10
412.19704926140031
 20
337.1057439467258
 30
0.0
 11
412.19704926140031
 21
627.10574442541451
 31
0.0
  0
TEXT
  5
20802
  8
SU
 10
410.89704926140041
 20
125.0163408210541
 30
-0.0000000000000027
 40
7.0
  1
7
 50
90.0
 41
0.8299999999999999
  0
TEXT
  5
20804
  8
SU
 10
719.68763847356331
 20
467.78474779943463
 30
0.0
 40
7.0
  1
9
 41
0.8299999999999999
  0
TEXT
  5
20805
  8
SU
 10
570.68763647485991
 20
467.78474779943463
 30
0.0
 40
7.0
  1
9
 41
0.8299999999999999
  0
TEXT
  5
20807
  8
SU
 10
1034.687640472265
 20
192.78474779943761
 30
0.0
 40
7.0
  1
9
 41
0.8299999999999999
  0
TEXT
  5
2080B
  8
SU
 10
157.98037472965649
 20
707.1057410073613
 30
0.0
 40
7.0
  1
5.6
 41
0.8299999999999999
  0
TEXT
  5
2080E
  8
SU
 10
302.58038410782899
 20
707.1057410073613
 30
0.0
 40
7.0
  1
5.6
 41
0.8299999999999999
  0
TEXT
  5
2080F
  8
SU
 10
795.90930314152774
 20
225.9488761217977
 30
0.0
 40
7.0
  1
(25)
 41
0.8299999999999999
  0
TEXT
  5
20810
  8
SU
 10
799.78263647486085
 20
214.2822094551311
 30
0.0
 40
7.0
  1
35
 41
0.8299999999999999
  0
TEXT
  5
20813
  8
SU
 10
870.17114432989092
 20
371.45474779943169
 30
0.0
 40
7.0
  1
3
 50
90.0
 41
0.8299999999999999
  0
TEXT
  5
20814
  8
SU
 10
860.37114432989085
 20
381.95141399023561
 30
0.0
 40
7.0
  1
33
 50
90.0
 41
0.8299999999999999
  0
TEXT
  5
20817
  8
SU
 10
870.17114432989092
 20
334.80474779943171
 30
0.0
 40
7.0
  1
3.5
 50
90.0
 41
0.8299999999999999
  0
TEXT
  5
20818
  8
SU
 10
690.90930314152774
 20
223.951414466101
 30
0.0
 40
7.0
  1
(25)
 41
0.8299999999999999
  0
TEXT
  5
20819
  8
SU
 10
694.78263647486096
 20
212.28474779943431
 30
0.0
 40
7.0
  1
35
 41
0.8299999999999999
  0
TEXT
  5
2081C
  8
SU
 10
641.31430314152715
 20
467.78474779943463
 30
0.0
 40
7.0
  1
DW
 41
0.8299999999999999
  0
TEXT
  5
2081F
  8
SU
 10
868.3403051402297
 20
467.78474779943463
 30
0.0
 40
7.0
  1
有効開口
 41
0.8299999999999999
  0
TEXT
  5
20822
  8
SU
 10
800.57311266533668
 20
172.28474779943431
 30
0.0
 40
10.0
  1
W
 41
0.8299999999999999
  0
TEXT
  5
20823
  8
SU
 10
900.90930314152786
 20
223.951414466101
 30
0.0
 40
7.0
  1
(25)
 41
0.8299999999999999
  0
TEXT
  5
20824
  8
SU
 10
904.78263647486096
 20
212.28474779943431
 30
0.0
 40
7.0
  1
35
 41
0.8299999999999999
  0
TEXT
  5
20827
  8
SU
 10
956.31430314152772
 20
192.28474779943431
 30
0.0
 40
7.0
  1
DW
 41
0.8299999999999999
  0
TEXT
  5
2082A
  8
SU
 10
860.37114432989085
 20
345.95141399023572
 30
0.0
 40
7.0
  1
33
 50
90.0
 41
0.8299999999999999
  0
TEXT
  5
2082D
  8
SU
 10
860.37114432989085
 20
273.45141494196662
 30
0.0
 40
7.0
  1
33
 50
90.0
 41
0.8299999999999999
  0
TEXT
  5
20830
  8
SU
 10
860.17114432989081
 20
289.48141446610953
 30
0.0
 40
7.0
  1
3
 50
90.0
 41
0.8299999999999999
  0
TEXT
  5
20831
  8
SU
 10
860.37114432989085
 20
309.45141399023572
 30
0.0
 40
7.0
  1
33
 50
90.0
 41
0.8299999999999999
  0
TEXT
  5
20836
  8
SU
 10
217.21870536861951
 20
159.65041926426349
 30
0.0
 40
7.0
  1
144
 41
0.8299999999999999
  0
TEXT
  5
20837
  8
SU
 10
206.0820416945684
 20
591.92041032103384
 30
0.0
 40
7.0
  1
150.2
 41
0.8299999999999999
  0
TEXT
  5
2083A
  8
SU
 10
249.913708361235
 20
571.92041032103384
 30
0.0
 40
7.0
  1
33
 41
0.8299999999999999
  0
TEXT
  5
2083D
  8
SU
 10
240.0151911851743
 20
562.12041032103377
 30
0.0
 40
7.0
  1
3.5
 41
0.8299999999999999
  0
TEXT
  5
2083E
  8
SU
 10
267.91371592797952
 20
296.40574394672939
 30
0.0
 40
7.0
  1
56
 41
0.8299999999999999
  0
TEXT
  5
20843
  8
SU
 10
227.09871592798029
 20
284.60574394672938
 30
0.0
 40
7.0
  1
16.5
 41
0.8299999999999999
  0
TEXT
  5
20844
  8
SU
 10
195.41371592798109
 20
296.40574394672558
 30
0.0
 40
7.0
  1
56
 41
0.8299999999999999
  0
TEXT
  5
20847
  8
SU
 10
213.41371214453829
 20
571.92041032103384
 30
0.0
 40
7.0
  1
33
 41
0.8299999999999999
  0
TEXT
  5
20848
  8
SU
 10
285.91372092622021
 20
571.92041032103384
 30
0.0
 40
7.0
  1
33
 41
0.8299999999999999
  0
TEXT
  5
20849
  8
SU
 10
130.723708361235
 20
574.00982682878475
 30
0.0
 40
7.0
  1
(4.4)
 41
0.8299999999999999
  0
TEXT
  5
2084C
  8
SU
 10
322.09032043102388
 20
574.2537436543671
 30
0.0
 40
7.0
  1
(4.4)
 41
0.8299999999999999
  0
TEXT
  5
2084F
  8
SU
 10
228.62037941874269
 20
704.90574100736126
 30
0.0
 40
7.0
  1
139
 41
0.8299999999999999
  0
TEXT
  5
20850
  8
SU
 10
430.89704926140053
 20
112.3346741543875
 30
0.0
 40
7.0
  1
12
 50
90.0
 41
0.8299999999999999
  0
TEXT
  5
20854
  8
SU
 10
277.4170504762501
 20
562.12041032103377
 30
0.0
 40
7.0
  1
3
 41
0.8299999999999999
  0
TEXT
  5
20855
  8
SU
 10
228.4820492612111
 20
72.429030084138319
 30
0.0
 40
7.0
  1
125
 41
0.8299999999999999
  0
TEXT
  5
2085A
  8
SU
 10
204.9170416945683
 20
562.12041032103377
 30
0.0
 40
7.0
  1
3
 41
0.8299999999999999
  0
TEXT
  5
2085B
  8
SU
 10
177.41371592784159
 20
571.92041032103384
 30
0.0
 40
7.0
  1
33
 41
0.8299999999999999
  0
TEXT
  5
2085C
  8
SU
 10
224.193725927879
 20
92.583007487720835
 30
0.0
 40
7.0
  1
120.4
 41
0.8299999999999999
  0
TEXT
  5
2085F
  8
SU
 10
390.89704926140161
 20
146.55300739639091
 30
0.0
 40
7.0
  1
2.6
 50
90.0
 41
0.8299999999999999
  0
TEXT
  5
20862
  8
SU
 10
430.89704926140018
 20
207.30584184183161
 30
0.0
 40
10.0
  1
H
 50
90.0
 41
0.8299999999999999
  0
TEXT
  5
20863
  8
SU
 10
410.89704926140041
 20
205.50812727548191
 30
0.0
 40
7.0
  1
DH
 50
90.0
 41
0.8299999999999999
  0
TEXT
  5
20865
  8
SU
 10
390.8970492614003
 20
599.7024106122974
 30
0.0
 40
7.0
  1
3.5
 50
90.0
 41
0.8299999999999999
  0
TEXT
  5
20868
  8
SU
 10
410.89704926140041
 20
640.67241061229743
 30
0.0
 40
7.0
  1
27.5
 50
90.0
 41
0.8299999999999999
  0
TEXT
  5
2086B
  8
SU
 10
410.89704926140041
 20
603.20241109208109
 30
0.0
 40
7.0
  1
9.5
 50
90.0
 41
0.8299999999999999
  0
TEXT
  5
2086C
  8
SU
 10
390.89704926140149
 20
312.50241061339261
 30
0.0
 40
7.0
  1
5
 50
90.0
 41
0.8299999999999999
  0
TEXT
  5
2086F
  8
SU
 10
410.89704926140041
 20
329.97741061339252
 30
0.0
 40
7.0
  1
9
 50
90.0
 41
0.8299999999999999
  0
TEXT
  5
20871
  8
SU
 10
430.89704926140053
 20
478.42890976392658
 30
0.0
 40
10.0
  1
H
 50
90.0
 41
0.8299999999999999
  0
TEXT
  5
20872
  8
SU
 10
410.8970492614003
 20
476.15741085273692
 30
0.0
 40
7.0
  1
DH
 50
90.0
 41
0.8299999999999999
  0
ARC
  5
20875
  8
SU
 10
412.19704926140042
 20
124.28300748772079
 30
0.0
 40
0.5999999999999944
 50
90.0
 51
270.0
  0
ARC
  5
20876
  8
SU
 10
412.19704926140042
 20
124.28300748772079
 30
0.0
 40
0.5999999999999944
 50
270.0
 51
90.0
  0
ARC
  5
20877
  8
SU
 10
568.81596980819324
 20
466.4847477994345
 30
0.0
 40
0.6000000000000229
 50
0.0
 51
180.0
  0
ARC
  5
20878
  8
SU
 10
568.81596980819324
 20
466.4847477994345
 30
0.0
 40
0.6000000000000229
 50
180.0
 51
0.0
  0
ARC
  5
20879
  8
SU
 10
1041.8159738055981
 20
191.4847477994376
 30
0.0
 40
0.5999999999999091
 50
180.0
 51
0.0
  0
ARC
  5
2087A
  8
SU
 10
1041.8159738055981
 20
191.4847477994376
 30
0.0
 40
0.5999999999999091
 50
0.0
 51
180.0
  0
ARC
  5
2087B
  8
SU
 10
162.0970410980778
 20
703.60574100736142
 30
0.0
 40
0.5999999999999944
 50
0.0
 51
180.0
  0
ARC
  5
2087C
  8
SU
 10
162.0970410980778
 20
703.60574100736142
 30
0.0
 40
0.5999999999999944
 50
180.0
 51
0.0
  0
ARC
  5
2087D
  8
SU
 10
167.6970416945685
 20
703.60574100736142
 30
0.0
 40
0.5999999999999944
 50
180.0
 51
0.0
  0
ARC
  5
2087E
  8
SU
 10
167.6970416945685
 20
703.60574100736142
 30
0.0
 40
0.5999999999999944
 50
0.0
 51
180.0
  0
ARC
  5
2087F
  8
SU
 10
312.29705107274089
 20
703.60574100736142
 30
0.0
 40
0.6000000000000229
 50
180.0
 51
0.0
  0
ARC
  5
20880
  8
SU
 10
312.29705107274089
 20
703.60574100736142
 30
0.0
 40
0.6000000000000229
 50
0.0
 51
180.0
  0
ARC
  5
20881
  8
SU
 10
306.6970504762503
 20
703.60574100736142
 30
0.0
 40
0.6000000000000229
 50
0.0
 51
180.0
  0
ARC
  5
20882
  8
SU
 10
306.6970504762503
 20
703.60574100736142
 30
0.0
 40
0.6000000000000229
 50
180.0
 51
0.0
  0
ARC
  5
20883
  8
SU
 10
787.81596980819415
 20
212.98220945513111
 30
0.0
 40
0.6000000000000229
 50
0.0
 51
180.0
  0
ARC
  5
20884
  8
SU
 10
787.81596980819415
 20
212.98220945513111
 30
0.0
 40
0.6000000000000229
 50
180.0
 51
0.0
  0
ARC
  5
20885
  8
SU
 10
822.8159698081945
 20
212.98220945513111
 30
0.0
 40
0.6000000000000229
 50
180.0
 51
0.0
  0
ARC
  5
20886
  8
SU
 10
822.8159698081945
 20
212.98220945513111
 30
0.0
 40
0.6000000000000229
 50
0.0
 51
180.0
  0
ARC
  5
20887
  8
SU
 10
861.67114432989092
 20
370.98474779943149
 30
0.0
 40
0.6000000000000229
 50
90.0
 51
270.0
  0
ARC
  5
20888
  8
SU
 10
861.67114432989092
 20
370.98474779943149
 30
0.0
 40
0.6000000000000229
 50
270.0
 51
90.0
  0
ARC
  5
20889
  8
SU
 10
861.67114432989092
 20
403.98474684770611
 30
0.0
 40
0.6000000000000229
 50
270.0
 51
90.0
  0
ARC
  5
2088A
  8
SU
 10
861.67114432989092
 20
403.98474684770611
 30
0.0
 40
0.6000000000000229
 50
90.0
 51
270.0
  0
ARC
  5
2088B
  8
SU
 10
682.8159698081945
 20
210.9847477994343
 30
0.0
 40
0.6000000000000229
 50
0.0
 51
180.0
  0
ARC
  5
2088C
  8
SU
 10
682.8159698081945
 20
210.9847477994343
 30
0.0
 40
0.6000000000000229
 50
180.0
 51
0.0
  0
ARC
  5
2088D
  8
SU
 10
717.8159698081945
 20
210.9847477994343
 30
0.0
 40
0.6000000000000229
 50
180.0
 51
0.0
  0
ARC
  5
2088E
  8
SU
 10
717.8159698081945
 20
210.9847477994343
 30
0.0
 40
0.6000000000000229
 50
0.0
 51
180.0
  0
ARC
  5
2088F
  8
SU
 10
717.8159698081945
 20
466.48474779943461
 30
0.0
 40
0.6000000000000229
 50
180.0
 51
0.0
  0
ARC
  5
20890
  8
SU
 10
717.8159698081945
 20
466.48474779943461
 30
0.0
 40
0.6000000000000229
 50
0.0
 51
180.0
  0
ARC
  5
20891
  8
SU
 10
577.81596980819324
 20
466.48474779943461
 30
0.0
 40
0.6000000000000229
 50
0.0
 51
180.0
  0
ARC
  5
20892
  8
SU
 10
577.81596980819324
 20
466.48474779943461
 30
0.0
 40
0.6000000000000229
 50
180.0
 51
0.0
  0
ARC
  5
20893
  8
SU
 10
726.81597380559833
 20
466.48474779943461
 30
0.0
 40
0.6000000000000229
 50
0.0
 51
180.0
  0
ARC
  5
20894
  8
SU
 10
726.81597380559833
 20
466.48474779943461
 30
0.0
 40
0.6000000000000229
 50
180.0
 51
0.0
  0
ARC
  5
20895
  8
SU
 10
1035.815969808194
 20
466.48474779943461
 30
0.0
 40
0.5999999999999091
 50
180.0
 51
0.0
  0
ARC
  5
20896
  8
SU
 10
1035.815969808194
 20
466.48474779943461
 30
0.0
 40
0.5999999999999091
 50
0.0
 51
180.0
  0
ARC
  5
20897
  8
SU
 10
927.81596980819438
 20
210.9847477994343
 30
0.0
 40
0.6000000000000229
 50
180.0
 51
0.0
  0
ARC
  5
20898
  8
SU
 10
927.81596980819438
 20
210.9847477994343
 30
0.0
 40
0.6000000000000229
 50
0.0
 51
180.0
  0
ARC
  5
20899
  8
SU
 10
892.8159698081945
 20
210.9847477994343
 30
0.0
 40
0.6000000000000229
 50
0.0
 51
180.0
  0
ARC
  5
2089A
  8
SU
 10
892.8159698081945
 20
210.9847477994343
 30
0.0
 40
0.6000000000000229
 50
180.0
 51
0.0
  0
ARC
  5
2089B
  8
SU
 10
892.8159698081945
 20
190.9847477994343
 30
0.0
 40
0.6000000000000229
 50
0.0
 51
180.0
  0
ARC
  5
2089C
  8
SU
 10
892.8159698081945
 20
190.9847477994343
 30
0.0
 40
0.6000000000000229
 50
180.0
 51
0.0
  0
ARC
  5
2089D
  8
SU
 10
1032.815969808194
 20
190.9847477994343
 30
0.0
 40
0.5999999999999091
 50
180.0
 51
0.0
  0
ARC
  5
2089E
  8
SU
 10
1032.815969808194
 20
190.9847477994343
 30
0.0
 40
0.5999999999999091
 50
0.0
 51
180.0
  0
ARC
  5
2089F
  8
SU
 10
861.67114432989092
 20
334.9847477994316
 30
0.0
 40
0.6000000000000229
 50
90.0
 51
270.0
  0
ARC
  5
208A0
  8
SU
 10
861.67114432989092
 20
334.9847477994316
 30
0.0
 40
0.6000000000000229
 50
270.0
 51
90.0
  0
ARC
  5
208A1
  8
SU
 10
861.67114432989092
 20
367.98474684770622
 30
0.0
 40
0.6000000000000229
 50
270.0
 51
90.0
  0
ARC
  5
208A2
  8
SU
 10
861.67114432989092
 20
367.98474684770622
 30
0.0
 40
0.6000000000000229
 50
90.0
 51
270.0
  0
ARC
  5
208A3
  8
SU
 10
861.67114432989092
 20
262.4847487511625
 30
0.0
 40
0.6000000000000229
 50
90.0
 51
270.0
  0
ARC
  5
208A4
  8
SU
 10
861.67114432989092
 20
262.4847487511625
 30
0.0
 40
0.6000000000000229
 50
270.0
 51
90.0
  0
ARC
  5
208A5
  8
SU
 10
861.67114432989092
 20
295.48474779943712
 30
0.0
 40
0.6000000000000229
 50
270.0
 51
90.0
  0
ARC
  5
208A6
  8
SU
 10
861.67114432989092
 20
295.48474779943712
 30
0.0
 40
0.6000000000000229
 50
90.0
 51
270.0
  0
ARC
  5
208A7
  8
SU
 10
861.67114432989092
 20
331.48474684770622
 30
0.0
 40
0.6000000000000229
 50
270.0
 51
90.0
  0
ARC
  5
208A8
  8
SU
 10
861.67114432989092
 20
331.48474684770622
 30
0.0
 40
0.6000000000000229
 50
90.0
 51
270.0
  0
ARC
  5
208A9
  8
SU
 10
861.67114432989092
 20
298.4847477994316
 30
0.0
 40
0.6000000000000229
 50
90.0
 51
270.0
  0
ARC
  5
208AA
  8
SU
 10
861.67114432989092
 20
298.4847477994316
 30
0.0
 40
0.6000000000000229
 50
270.0
 51
90.0
  0
ARC
  5
208AB
  8
SU
 10
309.19700926124739
 20
158.17861459537539
 30
0.0
 40
0.6000000000000229
 50
180.0
 51
0.0
  0
ARC
  5
208AC
  8
SU
 10
309.19700926124739
 20
158.17861459537539
 30
0.0
 40
0.6000000000000229
 50
0.0
 51
180.0
  0
ARC
  5
208AD
  8
SU
 10
165.19706926110339
 20
158.17861459537539
 30
0.0
 40
0.5999999999999944
 50
0.0
 51
180.0
  0
ARC
  5
208AE
  8
SU
 10
165.19706926110339
 20
158.17861459537539
 30
0.0
 40
0.5999999999999944
 50
180.0
 51
0.0
  0
ARC
  5
208AF
  8
SU
 10
312.29704926133218
 20
590.62041032103377
 30
0.0
 40
0.6000000000000229
 50
180.0
 51
0.0
  0
ARC
  5
208B0
  8
SU
 10
312.29704926133218
 20
590.62041032103377
 30
0.0
 40
0.6000000000000229
 50
0.0
 51
180.0
  0
ARC
  5
208B1
  8
SU
 10
162.0970416945683
 20
590.62041032103377
 30
0.0
 40
0.5999999999999944
 50
0.0
 51
180.0
  0
ARC
  5
208B2
  8
SU
 10
162.0970416945683
 20
590.62041032103377
 30
0.0
 40
0.5999999999999944
 50
180.0
 51
0.0
  0
ARC
  5
208B3
  8
SU
 10
238.9470492611749
 20
570.62041032103377
 30
0.0
 40
0.5999999999999944
 50
180.0
 51
0.0
  0
ARC
  5
208B4
  8
SU
 10
238.9470492611749
 20
570.62041032103377
 30
0.0
 40
0.5999999999999944
 50
0.0
 51
180.0
  0
ARC
  5
208B5
  8
SU
 10
235.4470492611749
 20
570.62041032103377
 30
0.0
 40
0.5999999999999944
 50
0.0
 51
180.0
  0
ARC
  5
208B6
  8
SU
 10
235.4470492611749
 20
570.62041032103377
 30
0.0
 40
0.5999999999999944
 50
180.0
 51
0.0
  0
ARC
  5
208B7
  8
SU
 10
301.44704926131197
 20
295.10574394672938
 30
0.0
 40
0.6000000000000229
 50
180.0
 51
0.0
  0
ARC
  5
208B8
  8
SU
 10
301.44704926131197
 20
295.10574394672938
 30
0.0
 40
0.6000000000000229
 50
0.0
 51
180.0
  0
ARC
  5
208B9
  8
SU
 10
245.44704926131359
 20
295.10574394672938
 30
0.0
 40
0.5999999999999944
 50
0.0
 51
180.0
  0
ARC
  5
208BB
  8
SU
 10
245.44704926131359
 20
295.10574394672938
 30
0.0
 40
0.5999999999999944
 50
180.0
 51
0.0
  0
ARC
  5
208BD
  8
SU
 10
228.94704926131359
 20
295.10574394672938
 30
0.0
 40
0.5999999999999944
 50
0.0
 51
180.0
  0
ARC
  5
208BE
  8
SU
 10
228.94704926131359
 20
295.10574394672938
 30
0.0
 40
0.5999999999999944
 50
180.0
 51
0.0
  0
ARC
  5
208C1
  8
SU
 10
172.94704926131519
 20
295.10574394672562
 30
0.0
 40
0.5999999999999944
 50
0.0
 51
180.0
  0
ARC
  5
208C2
  8
SU
 10
172.94704926131519
 20
295.10574394672562
 30
0.0
 40
0.5999999999999944
 50
180.0
 51
0.0
  0
ARC
  5
208C3
  8
SU
 10
162.0970416945683
 20
570.37649349545154
 30
0.0
 40
0.5999999999999944
 50
0.0
 51
180.0
  0
ARC
  5
208C4
  8
SU
 10
162.0970416945683
 20
570.37649349545154
 30
0.0
 40
0.5999999999999944
 50
180.0
 51
0.0
  0
ARC
  5
208C5
  8
SU
 10
166.4470492611749
 20
570.37649349545154
 30
0.0
 40
0.5999999999999944
 50
180.0
 51
0.0
  0
ARC
  5
208C6
  8
SU
 10
166.4470492611749
 20
570.37649349545154
 30
0.0
 40
0.5999999999999944
 50
0.0
 51
180.0
  0
ARC
  5
208C7
  8
SU
 10
312.29698709769059
 20
570.62041032103377
 30
0.0
 40
0.6000000000000229
 50
180.0
 51
0.0
  0
ARC
  5
208C8
  8
SU
 10
312.29698709769059
 20
570.62041032103377
 30
0.0
 40
0.6000000000000229
 50
0.0
 51
180.0
  0
ARC
  5
208C9
  8
SU
 10
307.94704926117493
 20
570.62041032103377
 30
0.0
 40
0.6000000000000229
 50
0.0
 51
180.0
  0
ARC
  5
208CA
  8
SU
 10
307.94704926117493
 20
570.62041032103377
 30
0.0
 40
0.6000000000000229
 50
180.0
 51
0.0
  0
ARC
  5
208CB
  8
SU
 10
432.19704926140048
 20
112.28300748772079
 30
0.0
 40
0.5999999999999944
 50
90.0
 51
270.0
  0
ARC
  5
208CC
  8
SU
 10
432.19704926140048
 20
112.28300748772079
 30
0.0
 40
0.5999999999999944
 50
270.0
 51
90.0
  0
ARC
  5
208CD
  8
SU
 10
274.94705804285672
 20
570.62041032103377
 30
0.0
 40
0.6000000000000229
 50
180.0
 51
0.0
  0
ARC
  5
208CE
  8
SU
 10
274.94705804285672
 20
570.62041032103377
 30
0.0
 40
0.6000000000000229
 50
0.0
 51
180.0
  0
ARC
  5
208CF
  8
SU
 10
271.94705804285672
 20
570.62041032103377
 30
0.0
 40
0.6000000000000229
 50
0.0
 51
180.0
  0
ARC
  5
208D0
  8
SU
 10
271.94705804285672
 20
570.62041032103377
 30
0.0
 40
0.6000000000000229
 50
180.0
 51
0.0
  0
ARC
  5
208D1
  8
SU
 10
299.69704926124717
 20
71.129030084138321
 30
0.0
 40
0.6000000000000229
 50
180.0
 51
0.0
  0
ARC
  5
208D2
  8
SU
 10
299.69704926124717
 20
71.129030084138321
 30
0.0
 40
0.6000000000000229
 50
0.0
 51
180.0
  0
ARC
  5
208D3
  8
SU
 10
174.6970492611749
 20
71.129030084138321
 30
0.0
 40
0.5999999999999944
 50
0.0
 51
180.0
  0
ARC
  5
208D4
  8
SU
 10
174.6970492611749
 20
71.129030084138321
 30
0.0
 40
0.5999999999999944
 50
180.0
 51
0.0
  0
ARC
  5
208D5
  8
SU
 10
202.4470492611749
 20
570.62041032103377
 30
0.0
 40
0.5999999999999944
 50
180.0
 51
0.0
  0
ARC
  5
208D6
  8
SU
 10
202.4470492611749
 20
570.62041032103377
 30
0.0
 40
0.5999999999999944
 50
0.0
 51
180.0
  0
ARC
  5
208D7
  8
SU
 10
199.4470492611749
 20
570.62041032103377
 30
0.0
 40
0.5999999999999944
 50
0.0
 51
180.0
  0
ARC
  5
208D8
  8
SU
 10
199.4470492611749
 20
570.62041032103377
 30
0.0
 40
0.5999999999999944
 50
180.0
 51
0.0
  0
ARC
  5
208D9
  8
SU
 10
297.39702926124937
 20
91.283007487720852
 30
0.0
 40
0.6000000000000229
 50
180.0
 51
0.0
  0
ARC
  5
208DA
  8
SU
 10
297.39702926124937
 20
91.283007487720852
 30
0.0
 40
0.6000000000000229
 50
0.0
 51
180.0
  0
ARC
  5
208DB
  8
SU
 10
176.9970692611036
 20
91.283007487720852
 30
0.0
 40
0.5999999999999944
 50
0.0
 51
180.0
  0
ARC
  5
208DC
  8
SU
 10
176.9970692611036
 20
91.283007487720852
 30
0.0
 40
0.5999999999999944
 50
180.0
 51
0.0
  0
ARC
  5
208DD
  8
SU
 10
392.19704926140162
 20
126.88300739639089
 30
0.0
 40
0.5999999999999944
 50
90.0
 51
270.0
  0
ARC
  5
208DE
  8
SU
 10
392.19704926140162
 20
126.88300739639089
 30
0.0
 40
0.5999999999999944
 50
270.0
 51
90.0
  0
ARC
  5
208DF
  8
SU
 10
392.19704926140162
 20
124.28300748772079
 30
0.0
 40
0.5999999999999944
 50
270.0
 51
90.0
  0
ARC
  5
208E0
  8
SU
 10
392.19704926140162
 20
124.28300748772079
 30
0.0
 40
0.5999999999999944
 50
90.0
 51
270.0
  0
ARC
  5
208E1
  8
SU
 10
412.19704926140048
 20
131.28300748772079
 30
0.0
 40
0.5999999999999944
 50
90.0
 51
270.0
  0
ARC
  5
208E2
  8
SU
 10
412.19704926140048
 20
131.28300748772079
 30
0.0
 40
0.5999999999999944
 50
270.0
 51
90.0
  0
ARC
  5
208E3
  8
SU
 10
392.19704926140042
 20
623.60574394563082
 30
0.0
 40
0.6000000000000229
 50
90.0
 51
270.0
  0
ARC
  5
208E4
  8
SU
 10
392.19704926140042
 20
623.60574394563082
 30
0.0
 40
0.6000000000000229
 50
270.0
 51
90.0
  0
ARC
  5
208E5
  8
SU
 10
392.19704926140042
 20
627.10574442541451
 30
0.0
 40
0.6000000000000229
 50
270.0
 51
90.0
  0
ARC
  5
208E6
  8
SU
 10
392.19704926140042
 20
627.10574442541451
 30
0.0
 40
0.6000000000000229
 50
90.0
 51
270.0
  0
ARC
  5
208E7
  8
SU
 10
412.19704926140031
 20
636.60574394563082
 30
0.0
 40
0.6000000000000229
 50
90.0
 51
270.0
  0
ARC
  5
208E8
  8
SU
 10
412.19704926140031
 20
636.60574394563082
 30
0.0
 40
0.6000000000000229
 50
270.0
 51
90.0
  0
ARC
  5
208E9
  8
SU
 10
412.19704926140042
 20
664.10574394563093
 30
0.0
 40
0.6000000000000229
 50
270.0
 51
90.0
  0
ARC
  5
208EA
  8
SU
 10
412.19704926140042
 20
664.10574394563093
 30
0.0
 40
0.6000000000000229
 50
90.0
 51
270.0
  0
ARC
  5
208EB
  8
SU
 10
392.19704926140162
 20
328.1057439467258
 30
0.0
 40
0.6000000000000229
 50
90.0
 51
270.0
  0
ARC
  5
208EC
  8
SU
 10
392.19704926140162
 20
328.1057439467258
 30
0.0
 40
0.6000000000000229
 50
270.0
 51
90.0
  0
ARC
  5
208ED
  8
SU
 10
392.19704926140162
 20
333.10573902738793
 30
0.0
 40
0.6000000000000229
 50
270.0
 51
90.0
  0
ARC
  5
208EE
  8
SU
 10
392.19704926140162
 20
333.10573902738793
 30
0.0
 40
0.6000000000000229
 50
90.0
 51
270.0
  0
ARC
  5
208EF
  8
SU
 10
412.19704926140031
 20
328.1057439467258
 30
0.0
 40
0.6000000000000229
 50
90.0
 51
270.0
  0
ARC
  5
208F0
  8
SU
 10
412.19704926140031
 20
328.1057439467258
 30
0.0
 40
0.6000000000000229
 50
270.0
 51
90.0
  0
ARC
  5
208F1
  8
SU
 10
412.19704926140031
 20
627.10574442541451
 30
0.0
 40
0.6000000000000229
 50
270.0
 51
90.0
  0
ARC
  5
208F2
  8
SU
 10
412.19704926140031
 20
627.10574442541451
 30
0.0
 40
0.6000000000000229
 50
90.0
 51
270.0
  0
ARC
  5
208F3
  8
SU
 10
412.19704926140031
 20
337.1057439467258
 30
0.0
 40
0.6000000000000229
 50
90.0
 51
270.0
  0
ARC
  5
208F4
  8
SU
 10
412.19704926140031
 20
337.1057439467258
 30
0.0
 40
0.6000000000000229
 50
270.0
 51
90.0
  0
ENDSEC
  0
EOF
