  0
SECTION
  2
HEADER
  9
$ACADVER
  1
AC1009
  9
$INSBASE
 10
0.0
 20
0.0
 30
0.0
  9
$EXTMIN
 10
19.300000000000001
 20
16.25
 30
-0.0000000000000027
  9
$EXTMAX
 10
1165.5
 20
830.74999999999989
 30
0.0
  9
$LIMMIN
 10
0.0
 20
0.0
  9
$LIMMAX
 10
1189.0
 20
841.0
  9
$ORTHOMODE
 70
     1
  9
$REGENMODE
 70
     1
  9
$FILLMODE
 70
     1
  9
$QTEXTMODE
 70
     0
  9
$MIRRTEXT
 70
     0
  9
$DRAGMODE
 70
     2
  9
$LTSCALE
 40
1.0
  9
$OSMODE
 70
  3071
  9
$ATTMODE
 70
     1
  9
$TEXTSIZE
 40
12.5
  9
$TRACEWID
 40
1.0
  9
$TEXTSTYLE
  7
STANDARD
  9
$CLAYER
  8
0
  9
$CELTYPE
  6
BYLAYER
  9
$CECOLOR
 62
   256
  9
$DIMSCALE
 40
1.0
  9
$DIMASZ
 40
7.0
  9
$DIMEXO
 40
1.0
  9
$DIMDLI
 40
7.0
  9
$DIMRND
 40
0.0
  9
$DIMDLE
 40
0.0
  9
$DIMEXE
 40
3.0
  9
$DIMTP
 40
0.1
  9
$DIMTM
 40
0.1
  9
$DIMTXT
 40
7.0
  9
$DIMCEN
 40
0.0
  9
$DIMTSZ
 40
0.0
  9
$DIMTOL
 70
     0
  9
$DIMLIM
 70
     0
  9
$DIMTIH
 70
     0
  9
$DIMTOH
 70
     0
  9
$DIMSE1
 70
     0
  9
$DIMSE2
 70
     0
  9
$DIMTAD
 70
     1
  9
$DIMZIN
 70
     8
  9
$DIMBLK
  1
DOTSMALL
  9
$DIMASO
 70
     1
  9
$DIMSHO
 70
     1
  9
$DIMPOST
  1

  9
$DIMAPOST
  1
"
  9
$DIMALT
 70
     0
  9
$DIMALTD
 70
     2
  9
$DIMALTF
 40
0.0393701
  9
$DIMLFAC
 40
1.0
  9
$DIMTOFL
 70
     1
  9
$DIMTVP
 40
0.0
  9
$DIMTIX
 70
     0
  9
$DIMSOXD
 70
     0
  9
$DIMSAH
 70
     0
  9
$DIMBLK1
  1

  9
$DIMBLK2
  1

  9
$DIMSTYLE
  2
SANKYO
  9
$DIMCLRD
 70
   256
  9
$DIMCLRE
 70
   256
  9
$DIMCLRT
 70
   256
  9
$DIMTFAC
 40
0.71
  9
$DIMGAP
 40
1.3
  9
$LUNITS
 70
     2
  9
$LUPREC
 70
     4
  9
$SKETCHINC
 40
1.0
  9
$FILLETRAD
 40
0.4
  9
$AUNITS
 70
     0
  9
$AUPREC
 70
     0
  9
$MENU
  1
.
  9
$ELEVATION
 40
0.0
  9
$PELEVATION
 40
0.0
  9
$THICKNESS
 40
0.0
  9
$LIMCHECK
 70
     0
  9
$BLIPMODE
 70
     0
  9
$CHAMFERA
 40
10.0
  9
$CHAMFERB
 40
10.0
  9
$SKPOLY
 70
     0
  9
$TDCREATE
 40
2455110.561913426
  9
$TDUPDATE
 40
2459033.4872882762
  9
$TDINDWG
 40
1.9087208333000001
  9
$TDUSRTIMER
 40
1.9085251852
  9
$USRTIMER
 70
     1
  9
$ANGBASE
 50
0.0
  9
$ANGDIR
 70
     0
  9
$PDMODE
 70
     0
  9
$PDSIZE
 40
0.0
  9
$PLINEWID
 40
0.0
  9
$COORDS
 70
     2
  9
$SPLFRAME
 70
     0
  9
$SPLINETYPE
 70
     6
  9
$SPLINESEGS
 70
     8
  9
$ATTDIA
 70
     1
  9
$ATTREQ
 70
     1
  9
$HANDLING
 70
     1
  9
$HANDSEED
  5
1F225
  9
$SURFTAB1
 70
     6
  9
$SURFTAB2
 70
     6
  9
$SURFTYPE
 70
     6
  9
$SURFU
 70
     6
  9
$SURFV
 70
     6
  9
$UCSNAME
  2

  9
$UCSORG
 10
0.0
 20
0.0
 30
0.0
  9
$UCSXDIR
 10
1.0
 20
0.0
 30
0.0
  9
$UCSYDIR
 10
0.0
 20
1.0
 30
0.0
  9
$PUCSNAME
  2

  9
$PUCSORG
 10
0.0
 20
0.0
 30
0.0
  9
$PUCSXDIR
 10
1.0
 20
0.0
 30
0.0
  9
$PUCSYDIR
 10
0.0
 20
1.0
 30
0.0
  9
$USERI1
 70
     0
  9
$USERI2
 70
     0
  9
$USERI3
 70
     0
  9
$USERI4
 70
     0
  9
$USERI5
 70
     0
  9
$USERR1
 40
0.0
  9
$USERR2
 40
0.0
  9
$USERR3
 40
0.0
  9
$USERR4
 40
0.0
  9
$USERR5
 40
0.0
  9
$WORLDVIEW
 70
     1
  9
$SHADEDGE
 70
     3
  9
$SHADEDIF
 70
    70
  9
$TILEMODE
 70
     1
  9
$MAXACTVP
 70
    48
  9
$PLIMCHECK
 70
     0
  9
$PEXTMIN
 10
1.0000000000000000E+020
 20
1.0000000000000000E+020
 30
1.0000000000000000E+020
  9
$PEXTMAX
 10
-1.0000000000000000E+020
 20
-1.0000000000000000E+020
 30
-1.0000000000000000E+020
  9
$PLIMMIN
 10
0.0
 20
0.0
  9
$PLIMMAX
 10
420.0
 20
297.0
  9
$UNITMODE
 70
     0
  9
$VISRETAIN
 70
     1
  9
$PLINEGEN
 70
     0
  9
$PSLTSCALE
 70
     1
  0
ENDSEC
  0
SECTION
  2
TABLES
  0
TABLE
  2
VPORT
 70
     1
  0
VPORT
  2
*ACTIVE
 70
     0
 10
0.0
 20
0.0
 11
1.0
 21
1.0
 12
592.41359224346638
 22
423.48359113394218
 13
0.0
 23
0.0
 14
2.5
 24
2.5
 15
10.0
 25
10.0
 16
0.0
 26
0.0
 36
1.0
 17
0.0
 27
0.0
 37
0.0
 40
820.92390940123255
 41
2.050913838120104
 42
50.0
 43
0.0
 44
0.0
 50
0.0
 51
0.0
 71
     0
 72
   100
 73
     1
 74
     1
 75
     0
 76
     0
 77
     0
 78
     0
  0
ENDTAB
  0
TABLE
  2
LTYPE
 70
    26
  0
LTYPE
  2
CONTINUOUS
 70
     0
  3
Solid line
 72
    65
 73
     0
 40
0.0
  0
LTYPE
  2
CENTER
 70
     0
  3
Center ____ _ ____ _ ____ _ ____ _ ____ _ ____
 72
    65
 73
     4
 40
50.799999999999997
 49
31.75
 49
-6.3499999999999988
 49
6.3499999999999988
 49
-6.3499999999999988
  0
LTYPE
  2
CENTER2
 70
     0
  3
Center (.5x) ___ _ ___ _ ___ _ ___ _ ___ _ ___
 72
    65
 73
     4
 40
28.574999999999999
 49
19.050000000000001
 49
-3.1749999999999989
 49
3.1749999999999989
 49
-3.1749999999999989
  0
LTYPE
  2
PHANTOM
 70
     0
  3
Phantom ______  __  __  ______  __  __  ______
 72
    65
 73
     6
 40
63.5
 49
31.75
 49
-6.3499999999999988
 49
6.3499999999999988
 49
-6.3499999999999988
 49
6.3499999999999988
 49
-6.3499999999999988
  0
LTYPE
  2
PHANTOM2
 70
     0
  3
Phantom (.5x) ___ _ _ ___ _ _ ___ _ _ ___ _ _
 72
    65
 73
     6
 40
31.75
 49
15.875
 49
-3.1749999999999989
 49
3.1749999999999989
 49
-3.1749999999999989
 49
3.1749999999999989
 49
-3.1749999999999989
  0
LTYPE
  2
DASHED
 70
     0
  3
Dashed __ __ __ __ __ __ __ __ __ __ __ __ __ _
 72
    65
 73
     2
 40
19.050000000000001
 49
12.699999999999999
 49
-6.3499999999999988
  0
LTYPE
  2
DASHED2
 70
     0
  3
Dashed (.5x) _ _ _ _ _ _ _ _ _ _ _ _ _ _ _ _ _
 72
    65
 73
     2
 40
9.5249999999999986
 49
6.3499999999999988
 49
-3.1749999999999989
  0
LTYPE
  2
ZIGZAG
 70
     0
  3
Zig zag /\/\/\/\/\/\/\/\/\/\/\/\/\/\/\/\/\/\/\/
 72
    65
 73
     4
 40
20.32254
 49
0.00254
 49
-5.0800000000000001
 49
-10.16
 49
-5.0800000000000001
  0
LTYPE
  2
AM_ISO02W050
 70
     0
  3
__ __ __ __ __ __ __ __ __ __ __ __ __ __ __
 72
    65
 73
     2
 40
7.5
 49
6.0
 49
-1.5
  0
LTYPE
  2
AMCONSTR
 70
     0
  3
_______________________
 72
    65
 73
     2
 40
9999.0
 49
9999.0
 49
0.0
  0
LTYPE
  2
AMZIGZAG
 70
     0
  3
/\/-/\/-/\/-/\/-/\/-/\/
 72
    65
 73
     2
 40
11.0001
 49
0.0001
 49
-11.0
  0
LTYPE
  2
ACJISTGB
 70
     0
  3
__ . . __ . .
 72
    65
 73
     6
 40
9.0
 49
4.0
 49
-1.0
 49
1.0
 49
-1.0
 49
1.0
 49
-1.0
  0
LTYPE
  2
ACJISTGL
 70
     0
  3
_ _ _ _ _
 72
    65
 73
     2
 40
3.0
 49
2.0
 49
-1.0
  0
LTYPE
  2
ACISOWELD
 70
     0
  3
_ _ _ _ _
 72
    65
 73
     2
 40
2.0
 49
2.0
 49
-1.0
  0
LTYPE
  2
ACISOTGB
 70
     0
  3
__ . . __ . .
 72
    65
 73
     6
 40
9.0
 49
4.0
 49
-1.0
 49
1.0
 49
-1.0
 49
1.0
 49
-1.0
  0
LTYPE
  2
ACISOTGL
 70
     0
  3
_ _ _ _ _
 72
    65
 73
     2
 40
3.0
 49
2.0
 49
-1.0
  0
LTYPE
  2
HIDDEN
 70
     0
  3
Hidden __ __ __ __ __ __ __ __ __ __ __ __ __ _
 72
    65
 73
     2
 40
9.5249999999999986
 49
6.3499999999999988
 49
-3.1749999999999989
  0
LTYPE
  2
AM_ISO08W050
 70
     0
  3
____ . ____ . ____ . ____ . ____ . ____ . ____
 72
    65
 73
     4
 40
18.0
 49
12.0
 49
-1.5
 49
3.0
 49
-1.5
  0
LTYPE
  2
AM_ISO09W050
 70
     0
  3
_____ . . _____ . . _____ . . ____ .. ____
 72
    65
 73
     6
 40
22.5
 49
12.0
 49
-1.5
 49
3.0
 49
-1.5
 49
3.0
 49
-1.5
  0
LTYPE
  2
AM_ISO08W050X2
 70
     0
  3
__ . __ . __ . __ . __ . __
 72
    65
 73
     4
 40
9.0
 49
6.0
 49
-0.75
 49
1.5
 49
-0.75
  0
LTYPE
  2
AM_ISO02W050X2
 70
     0
  3
 _ _ _ _ _ _ _ _ _ _ _ _
 72
    65
 73
     2
 40
3.75
 49
3.0
 49
-0.75
  0
LTYPE
  2
DDM
 70
     0
  3
中点線
 72
    65
 73
     2
 40
3.0
 49
2.0
 49
-1.0
  0
LTYPE
  2
DD2
 70
     0
  3
二点鎖線
 72
    65
 73
     6
 40
12.0
 49
6.0
 49
-1.1999999999999991
 49
1.1999999999999991
 49
-1.1999999999999991
 49
1.1999999999999991
 49
-1.1999999999999991
  0
LTYPE
  2
HIDDEN2
 70
     0
  3
Hidden (.5x) _ _ _ _ _ _ _ _ _ _ _ _ _ _ _ _ _
 72
    65
 73
     2
 40
0.1875
 49
0.125
 49
-0.0625
  0
LTYPE
  2
ACANSTGB
 70
     0
  3
__ . . __ . .
 72
    65
 73
     6
 40
0.35433070866
 49
0.15748031496
 49
-0.03937007874
 49
0.03937007874
 49
-0.03937007874
 49
0.03937007874
 49
-0.03937007874
  0
LTYPE
  2
ACANSTGL
 70
     0
  3
_ _ _ _ _
 72
    65
 73
     2
 40
0.11811023622
 49
0.07874015748
 49
-0.03937007874
  0
ENDTAB
  0
TABLE
  2
LAYER
 70
    11
  0
LAYER
  2
0
 70
     0
 62
     7
  6
CONTINUOUS
  0
LAYER
  2
KI1
 70
     0
 62
     7
  6
CONTINUOUS
  0
LAYER
  2
SU
 70
     0
 62
     3
  6
CONTINUOUS
  0
LAYER
  2
MJ
 70
     0
 62
     2
  6
CONTINUOUS
  0
LAYER
  2
OS
 70
     0
 62
     2
  6
CONTINUOUS
  0
LAYER
  2
KI2
 70
     0
 62
     4
  6
CONTINUOUS
  0
LAYER
  2
PH
 70
     0
 62
     6
  6
PHANTOM2
  0
LAYER
  2
WK
 70
     4
 62
     7
  6
CONTINUOUS
  0
LAYER
  2
DEFPOINTS
 70
     1
 62
    -7
  6
CONTINUOUS
  0
LAYER
  2
TS
 70
     0
 62
     6
  6
DASHED2
  0
LAYER
  2
CL
 70
     0
 62
     4
  6
CENTER2
  0
ENDTAB
  0
TABLE
  2
STYLE
 70
     4
  0
STYLE
  2
STANDARD
 70
     0
 40
0.0
 41
0.8299999999999999
 50
0.0
 71
     0
 42
12.5
  3
romans.shx
  4
extfont.shx
  0
STYLE
  2

 70
     1
 40
0.0
 41
1.0
 50
0.0
 71
     0
 42
2.5
  3
ltypeshp.shx
  4

  0
STYLE
  2
ACISOGDT
 70
     0
 40
0.0
 41
1.0
 50
0.0
 71
     0
 42
2.5
  3
amgdt.shx
  4

  0
STYLE
  2
ACANSGDT
 70
     0
 40
0.0
 41
1.0
 50
0.0
 71
     0
 42
12.5
  3
amgdt.shx
  4

  0
ENDTAB
  0
TABLE
  2
VIEW
 70
     6
  0
VIEW
  2
AM_VIEW1
 70
     0
 40
297.5
 10
-194.33547008547001
 20
148.25
 41
457.32905982905982
 11
0.0
 21
0.0
 31
1.0
 12
0.0
 22
0.0
 32
0.0
 42
50.0
 43
0.0
 44
0.0
 50
0.0
 71
     0
  0
VIEW
  2
AM_VIEW2
 70
     0
 40
297.5
 10
189.33547008547001
 20
148.25
 41
457.32905982905982
 11
0.0
 21
0.0
 31
1.0
 12
0.0
 22
0.0
 32
0.0
 42
50.0
 43
0.0
 44
0.0
 50
0.0
 71
     0
  0
VIEW
  2
AM_VIEW3
 70
     0
 40
297.5
 10
-194.33547008547001
 20
-149.25
 41
457.32905982905982
 11
0.0
 21
0.0
 31
1.0
 12
0.0
 22
0.0
 32
0.0
 42
50.0
 43
0.0
 44
0.0
 50
0.0
 71
     0
  0
VIEW
  2
AM_VIEW4
 70
     0
 40
297.5
 10
189.33547008547001
 20
-149.25
 41
457.32905982905982
 11
0.0
 21
0.0
 31
1.0
 12
0.0
 22
0.0
 32
0.0
 42
50.0
 43
0.0
 44
0.0
 50
0.0
 71
     0
  0
VIEW
  2
AM_VIEW5
 70
     0
 40
297.5
 10
-2.5
 20
-0.5
 41
457.32905982905982
 11
0.0
 21
0.0
 31
1.0
 12
0.0
 22
0.0
 32
0.0
 42
50.0
 43
0.0
 44
0.0
 50
0.0
 71
     0
  0
VIEW
  2
AM_VIEW6
 70
     0
 40
594.99405000000002
 10
-2.5
 20
-0.5
 41
914.6489730769232
 11
0.0
 21
0.0
 31
1.0
 12
0.0
 22
0.0
 32
0.0
 42
50.0
 43
0.0
 44
0.0
 50
0.0
 71
     0
  0
ENDTAB
  0
TABLE
  2
UCS
 70
     0
  0
ENDTAB
  0
TABLE
  2
APPID
 70
    46
  0
APPID
  2
ACAD
 70
     0
  0
APPID
  2
MCAD_NO_VIS
 70
     0
  0
APPID
  2
ACAD_TEMP_GRAPHIC
 70
     0
  0
APPID
  2
ACATTRIBSERVICES
 70
     0
  0
APPID
  2
GENIUS_GENDIMSH_14
 70
     0
  0
APPID
  2
GENIUS_GENODEF_13
 70
     0
  0
APPID
  2
GENIUS_GENOENT_13
 70
     0
  0
APPID
  2
GENIUS_GENOBJ-N-TIT_13
 70
     0
  0
APPID
  2
GENIUS_GENOLIS_13
 70
     0
  0
APPID
  2
GENIUS_GENTITLE_13
 70
     0
  0
APPID
  2
GENIUS_GENOREF_13
 70
     0
  0
APPID
  2
GENIUS_GENSCREG_15
 70
     0
  0
APPID
  2
GENIUS_GENOBJ-N-SDF_13
 70
     0
  0
APPID
  2
GENIUS_GENOBJ-N-REV_13
 70
     0
  0
APPID
  2
GENIUS_GENOBJ-N-RSSYM_13
 70
     0
  0
APPID
  2
GENIUS_GENSYMENT_13
 70
     0
  0
APPID
  2
GENIUS_GENSCSYM_13
 70
     0
  0
APPID
  2
GENIUS_GENOBJ-N-CEN_13
 70
     0
  0
APPID
  2
GENIUS_GENOBJ-N-FIL_13
 70
     0
  0
APPID
  2
GENIUS_GENBH_13
 70
     0
  0
APPID
  2
GENIUS_GENOBJ-NBEHI-BHF_13
 70
     0
  0
APPID
  2
GENIUS_GENFIL_13
 70
     0
  0
APPID
  2
GENIUS_GENOBJ-N-CHA_13
 70
     0
  0
APPID
  2
GENIUS_GENOBJ-NBEHI-BHB_13
 70
     0
  0
APPID
  2
GENIUS_GENOBJ-N-CRS_13
 70
     0
  0
APPID
  2
GENIUS_GENDTOL_13
 70
     0
  0
APPID
  2
AD_DRAW
 70
     0
  0
APPID
  2
DESIGNERASSEMBLIES
 70
     0
  0
APPID
  2
ACADM_DIM_EDIT
 70
     0
  0
APPID
  2
AMDT_DM_ADJ
 70
     0
  0
APPID
  2
ACAD_PSEXT
 70
     0
  0
APPID
  2
ACAECLAYERSTANDARD
 70
     0
  0
APPID
  2
DCO15
 70
     0
  0
APPID
  2
GENIUS_GENOBJ-N-HTC_13
 70
     0
  0
APPID
  2
GENIUS_GENHATCH_13
 70
     0
  0
APPID
  2
ACAD_NAV_VCDISPLAY
 70
     0
  0
APPID
  2
ACAD_DSTYLE_DIMARC_LENGTH_
 70
     0
  0
APPID
  2
GENIUS_GENREC_14
 70
     0
  0
APPID
  2
GENIUS_GENOBJ-N-REC_13
 70
     0
  0
APPID
  2
GENIUS_GENCEN_19
 70
     0
  0
APPID
  2
ACAD_DSTYLE_DIMBREAK
 70
     0
  0
APPID
  2
ACAD_DSTYLE_DIMJAG
 70
     0
  0
APPID
  2
ACAD_DSTYLE_DIMINSPECT
 70
     0
  0
APPID
  2
ACAD_EXEMPT_FROM_CAD_STANDARDS
 70
     0
  0
APPID
  2
CONTENTBLOCKICON
 70
     0
  0
APPID
  2
ACAD_MLEADERVER
 70
     0
  0
ENDTAB
  0
TABLE
  2
DIMSTYLE
 70
    17
  0
DIMSTYLE
  2
SANKYO
 70
     0
  3

  4
"
  5
DOTSMALL
  6

  7

 40
1.0
 41
7.0
 42
1.0
 43
7.0
 44
3.0
 45
0.0
 46
0.0
 47
0.1
 48
0.1
140
7.0
141
0.0
142
0.0
143
0.0393701
144
1.0
145
0.0
146
0.71
147
1.3
 71
     0
 72
     0
 73
     0
 74
     0
 75
     0
 76
     0
 77
     1
 78
     8
170
     0
171
     2
172
     1
173
     0
174
     0
175
     0
176
   256
177
   256
178
   256
  0
DIMSTYLE
  2
AM_ISO
 70
     0
  3

  4
"
  5

  6

  7

 40
1.0
 41
1.6000000000000001
 42
1.0
 43
7.0
 44
1.0
 45
0.0
 46
0.0
 47
0.1
 48
0.1
140
2.5
141
0.0
142
0.0
143
0.0393701
144
1.0
145
0.0
146
0.71
147
0.625
 71
     0
 72
     0
 73
     0
 74
     0
 75
     0
 76
     0
 77
     1
 78
     8
170
     0
171
     2
172
     1
173
     0
174
     0
175
     0
176
   256
177
   256
178
   256
  0
DIMSTYLE
  2
AM_ISO$3
 70
     0
  3

  4
"
  5

  6

  7

 40
1.0
 41
1.6000000000000001
 42
1.0
 43
7.0
 44
1.0
 45
0.0
 46
0.0
 47
0.1
 48
0.1
140
2.5
141
0.0
142
0.0
143
0.0393701
144
1.0
145
0.0
146
0.71
147
0.625
 71
     0
 72
     0
 73
     0
 74
     0
 75
     0
 76
     0
 77
     1
 78
     8
170
     0
171
     2
172
     1
173
     0
174
     0
175
     0
176
   256
177
   256
178
   256
  0
DIMSTYLE
  2
AM_ISO$4
 70
     0
  3

  4
"
  5

  6

  7

 40
1.0
 41
1.6000000000000001
 42
1.0
 43
7.0
 44
1.0
 45
0.0
 46
0.0
 47
0.1
 48
0.1
140
2.5
141
0.0
142
0.0
143
0.0393701
144
1.0
145
0.0
146
0.71
147
0.625
 71
     0
 72
     0
 73
     0
 74
     0
 75
     0
 76
     0
 77
     1
 78
     8
170
     0
171
     2
172
     1
173
     0
174
     0
175
     0
176
   256
177
   256
178
   256
  0
DIMSTYLE
  2
AM_ISO$6
 70
     0
  3

  4
"
  5

  6

  7

 40
1.0
 41
1.6000000000000001
 42
1.0
 43
7.0
 44
1.0
 45
0.0
 46
0.0
 47
0.1
 48
0.1
140
2.5
141
0.0
142
0.0
143
0.0393701
144
1.0
145
0.0
146
0.71
147
0.625
 71
     0
 72
     0
 73
     0
 74
     0
 75
     0
 76
     0
 77
     0
 78
     8
170
     0
171
     2
172
     1
173
     0
174
     0
175
     0
176
   256
177
   256
178
   256
  0
DIMSTYLE
  2
AM_ISO$7
 70
     0
  3

  4
"
  5

  6

  7

 40
1.0
 41
1.6000000000000001
 42
1.0
 43
7.0
 44
1.0
 45
0.0
 46
0.0
 47
0.1
 48
0.1
140
2.5
141
0.0
142
0.0
143
0.0393701
144
1.0
145
0.0
146
0.71
147
0.625
 71
     0
 72
     0
 73
     0
 74
     0
 75
     0
 76
     0
 77
     1
 78
     8
170
     0
171
     2
172
     1
173
     0
174
     0
175
     0
176
   256
177
   256
178
   256
  0
DIMSTYLE
  2
AM_ISO$SF
 70
     0
  3

  4
"
  5

  6

  7

 40
1.0
 41
2.5
 42
1.0
 43
10.0
 44
1.0
 45
0.0
 46
0.0
 47
0.1
 48
0.1
140
3.5
141
0.0
142
0.0
143
0.0393701
144
1.0
145
0.0
146
0.71
147
1.5
 71
     0
 72
     0
 73
     0
 74
     0
 75
     1
 76
     1
 77
     1
 78
     8
170
     0
171
     2
172
     1
173
     0
174
     0
175
     0
176
   256
177
   256
178
     2
  0
DIMSTYLE
  2
AM_ISO$SH
 70
     0
  3

  4
"
  5

  6
GENAXEH
  7

 40
1.0
 41
2.5
 42
1.0
 43
10.0
 44
1.0
 45
0.0
 46
0.0
 47
0.1
 48
0.1
140
3.5
141
0.0
142
0.0
143
0.0393701
144
2.0
145
0.0
146
0.71
147
1.5
 71
     0
 72
     0
 73
     0
 74
     0
 75
     1
 76
     1
 77
     1
 78
     8
170
     0
171
     2
172
     1
173
     1
174
     0
175
     0
176
   256
177
   256
178
     2
  0
DIMSTYLE
  2
AM_ISO$2
 70
     0
  3

  4
"
  5

  6

  7

 40
1.0
 41
1.6000000000000001
 42
1.0
 43
7.0
 44
1.0
 45
0.0
 46
0.0
 47
0.1
 48
0.1
140
2.5
141
0.0
142
0.0
143
0.0393701
144
1.0
145
0.0
146
0.71
147
0.625
 71
     0
 72
     0
 73
     0
 74
     0
 75
     0
 76
     0
 77
     1
 78
     8
170
     0
171
     2
172
     1
173
     0
174
     0
175
     0
176
   256
177
   256
178
   256
  0
DIMSTYLE
  2
AM_ISO$0
 70
     0
  3

  4
"
  5

  6

  7

 40
1.0
 41
1.6000000000000001
 42
1.0
 43
7.0
 44
1.0
 45
0.0
 46
0.0
 47
0.1
 48
0.1
140
2.5
141
0.0
142
0.0
143
0.0393701
144
1.0
145
0.0
146
0.71
147
0.625
 71
     0
 72
     0
 73
     0
 74
     0
 75
     0
 76
     0
 77
     1
 78
     8
170
     0
171
     2
172
     1
173
     0
174
     0
175
     0
176
   256
177
   256
178
   256
  0
DIMSTYLE
  2
SANKYO$0
 70
     0
  3

  4
"
  5
DOTSMALL
  6

  7

 40
1.0
 41
7.0
 42
1.0
 43
7.0
 44
3.0
 45
0.0
 46
0.0
 47
0.1
 48
0.1
140
7.0
141
0.0
142
0.0
143
0.0393701
144
1.0
145
0.0
146
0.71
147
1.3
 71
     0
 72
     0
 73
     0
 74
     0
 75
     0
 76
     0
 77
     1
 78
     8
170
     0
171
     2
172
     1
173
     0
174
     0
175
     0
176
   256
177
   256
178
   256
  0
DIMSTYLE
  2
AM_ANSI
 70
     0
  3

  4
mm
  5

  6

  7

 40
1.0
 41
0.12
 42
0.05
 43
0.5
 44
0.1
 45
0.0
 46
0.0
 47
0.1
 48
0.1
140
0.12
141
0.0
142
0.0
143
25.399999999999999
144
1.0
145
0.0
146
0.71
147
0.06
 71
     0
 72
     0
 73
     1
 74
     1
 75
     0
 76
     0
 77
     0
 78
     7
170
     0
171
     2
172
     0
173
     0
174
     0
175
     0
176
   256
177
   256
178
     2
  0
DIMSTYLE
  2
AM_ANSI$3
 70
     0
  3

  4
mm
  5

  6

  7

 40
1.0
 41
0.12
 42
0.05
 43
0.5
 44
0.1
 45
0.0
 46
0.0
 47
0.1
 48
0.1
140
0.12
141
0.0
142
0.0
143
25.399999999999999
144
1.0
145
0.0
146
0.71
147
0.06
 71
     0
 72
     0
 73
     1
 74
     1
 75
     0
 76
     0
 77
     0
 78
     7
170
     0
171
     2
172
     0
173
     0
174
     0
175
     0
176
   256
177
   256
178
     2
  0
DIMSTYLE
  2
AM_ANSI$4
 70
     0
  3

  4
mm
  5

  6

  7

 40
1.0
 41
0.12
 42
0.05
 43
0.5
 44
0.1
 45
0.0
 46
0.0
 47
0.1
 48
0.1
140
0.12
141
0.0
142
0.0
143
25.399999999999999
144
1.0
145
0.0
146
0.71
147
0.06
 71
     0
 72
     0
 73
     1
 74
     1
 75
     0
 76
     0
 77
     0
 78
     7
170
     0
171
     2
172
     0
173
     0
174
     0
175
     0
176
   256
177
   256
178
     2
  0
DIMSTYLE
  2
AM_ANSI$7
 70
     0
  3

  4
mm
  5

  6

  7

 40
1.0
 41
0.12
 42
0.05
 43
0.5
 44
0.1
 45
0.0
 46
0.0
 47
0.1
 48
0.1
140
0.12
141
0.0
142
0.0
143
25.399999999999999
144
1.0
145
0.0
146
0.71
147
0.06
 71
     0
 72
     0
 73
     1
 74
     1
 75
     0
 76
     0
 77
     0
 78
     7
170
     0
171
     2
172
     0
173
     0
174
     0
175
     0
176
   256
177
   256
178
     2
  0
DIMSTYLE
  2
AM_ANSI$SF
 70
     0
  3

  4
mm
  5

  6

  7

 40
1.0
 41
0.12
 42
0.05
 43
0.5
 44
0.1
 45
0.0
 46
0.0
 47
0.1
 48
0.1
140
0.12
141
0.0
142
0.0
143
25.399999999999999
144
1.0
145
0.0
146
0.71
147
0.06
 71
     0
 72
     0
 73
     1
 74
     1
 75
     1
 76
     1
 77
     0
 78
     7
170
     0
171
     2
172
     0
173
     0
174
     0
175
     0
176
   256
177
   256
178
     2
  0
DIMSTYLE
  2
AM_ANSI$SH
 70
     0
  3

  4
mm
  5

  6
GENAXEH
  7

 40
1.0
 41
0.12
 42
0.05
 43
0.5
 44
0.1
 45
0.0
 46
0.0
 47
0.1
 48
0.1
140
0.12
141
0.0
142
0.0
143
25.399999999999999
144
1.0
145
0.0
146
0.71
147
0.06
 71
     0
 72
     0
 73
     1
 74
     1
 75
     1
 76
     1
 77
     0
 78
     7
170
     0
171
     2
172
     0
173
     1
174
     0
175
     0
176
   256
177
   256
178
     2
  0
ENDTAB
  0
ENDSEC
  0
SECTION
  2
BLOCKS
  0
BLOCK
  8
0
  2
$MODEL_SPACE
 70
     0
 10
0.0
 20
0.0
 30
0.0
  3
$MODEL_SPACE
  1

  0
ENDBLK
  5
1A
  8
0
  0
BLOCK
 67
     1
  8
0
  2
$PAPER_SPACE
 70
     0
 10
0.0
 20
0.0
 30
0.0
  3
$PAPER_SPACE
  1

  0
ENDBLK
  5
17
 67
     1
  8
0
  0
BLOCK
  8
0
  2
GENAXEH
 70
     0
 10
0.0
 20
0.0
 30
0.0
  3
GENAXEH
  1

  0
LINE
  5
102
  8
0
 10
-1.0
 20
0.0
 30
0.0
 11
1.0
 21
0.0
 31
0.0
  0
ENDBLK
  5
104
  8
0
  0
BLOCK
  8
0
  2
_OPEN
 70
     0
 10
0.0
 20
0.0
 30
0.0
  3
_OPEN
  1

  0
LINE
  5
30B
  8
0
  6
BYBLOCK
 62
     0
 10
-1.0
 20
0.1666666666666666
 30
0.0
 11
0.0
 21
0.0
 31
0.0
  0
LINE
  5
30C
  8
0
  6
BYBLOCK
 62
     0
 10
-1.0
 20
-0.1666666666666666
 30
0.0
 11
0.0
 21
0.0
 31
0.0
  0
LINE
  5
30D
  8
0
  6
BYBLOCK
 62
     0
 10
0.0
 20
0.0
 30
0.0
 11
-1.0
 21
0.0
 31
0.0
  0
ENDBLK
  5
30F
  8
0
  0
BLOCK
  8
0
  2
_DOTSMALL
 70
     0
 10
0.0
 20
0.0
 30
0.0
  3
_DOTSMALL
  1

  0
POLYLINE
  5
A331
  8
0
  6
BYBLOCK
 62
     0
 66
     1
 10
0.0
 20
0.0
 30
0.0
 70
     1
 40
0.5
 41
0.5
  0
VERTEX
  5
1F20B
  8
0
  6
BYBLOCK
 62
     0
 10
-0.0625
 20
0.0
 30
0.0
 42
1.0
  0
VERTEX
  5
1F20C
  8
0
  6
BYBLOCK
 62
     0
 10
0.0625
 20
0.0
 30
0.0
 42
1.0
  0
SEQEND
  5
1F20D
  8
0
  6
BYBLOCK
 62
     0
  0
ENDBLK
  5
A333
  8
0
  0
ENDSEC
  0
SECTION
  2
ENTITIES
  0
LINE
  5
9B1A
  8
WK
 10
23.5
 20
16.25
 30
0.0
 11
1165.5
 21
16.25
 31
0.0
  0
LINE
  5
9B1C
  8
WK
 10
23.5
 20
824.75
 30
0.0
 11
23.5
 21
16.25
 31
0.0
  0
TEXT
  5
9BE2
  8
WK
 10
22.5
 20
16.25
 30
0.0
 40
3.2000000000000002
  1
A0
 50
90.0
 41
0.8299999999999999
  0
LINE
  5
9C31
  8
WK
 10
1085.5
 20
34.25
 30
0.0
 11
1085.5
 21
16.25
 31
0.0
  0
LINE
  5
9C32
  8
WK
 10
890.49999999999989
 20
34.25
 30
0.0
 11
890.49999999999989
 21
16.25
 31
0.0
  0
LINE
  5
9C34
  8
WK
 10
1045.5
 20
34.25
 30
0.0
 11
1045.5
 21
16.25
 31
0.0
  0
LINE
  5
9C35
  8
WK
 10
1065.5
 20
34.25
 30
0.0
 11
1065.5
 21
16.25
 31
0.0
  0
LINE
  5
9C37
  8
WK
 10
1005.5
 20
34.25
 30
0.0
 11
1005.5
 21
16.25
 31
0.0
  0
LINE
  5
9C38
  8
WK
 10
985.5
 20
34.25
 30
0.0
 11
985.5
 21
16.25
 31
0.0
  0
LINE
  5
9C3A
  8
WK
 10
890.49999999999989
 20
34.25
 30
0.0
 11
1165.5
 21
34.25
 31
0.0
  0
LINE
  5
9C3B
  8
WK
 10
899.5
 20
26.25
 30
0.0
 11
972.49999999999989
 21
26.25
 31
0.0
  0
LINE
  5
9C3E
  8
WK
 10
1005.5
 20
22.25
 30
0.0
 11
1045.5
 21
22.25
 31
0.0
  0
LINE
  5
9C3F
  8
WK
 10
1005.5
 20
28.25
 30
0.0
 11
1045.5
 21
28.25
 31
0.0
  0
LINE
  5
9C46
  8
WK
 10
1151.8094750193111
 20
25.25
 30
0.0
 11
1163.8094750193111
 21
25.25
 31
0.0
  0
CIRCLE
  5
9C47
  8
WK
 10
1157.8094750193111
 20
25.25
 30
0.0
 40
6.0
  0
TEXT
  5
9C56
  8
WK
 10
992.52780952380954
 20
20.649999643948512
 30
0.0
 40
3.2000000000000002
  1
1:1
 41
0.8299999999999999
 72
     4
 11
995.5
 21
22.249999643948509
 31
0.0
  0
TEXT
  5
9C57
  8
WK
 10
1087.8031333333331
 20
30.150000000000009
 30
0.0
 40
3.2000000000000002
  1
図番
 41
0.8299999999999999
  0
TEXT
  5
9C58
  8
WK
 10
1067.9290000000001
 20
30.150000000000009
 30
0.0
 40
3.2000000000000002
  1
検図
 41
0.8299999999999999
  0
TEXT
  5
9C59
  8
WK
 10
1047.9290000000001
 20
30.150000000000009
 30
0.0
 40
3.2000000000000002
  1
作図
 41
0.8299999999999999
  0
TEXT
  5
9C5A
  8
WK
 10
1006.5535725057121
 20
29.149999999999999
 30
0.0
 40
3.2000000000000002
  1
作成
 41
0.8299999999999999
  0
TEXT
  5
9C5B
  8
WK
 10
1006.5535725057121
 20
23.149999999999999
 30
0.0
 40
3.2000000000000002
  1
制定
 41
0.8299999999999999
  0
TEXT
  5
9C5C
  8
WK
 10
1006.5535725057121
 20
17.149999999999999
 30
0.0
 40
3.2000000000000002
  1
廃止
 41
0.8299999999999999
  0
TEXT
  5
9C5D
  8
WK
 10
986.42899999999997
 20
30.149999999999999
 30
0.0
 40
3.2000000000000002
  1
尺度
 41
0.8299999999999999
  0
TEXT
  5
9C5E
  8
WK
 10
973.49999999999989
 20
18.25
 30
0.0
 40
4.0
  1
基準図
 41
0.8
  0
TEXT
  5
9C77
  8
WK
 10
892.30313333333345
 20
30.150000000000009
 30
0.0
 40
3.2000000000000002
  1
図名
 41
0.8299999999999999
  0
LINE
  5
9E0D
  8
WK
 10
23.5
 20
824.75
 30
0.0
 11
1165.5
 21
824.75
 31
0.0
  0
LINE
  5
9E18
  8
WK
 10
1165.5
 20
824.75
 30
0.0
 11
1165.5
 21
16.25
 31
0.0
  0
TEXT
  5
12887
  8
WK
 10
1130.0726417273511
 20
826.75
 30
0.0
 40
4.0
  1
大栄建材株式会社
 41
0.9
 72
     2
 11
1163.672641727351
 21
826.75
 31
0.0
  0
TEXT
  5
13021
  8
MJ
 10
1005.5
 20
42.25
 30
0.0
 40
7.0
  1
cl11a007
 41
0.8299999999999999
  0
TEXT
  5
13022
  8
MJ
 10
1005.5
 20
69.25
 30
0.0
 40
7.0
  1
クレーヴァ25・35　Ｙレール引戸
 41
0.8299999999999999
  0
TEXT
  5
13023
  8
MJ
 10
1005.5
 20
60.25
 30
0.0
 40
7.0
  1
3枚引戸
 41
0.8299999999999999
  0
TEXT
  5
13024
  8
MJ
 10
1005.5
 20
78.25
 30
0.0
 40
7.0
  1
スーパースクリーン　クレーヴァ
 41
0.8299999999999999
  0
TEXT
  5
13025
  8
MJ
 10
1005.5
 20
51.25
 30
0.0
 40
7.0
  1
たて横断面
 41
0.8299999999999999
  0
LINE
  5
16CB2
  8
KI1
 10
202.9470536520156
 20
627.10574473009865
 30
-0.0000000000000014
 11
235.9470448703338
 21
627.10574473009865
 31
-0.0000000000000014
  0
LINE
  5
16CB5
  8
KI2
 10
215.94705365208401
 20
333.11057788732762
 30
-0.0000000000000014
 11
218.44705365208401
 21
331.61057788732751
 31
-0.0000000000000014
  0
LINE
  5
16CB6
  8
KI2
 10
215.94705365208401
 20
335.60574394672591
 30
-0.0000000000000014
 11
215.94705365208401
 21
333.11057788732762
 31
-0.0000000000000014
  0
LINE
  5
16CB7
  8
KI2
 10
220.44705365208401
 20
330.11057788732762
 30
-0.0000000000000014
 11
219.44705365208409
 21
330.11057788732762
 31
-0.0000000000000014
  0
LINE
  5
16CB8
  8
KI2
 10
218.44705365208401
 20
330.11057788732762
 30
-0.0000000000000014
 11
219.44705365208409
 21
330.11057788732762
 31
-0.0000000000000014
  0
LINE
  5
16CB9
  8
KI2
 10
222.94705365208401
 20
333.11057788732762
 30
-0.0000000000000014
 11
220.44705365208401
 21
331.61057788732751
 31
-0.0000000000000014
  0
LINE
  5
16CBA
  8
KI2
 10
222.94705365208401
 20
335.60574394672591
 30
-0.0000000000000014
 11
222.94705365208401
 21
333.11057788732762
 31
-0.0000000000000014
  0
LINE
  5
16CBB
  8
KI2
 10
220.44705365208401
 20
335.60574394672591
 30
-0.0000000000000014
 11
220.44705365208401
 21
330.11057788732762
 31
-0.0000000000000014
  0
LINE
  5
16CBC
  8
KI2
 10
218.44705365208401
 20
335.60574394672591
 30
-0.0000000000000014
 11
218.44705365208401
 21
330.11057788732762
 31
-0.0000000000000014
  0
LINE
  5
16CBD
  8
KI2
 10
204.44705365208489
 20
335.6057439467258
 30
-0.0000000000000014
 11
234.44705365208489
 21
335.60574394672602
 31
-0.0000000000000014
  0
LINE
  5
16CBE
  8
KI1
 10
202.94705365208489
 20
337.1057439467258
 30
-0.0000000000000014
 11
235.9470536520156
 21
337.1057439467258
 31
-0.0000000000000014
  0
ARC
  5
16CBF
  8
KI2
 10
204.44705365208489
 20
337.1057439467258
 30
-0.0000000000000014
 40
1.5
 50
180.0
 51
270.0
  0
ARC
  5
16CC0
  8
KI2
 10
234.44705365208489
 20
337.1057439467258
 30
-0.0000000000000014
 40
1.5
 50
270.0
 51
0.0
  0
LINE
  5
16CC6
  8
KI1
 10
202.9470536520156
 20
627.10574473009865
 30
-0.0000000000000014
 11
202.9470536520156
 21
337.1057439467258
 31
-0.0000000000000014
  0
LINE
  5
16CC7
  8
KI1
 10
235.9470536520156
 20
627.10574473009865
 30
-0.0000000000000014
 11
235.9470536520156
 21
337.1057439467258
 31
-0.0000000000000014
  0
LINE
  5
16CCA
  8
OS
 10
99.447110634857964
 20
112.28300748772079
 30
-0.0000000000000014
 11
339.44711063485789
 21
112.28300748772079
 31
-0.0000000000000014
  0
LINE
  5
16CCE
  8
OS
 10
99.447110634857964
 20
114.28300748772079
 30
-0.0000000000000014
 11
174.9470536520156
 21
114.28300748772079
 31
-0.0000000000000014
  0
LINE
  5
16CCF
  8
OS
 10
263.9470536520156
 20
114.28300748772079
 30
-0.0000000000000014
 11
339.44711063485789
 21
114.28300748772079
 31
-0.0000000000000014
  0
LINE
  5
16CD0
  8
OS
 10
99.447110634857964
 20
118.28300748772079
 30
-0.0000000000000014
 11
174.9470536520156
 21
118.28300748772079
 31
-0.0000000000000014
  0
LINE
  5
16CD1
  8
OS
 10
263.9470536520156
 20
118.28300748772079
 30
-0.0000000000000014
 11
339.44711063485789
 21
118.28300748772079
 31
-0.0000000000000014
  0
LINE
  5
16CD2
  8
OS
 10
99.447110634857964
 20
122.28300748772079
 30
-0.0000000000000014
 11
174.9470536520156
 21
122.28300748772079
 31
-0.0000000000000014
  0
LINE
  5
16CD3
  8
OS
 10
263.9470536520156
 20
122.28300748772079
 30
-0.0000000000000014
 11
339.44711063485789
 21
122.28300748772079
 31
-0.0000000000000014
  0
LINE
  5
16CD5
  8
OS
 10
99.447110634857964
 20
116.28300748772079
 30
-0.0000000000000014
 11
174.9470536520156
 21
116.2830074877206
 31
-0.0000000000000014
  0
LINE
  5
16CD6
  8
OS
 10
263.9470536520156
 20
116.2830074877205
 30
-0.0000000000000014
 11
339.44711063485789
 21
116.2830074877204
 31
-0.0000000000000014
  0
LINE
  5
16CD7
  8
OS
 10
99.447110634857964
 20
120.28300748772079
 30
-0.0000000000000014
 11
174.9470536520156
 21
120.28300748772089
 31
-0.0000000000000014
  0
LINE
  5
16CD8
  8
OS
 10
263.9470536520156
 20
120.28300748772079
 30
-0.0000000000000014
 11
339.44711063485789
 21
120.28300748772079
 31
-0.0000000000000014
  0
LINE
  5
16CD9
  8
OS
 10
99.447110634857964
 20
124.28300748772079
 30
-0.0000000000000014
 11
174.9470536520156
 21
124.28300748772079
 31
-0.0000000000000014
  0
LINE
  5
16CDA
  8
OS
 10
263.9470536520156
 20
124.28300748772079
 30
-0.0000000000000014
 11
339.44711063485789
 21
124.28300748772079
 31
-0.0000000000000014
  0
LINE
  5
16CDE
  8
KI2
 10
215.94705365208401
 20
126.111047933561
 30
-0.0000000000000014
 11
218.44705365208401
 21
124.611047933561
 31
-0.0000000000000014
  0
LINE
  5
16CDF
  8
KI2
 10
215.94705365208401
 20
129.78300748772091
 30
-0.0000000000000014
 11
215.94705365208401
 21
126.111047933561
 31
-0.0000000000000014
  0
LINE
  5
16CE0
  8
KI2
 10
220.44705365208401
 20
123.111047933561
 30
-0.0000000000000014
 11
219.44705365208409
 21
123.111047933561
 31
-0.0000000000000014
  0
LINE
  5
16CE1
  8
KI2
 10
218.44705365208401
 20
123.111047933561
 30
-0.0000000000000014
 11
219.44705365208409
 21
123.111047933561
 31
-0.0000000000000014
  0
LINE
  5
16CE2
  8
KI2
 10
222.94705365208401
 20
126.111047933561
 30
-0.0000000000000014
 11
220.44705365208401
 21
124.611047933561
 31
-0.0000000000000014
  0
LINE
  5
16CE3
  8
KI2
 10
222.94705365208401
 20
129.78300748772091
 30
-0.0000000000000014
 11
222.94705365208401
 21
126.111047933561
 31
-0.0000000000000014
  0
LINE
  5
16CE4
  8
KI2
 10
220.44705365208401
 20
129.78300748772091
 30
-0.0000000000000014
 11
220.44705365208401
 21
123.111047933561
 31
-0.0000000000000014
  0
LINE
  5
16CE5
  8
KI2
 10
218.44705365208401
 20
129.78300748772091
 30
-0.0000000000000014
 11
218.44705365208401
 21
123.111047933561
 31
-0.0000000000000014
  0
LINE
  5
16CE6
  8
KI2
 10
204.44705365208489
 20
129.78300748772079
 30
-0.0000000000000014
 11
234.44705365208489
 21
129.78300748772091
 31
-0.0000000000000014
  0
LINE
  5
16CE7
  8
KI1
 10
202.94705365208489
 20
131.28300748772079
 30
-0.0000000000000014
 11
235.9470536520156
 21
131.28300748772079
 31
-0.0000000000000014
  0
ARC
  5
16CE8
  8
KI2
 10
204.44705365208489
 20
131.28300748772079
 30
-0.0000000000000014
 40
1.5
 50
180.0
 51
270.0
  0
ARC
  5
16CE9
  8
KI2
 10
234.44705365208489
 20
131.28300748772079
 30
-0.0000000000000014
 40
1.5
 50
270.0
 51
0.0
  0
LINE
  5
16CEA
  8
KI1
 10
202.9470536520156
 20
244.28300748772091
 30
-0.0000000000000014
 11
202.9470536520156
 21
131.28300748772079
 31
-0.0000000000000014
  0
LINE
  5
16CEB
  8
KI1
 10
235.9470536520156
 20
244.28300748772091
 30
-0.0000000000000014
 11
235.9470536520156
 21
131.28300748772079
 31
-0.0000000000000014
  0
LINE
  5
16CEC
  8
KI1
 10
166.9470536520156
 20
627.10574473009865
 30
-0.0000000000000014
 11
199.9470448703338
 21
627.10574473009865
 31
-0.0000000000000014
  0
LINE
  5
16CEE
  8
KI2
 10
179.94705365208401
 20
333.11057788732762
 30
-0.0000000000000014
 11
182.44705365208401
 21
331.61057788732751
 31
-0.0000000000000014
  0
LINE
  5
16CEF
  8
KI2
 10
179.94705365208401
 20
335.60574394672591
 30
-0.0000000000000014
 11
179.94705365208401
 21
333.11057788732762
 31
-0.0000000000000014
  0
LINE
  5
16CF0
  8
KI2
 10
184.44705365208401
 20
330.11057788732762
 30
-0.0000000000000014
 11
183.44705365208401
 21
330.11057788732762
 31
-0.0000000000000014
  0
LINE
  5
16CF1
  8
KI2
 10
182.44705365208401
 20
330.11057788732762
 30
-0.0000000000000014
 11
183.44705365208401
 21
330.11057788732762
 31
-0.0000000000000014
  0
LINE
  5
16CF2
  8
KI2
 10
186.94705365208401
 20
333.11057788732762
 30
-0.0000000000000014
 11
184.44705365208401
 21
331.61057788732751
 31
-0.0000000000000014
  0
LINE
  5
16CF3
  8
KI2
 10
186.94705365208401
 20
335.60574394672591
 30
-0.0000000000000014
 11
186.94705365208401
 21
333.11057788732762
 31
-0.0000000000000014
  0
LINE
  5
16CF4
  8
KI2
 10
184.44705365208401
 20
335.60574394672591
 30
-0.0000000000000014
 11
184.44705365208401
 21
330.11057788732762
 31
-0.0000000000000014
  0
LINE
  5
16CF5
  8
KI2
 10
182.44705365208401
 20
335.60574394672591
 30
-0.0000000000000014
 11
182.44705365208401
 21
330.11057788732762
 31
-0.0000000000000014
  0
LINE
  5
16CF6
  8
KI2
 10
168.44705365208489
 20
335.6057439467258
 30
-0.0000000000000014
 11
198.44705365208489
 21
335.60574394672602
 31
-0.0000000000000014
  0
LINE
  5
16CF7
  8
KI1
 10
166.94705365208489
 20
337.1057439467258
 30
-0.0000000000000014
 11
199.9470536520156
 21
337.1057439467258
 31
-0.0000000000000014
  0
ARC
  5
16CF8
  8
KI2
 10
168.44705365208489
 20
337.1057439467258
 30
-0.0000000000000014
 40
1.5
 50
180.0
 51
270.0
  0
ARC
  5
16CF9
  8
KI2
 10
198.44705365208489
 20
337.1057439467258
 30
-0.0000000000000014
 40
1.5
 50
270.0
 51
0.0
  0
LINE
  5
16CFA
  8
KI1
 10
166.9470536520156
 20
627.10574473009865
 30
-0.0000000000000014
 11
166.9470536520156
 21
337.1057439467258
 31
-0.0000000000000014
  0
LINE
  5
16CFB
  8
KI1
 10
199.9470536520156
 20
627.10574473009865
 30
-0.0000000000000014
 11
199.9470536520156
 21
337.1057439467258
 31
-0.0000000000000014
  0
LINE
  5
16CFE
  8
KI2
 10
179.94705365208401
 20
126.111047933561
 30
-0.0000000000000014
 11
182.44705365208401
 21
124.611047933561
 31
-0.0000000000000014
  0
LINE
  5
16CFF
  8
KI2
 10
179.94705365208401
 20
129.78300748772091
 30
-0.0000000000000014
 11
179.94705365208401
 21
126.111047933561
 31
-0.0000000000000014
  0
LINE
  5
16D00
  8
KI2
 10
184.44705365208401
 20
123.111047933561
 30
-0.0000000000000014
 11
183.44705365208401
 21
123.111047933561
 31
-0.0000000000000014
  0
LINE
  5
16D01
  8
KI2
 10
182.44705365208401
 20
123.111047933561
 30
-0.0000000000000014
 11
183.44705365208401
 21
123.111047933561
 31
-0.0000000000000014
  0
LINE
  5
16D02
  8
KI2
 10
186.94705365208401
 20
126.111047933561
 30
-0.0000000000000014
 11
184.44705365208401
 21
124.611047933561
 31
-0.0000000000000014
  0
LINE
  5
16D03
  8
KI2
 10
186.94705365208401
 20
129.78300748772091
 30
-0.0000000000000014
 11
186.94705365208401
 21
126.111047933561
 31
-0.0000000000000014
  0
LINE
  5
16D04
  8
KI2
 10
184.44705365208401
 20
129.78300748772091
 30
-0.0000000000000014
 11
184.44705365208401
 21
123.111047933561
 31
-0.0000000000000014
  0
LINE
  5
16D05
  8
KI2
 10
182.44705365208401
 20
129.78300748772091
 30
-0.0000000000000014
 11
182.44705365208401
 21
123.111047933561
 31
-0.0000000000000014
  0
LINE
  5
16D06
  8
KI2
 10
168.44705365208489
 20
129.78300748772079
 30
-0.0000000000000014
 11
198.44705365208489
 21
129.78300748772091
 31
-0.0000000000000014
  0
LINE
  5
16D07
  8
KI1
 10
166.94705365208489
 20
131.28300748772079
 30
-0.0000000000000014
 11
199.9470536520156
 21
131.28300748772079
 31
-0.0000000000000014
  0
ARC
  5
16D08
  8
KI2
 10
168.44705365208489
 20
131.28300748772079
 30
-0.0000000000000014
 40
1.5
 50
180.0
 51
270.0
  0
ARC
  5
16D09
  8
KI2
 10
198.44705365208489
 20
131.28300748772079
 30
-0.0000000000000014
 40
1.5
 50
270.0
 51
0.0
  0
LINE
  5
16D0A
  8
KI1
 10
166.9470536520156
 20
244.28300748772091
 30
-0.0000000000000014
 11
166.9470536520156
 21
131.28300748772079
 31
-0.0000000000000014
  0
LINE
  5
16D0B
  8
KI1
 10
199.9470536520156
 20
244.28300748772091
 30
-0.0000000000000014
 11
199.9470536520156
 21
131.28300748772079
 31
-0.0000000000000014
  0
LINE
  5
16D0C
  8
OS
 10
174.9470536520156
 20
124.28300748772079
 30
-0.0000000000000014
 11
174.9470536520156
 21
112.28300748772079
 31
-0.0000000000000014
  0
LINE
  5
16D23
  8
KI1
 10
238.9470536520156
 20
627.10574473009865
 30
-0.0000000000000014
 11
271.9470448703338
 21
627.10574473009865
 31
-0.0000000000000014
  0
LINE
  5
16D25
  8
KI2
 10
251.94705365208401
 20
333.11057788732762
 30
-0.0000000000000014
 11
254.44705365208401
 21
331.61057788732751
 31
-0.0000000000000014
  0
LINE
  5
16D26
  8
KI2
 10
251.94705365208401
 20
335.60574394672591
 30
-0.0000000000000014
 11
251.94705365208401
 21
333.11057788732762
 31
-0.0000000000000014
  0
LINE
  5
16D27
  8
KI2
 10
256.44705365208398
 20
330.11057788732762
 30
-0.0000000000000014
 11
255.44705365208401
 21
330.11057788732762
 31
-0.0000000000000014
  0
LINE
  5
16D28
  8
KI2
 10
254.44705365208401
 20
330.11057788732762
 30
-0.0000000000000014
 11
255.44705365208401
 21
330.11057788732762
 31
-0.0000000000000014
  0
LINE
  5
16D29
  8
KI2
 10
258.94705365208409
 20
333.11057788732762
 30
-0.0000000000000014
 11
256.44705365208398
 21
331.61057788732751
 31
-0.0000000000000014
  0
LINE
  5
16D2A
  8
KI2
 10
258.94705365208409
 20
335.60574394672591
 30
-0.0000000000000014
 11
258.94705365208409
 21
333.11057788732762
 31
-0.0000000000000014
  0
LINE
  5
16D2B
  8
KI2
 10
256.44705365208398
 20
335.60574394672591
 30
-0.0000000000000014
 11
256.44705365208398
 21
330.11057788732762
 31
-0.0000000000000014
  0
LINE
  5
16D2C
  8
KI2
 10
254.44705365208401
 20
335.60574394672591
 30
-0.0000000000000014
 11
254.44705365208401
 21
330.11057788732762
 31
-0.0000000000000014
  0
LINE
  5
16D2D
  8
KI2
 10
240.44705365208489
 20
335.6057439467258
 30
-0.0000000000000014
 11
270.447053652085
 21
335.60574394672602
 31
-0.0000000000000014
  0
LINE
  5
16D2E
  8
KI1
 10
238.947053652085
 20
337.1057439467258
 30
-0.0000000000000014
 11
271.9470536520156
 21
337.1057439467258
 31
-0.0000000000000014
  0
ARC
  5
16D2F
  8
KI2
 10
240.44705365208489
 20
337.1057439467258
 30
-0.0000000000000014
 40
1.5
 50
180.0
 51
270.0
  0
ARC
  5
16D30
  8
KI2
 10
270.447053652085
 20
337.1057439467258
 30
-0.0000000000000014
 40
1.5
 50
270.0
 51
0.0
  0
LINE
  5
16D31
  8
KI1
 10
238.9470536520156
 20
627.10574473009865
 30
-0.0000000000000014
 11
238.9470536520156
 21
337.1057439467258
 31
-0.0000000000000014
  0
LINE
  5
16D32
  8
KI1
 10
271.9470536520156
 20
627.10574473009865
 30
-0.0000000000000014
 11
271.9470536520156
 21
337.1057439467258
 31
-0.0000000000000014
  0
LINE
  5
16D38
  8
KI2
 10
251.94705365208401
 20
126.111047933561
 30
-0.0000000000000014
 11
254.44705365208401
 21
124.611047933561
 31
-0.0000000000000014
  0
LINE
  5
16D39
  8
KI2
 10
251.94705365208401
 20
129.78300748772091
 30
-0.0000000000000014
 11
251.94705365208401
 21
126.111047933561
 31
-0.0000000000000014
  0
LINE
  5
16D3A
  8
KI2
 10
256.44705365208398
 20
123.111047933561
 30
-0.0000000000000014
 11
255.44705365208401
 21
123.111047933561
 31
-0.0000000000000014
  0
LINE
  5
16D3B
  8
KI2
 10
254.44705365208401
 20
123.111047933561
 30
-0.0000000000000014
 11
255.44705365208401
 21
123.111047933561
 31
-0.0000000000000014
  0
LINE
  5
16D3C
  8
KI2
 10
258.94705365208409
 20
126.111047933561
 30
-0.0000000000000014
 11
256.44705365208398
 21
124.611047933561
 31
-0.0000000000000014
  0
LINE
  5
16D3D
  8
KI2
 10
258.94705365208409
 20
129.78300748772091
 30
-0.0000000000000014
 11
258.94705365208409
 21
126.111047933561
 31
-0.0000000000000014
  0
LINE
  5
16D3E
  8
KI2
 10
256.44705365208398
 20
129.78300748772091
 30
-0.0000000000000014
 11
256.44705365208398
 21
123.111047933561
 31
-0.0000000000000014
  0
LINE
  5
16D3F
  8
KI2
 10
254.44705365208401
 20
129.78300748772091
 30
-0.0000000000000014
 11
254.44705365208401
 21
123.111047933561
 31
-0.0000000000000014
  0
LINE
  5
16D40
  8
KI2
 10
240.44705365208489
 20
129.78300748772079
 30
-0.0000000000000014
 11
270.447053652085
 21
129.78300748772091
 31
-0.0000000000000014
  0
LINE
  5
16D41
  8
KI1
 10
238.947053652085
 20
131.28300748772079
 30
-0.0000000000000014
 11
271.9470536520156
 21
131.28300748772079
 31
-0.0000000000000014
  0
ARC
  5
16D42
  8
KI2
 10
240.44705365208489
 20
131.28300748772079
 30
-0.0000000000000014
 40
1.5
 50
180.0
 51
270.0
  0
ARC
  5
16D43
  8
KI2
 10
270.447053652085
 20
131.28300748772079
 30
-0.0000000000000014
 40
1.5
 50
270.0
 51
0.0
  0
LINE
  5
16D44
  8
KI1
 10
238.9470536520156
 20
244.28300748772091
 30
-0.0000000000000014
 11
238.9470536520156
 21
131.28300748772079
 31
-0.0000000000000014
  0
LINE
  5
16D45
  8
KI1
 10
271.9470536520156
 20
244.28300748772091
 30
-0.0000000000000014
 11
271.9470536520156
 21
131.28300748772079
 31
-0.0000000000000014
  0
LINE
  5
16D46
  8
OS
 10
263.9470536520156
 20
124.28300748772079
 30
-0.0000000000000014
 11
263.9470536520156
 21
112.28300748772079
 31
-0.0000000000000014
  0
LINE
  5
16D55
  8
OS
 10
136.44704608540911
 20
388.10574593944671
 30
-0.0000000000000014
 11
166.9470536520156
 21
388.10574593944671
 31
-0.0000000000000014
  0
LINE
  5
16D57
  8
OS
 10
168.19704608540911
 20
664.10574394563082
 30
-0.0000000000000014
 11
99.447110634857964
 21
664.10574394563082
 31
-0.0000000000000014
  0
LINE
  5
16D58
  8
OS
 10
168.19704608540911
 20
673.60574394563082
 30
-0.0000000000000014
 11
99.447110634857964
 21
673.60574394563082
 31
-0.0000000000000014
  0
LINE
  5
16D59
  8
OS
 10
271.94704608540923
 20
748.60574394563082
 30
-0.0000000000000014
 11
271.94704608540923
 21
673.60574394563082
 31
-0.0000000000000014
  0
LINE
  5
16D5A
  8
OS
 10
166.9470460854092
 20
748.60574394563082
 30
-0.0000000000000014
 11
166.9470460854092
 21
673.60574394563082
 31
-0.0000000000000014
  0
LINE
  5
16D5B
  8
OS
 10
339.44711063485789
 20
671.60574394563071
 30
-0.0000000000000014
 11
270.69704608540923
 21
671.60574394563071
 31
-0.0000000000000014
  0
LINE
  5
16D5C
  8
OS
 10
168.19704608540911
 20
671.60574394563071
 30
-0.0000000000000014
 11
99.447110634857964
 21
671.60574394563071
 31
-0.0000000000000014
  0
LINE
  5
16D5D
  8
OS
 10
339.44711063485789
 20
666.10574394563082
 30
-0.0000000000000014
 11
270.69704608540923
 21
666.10574394563082
 31
-0.0000000000000014
  0
LINE
  5
16D5E
  8
OS
 10
168.19704608540911
 20
666.10574394563082
 30
-0.0000000000000014
 11
99.447110634857964
 21
666.10574394563082
 31
-0.0000000000000014
  0
LINE
  5
16D5F
  8
OS
 10
121.9471618418071
 20
718.60574394563082
 30
-0.0000000000000014
 11
121.9471618418071
 21
673.60574394563082
 31
-0.0000000000000014
  0
LINE
  5
16D60
  8
OS
 10
121.9471618418071
 20
718.60574394563082
 30
-0.0000000000000014
 11
166.9470460854092
 21
718.60574394563082
 31
-0.0000000000000014
  0
LINE
  5
16D61
  8
OS
 10
121.9471618418071
 20
673.60574394563082
 30
-0.0000000000000014
 11
166.9470460854092
 21
718.60574394563082
 31
-0.0000000000000014
  0
LINE
  5
16D62
  8
OS
 10
316.9454448426622
 20
718.60821967767367
 30
-0.0000000000000014
 11
316.94658750029032
 21
673.60821969218114
 31
-0.0000000000000014
  0
LINE
  5
16D63
  8
OS
 10
316.9454448426622
 20
718.60821967767367
 30
-0.0000000000000014
 11
271.94556061356758
 21
718.6070770229851
 31
-0.0000000000000014
  0
LINE
  5
16D64
  8
OS
 10
271.94704608540923
 20
673.60574394563082
 30
-0.0000000000000014
 11
316.9454448426622
 21
718.60821967767367
 31
-0.0000000000000014
  0
LINE
  5
16D65
  8
OS
 10
339.44711063485789
 20
664.10574394563093
 30
-0.0000000000000014
 11
270.69704608540923
 21
664.10574394563082
 31
-0.0000000000000014
  0
LINE
  5
16D66
  8
OS
 10
339.44711063485789
 20
673.60574394563082
 30
-0.0000000000000014
 11
270.69704608540923
 21
673.60574394563082
 31
-0.0000000000000014
  0
LINE
  5
16D68
  8
OS
 10
168.19704608540911
 20
664.10574394563082
 30
-0.0000000000000014
 11
270.69704608540923
 21
673.60574394563082
 31
-0.0000000000000014
  0
LINE
  5
16D69
  8
OS
 10
142.44704608540911
 20
664.10574394563082
 30
-0.0000000000000014
 11
142.44704608540911
 21
586.62041032103377
 31
-0.0000000000000014
  0
LINE
  5
16D6A
  8
OS
 10
142.44704608540911
 20
568.62041032103377
 30
-0.0000000000000014
 11
142.44704608540911
 21
388.10574593944671
 31
-0.0000000000000014
  0
LINE
  5
16D6B
  8
TS
 10
142.44704608540911
 20
388.10574593944671
 30
-0.0000000000000014
 11
142.44704608540911
 21
328.10574593944671
 31
-0.0000000000000014
  0
LINE
  5
16D6C
  8
OS
 10
136.44704608540911
 20
388.10574593944671
 30
-0.0000000000000014
 11
136.44704608540911
 21
328.10574593944671
 31
-0.0000000000000014
  0
LINE
  5
16D6D
  8
OS
 10
296.44704608540923
 20
664.10574394563082
 30
-0.0000000000000014
 11
296.44704608540923
 21
586.62041032103377
 31
-0.0000000000000014
  0
LINE
  5
16D6E
  8
OS
 10
296.44704608540923
 20
568.62041032103377
 30
-0.0000000000000014
 11
296.44704608540923
 21
388.10574593944671
 31
-0.0000000000000014
  0
LINE
  5
16D6F
  8
OS
 10
302.44704608540923
 20
388.10574593944671
 30
-0.0000000000000014
 11
271.9470536520156
 21
388.10574593944671
 31
-0.0000000000000014
  0
LINE
  5
16D70
  8
TS
 10
296.44704608540923
 20
388.10574593944671
 30
-0.0000000000000014
 11
296.44704608540923
 21
328.10574593944671
 31
-0.0000000000000014
  0
LINE
  5
16D71
  8
OS
 10
302.44704608540923
 20
388.10574593944671
 30
-0.0000000000000014
 11
302.44704608540923
 21
328.10574593944671
 31
-0.0000000000000014
  0
TEXT
  5
16D73
  8
SU
 10
105.4881436162144
 20
386.48319190087341
 30
-0.0000000000000014
 40
7.9999999999999956
  1
巾木
 41
0.9
  0
LINE
  5
16DAF
  8
OS
 10
136.44704608540911
 20
184.28300948044171
 30
-0.0000000000000014
 11
166.9470536520156
 21
184.28300948044171
 31
-0.0000000000000014
  0
LINE
  5
16DB0
  8
OS
 10
142.44704608540911
 20
244.28300748772091
 30
-0.0000000000000014
 11
142.44704608540911
 21
184.28300948044171
 31
-0.0000000000000014
  0
LINE
  5
16DB1
  8
TS
 10
142.44704608540911
 20
184.28300948044171
 30
-0.0000000000000014
 11
142.44704608540911
 21
124.28300948044171
 31
-0.0000000000000014
  0
LINE
  5
16DB2
  8
OS
 10
136.44704608540911
 20
184.28300948044171
 30
-0.0000000000000014
 11
136.44704608540911
 21
124.28300948044171
 31
-0.0000000000000014
  0
LINE
  5
16DB3
  8
OS
 10
296.44704608540923
 20
244.28300748772091
 30
-0.0000000000000014
 11
296.44704608540923
 21
184.28300948044171
 31
-0.0000000000000014
  0
LINE
  5
16DB4
  8
OS
 10
302.44704608540923
 20
184.28300948044171
 30
-0.0000000000000014
 11
271.9470536520156
 21
184.28300948044171
 31
-0.0000000000000014
  0
LINE
  5
16DB5
  8
TS
 10
296.44704608540923
 20
184.28300948044171
 30
-0.0000000000000014
 11
296.44704608540923
 21
124.28300948044171
 31
-0.0000000000000014
  0
LINE
  5
16DB6
  8
OS
 10
302.44704608540923
 20
184.28300948044171
 30
-0.0000000000000014
 11
302.44704608540923
 21
124.28300948044171
 31
-0.0000000000000014
  0
TEXT
  5
16DB8
  8
SU
 10
105.4881436162144
 20
182.66045544186841
 30
-0.0000000000000014
 40
7.9999999999999956
  1
巾木
 41
0.9
  0
LINE
  5
16DB9
  8
OS
 10
241.94676726340839
 20
748.60574394563082
 30
-0.0000000000000014
 11
166.9470460854092
 21
673.60574394563082
 31
-0.0000000000000014
  0
LINE
  5
16DC1
  8
OS
 10
199.9470536520156
 20
388.10574593944671
 30
-0.0000000000000014
 11
202.9470536520156
 21
388.10574593944671
 31
-0.0000000000000014
  0
LINE
  5
16DC2
  8
OS
 10
235.9470536520156
 20
388.10574593944671
 30
-0.0000000000000014
 11
238.9470536520156
 21
388.10574593944671
 31
-0.0000000000000014
  0
LINE
  5
16DC3
  8
OS
 10
199.9470536520156
 20
184.28300948044171
 30
-0.0000000000000014
 11
202.9470536520156
 21
184.28300948044171
 31
-0.0000000000000014
  0
LINE
  5
16DC4
  8
OS
 10
235.9470536520156
 20
184.28300948044171
 30
-0.0000000000000014
 11
238.9470536520156
 21
184.28300948044171
 31
-0.0000000000000014
  0
LINE
  5
175FD
  8
KI2
 10
214.8470936520165
 20
126.0830310987441
 30
-0.0000000000000014
 11
215.8470936520165
 21
126.0830310987441
 31
-0.0000000000000014
  0
LINE
  5
175FE
  8
KI2
 10
215.94709365201641
 20
118.98303109874411
 30
-0.0000000000000014
 11
214.8470936520165
 21
122.0230310987441
 31
-0.0000000000000014
  0
LINE
  5
175FF
  8
KI2
 10
215.24709365201639
 20
116.083031098744
 30
-0.0000000000000014
 11
215.94709365201641
 21
116.083031098744
 31
-0.0000000000000014
  0
LINE
  5
17600
  8
KI2
 10
215.94709365201641
 20
117.5830310987441
 30
-0.0000000000000014
 11
215.3470936520165
 21
116.8830310987441
 31
-0.0000000000000014
  0
ARC
  5
17601
  8
KI2
 10
214.8470936520165
 20
125.7830310987441
 30
-0.0000000000000014
 40
0.3
 50
90.0
 51
180.0
  0
LINE
  5
17602
  8
KI2
 10
214.54709365201651
 20
122.3830310987441
 30
-0.0000000000000014
 11
214.8470936520165
 21
122.0230310987441
 31
-0.0000000000000014
  0
LINE
  5
17603
  8
KI2
 10
214.74709365201639
 20
116.8830310987441
 30
-0.0000000000000014
 11
214.74709365201639
 21
116.5830310987441
 31
-0.0000000000000014
  0
ARC
  5
17604
  8
KI2
 10
215.24709365201639
 20
116.5830310987441
 30
-0.0000000000000014
 40
0.5
 50
180.0
 51
270.0
  0
LINE
  5
17605
  8
KI2
 10
214.74709365201639
 20
116.8830310987441
 30
-0.0000000000000014
 11
215.3470936520165
 21
116.8830310987441
 31
-0.0000000000000014
  0
LINE
  5
17606
  8
KI2
 10
214.54709365201651
 20
125.7830310987441
 30
-0.0000000000000014
 11
214.54709365201651
 21
122.3830310987441
 31
-0.0000000000000014
  0
ARC
  5
17607
  8
KI2
 10
224.0470936520166
 20
125.7830310987441
 30
-0.0000000000000014
 40
0.3
 50
0.0
 51
90.0
  0
ARC
  5
17608
  8
KI2
 10
221.8470936520165
 20
124.68448935453161
 30
-0.0000000000000014
 40
0.3
 50
130.00000000000239
 51
180.0
  0
LINE
  5
17609
  8
KI2
 10
221.6542573691105
 20
124.9143026874673
 30
-0.0000000000000014
 11
223.04709365201651
 21
126.0830310987441
 31
-0.0000000000000014
  0
LINE
  5
1760A
  8
KI2
 10
224.0470936520166
 20
126.0830310987441
 30
-0.0000000000000014
 11
223.04709365201651
 21
126.0830310987441
 31
-0.0000000000000014
  0
LINE
  5
1760B
  8
KI2
 10
224.3470936520165
 20
122.3830310987441
 30
-0.0000000000000014
 11
224.0470936520166
 21
122.0230310987441
 31
-0.0000000000000014
  0
ARC
  5
1760C
  8
KI2
 10
221.64709365201651
 20
122.3330310987441
 30
-0.0000000000000014
 40
0.75
 50
270.0
 51
90.0
  0
LINE
  5
1760D
  8
KI2
 10
221.59865921575391
 20
121.2830310987441
 30
-0.0000000000000014
 11
221.59865921575391
 21
121.5830310987441
 31
-0.0000000000000014
  0
LINE
  5
1760E
  8
KI2
 10
221.59865921575391
 20
121.5830310987441
 30
-0.0000000000000014
 11
221.64709365201651
 21
121.5830310987441
 31
-0.0000000000000014
  0
LINE
  5
1760F
  8
KI2
 10
221.64709365201651
 20
123.0830310987441
 30
-0.0000000000000014
 11
221.5470936520166
 21
123.0830310987441
 31
-0.0000000000000014
  0
LINE
  5
17610
  8
KI2
 10
222.94709365201641
 20
118.98303109874411
 30
-0.0000000000000014
 11
222.94709365201641
 21
117.5830310987441
 31
-0.0000000000000014
  0
POINT
  5
17611
  8
KI2
 10
222.94709365201641
 20
118.46894282592849
 30
-0.0000000000000014
  0
LINE
  5
17612
  8
KI2
 10
222.94709365201641
 20
118.98303109874411
 30
-0.0000000000000014
 11
224.0470936520166
 21
122.0230310987441
 31
-0.0000000000000014
  0
ARC
  5
17613
  8
KI2
 10
221.09865921575391
 20
121.2830310987441
 30
-0.0000000000000014
 40
0.5
 50
270.0
 51
0.0
  0
LINE
  5
17614
  8
KI2
 10
224.14709365201651
 20
116.8830310987441
 30
-0.0000000000000014
 11
224.14709365201651
 21
116.5830310987441
 31
-0.0000000000000014
  0
LINE
  5
17615
  8
KI2
 10
223.64709365201651
 20
116.083031098744
 30
-0.0000000000000014
 11
222.94709365201641
 21
116.083031098744
 31
-0.0000000000000014
  0
LINE
  5
17616
  8
KI2
 10
222.64709365201639
 20
116.3830310987441
 30
-0.0000000000000014
 11
222.94709365201641
 21
116.083031098744
 31
-0.0000000000000014
  0
LINE
  5
17617
  8
KI2
 10
220.19709365201641
 20
117.083031098744
 30
-0.0000000000000014
 11
220.69709365201641
 21
116.3830310987441
 31
-0.0000000000000014
  0
LINE
  5
17618
  8
KI2
 10
222.64709365201639
 20
116.3830310987441
 30
-0.0000000000000014
 11
220.69709365201641
 21
116.3830310987441
 31
-0.0000000000000014
  0
ARC
  5
17619
  8
KI2
 10
223.64709365201651
 20
116.5830310987441
 30
-0.0000000000000014
 40
0.5
 50
270.0
 51
0.0
  0
LINE
  5
1761A
  8
KI2
 10
224.14709365201651
 20
116.8830310987441
 30
-0.0000000000000014
 11
223.54709365201651
 21
116.8830310987441
 31
-0.0000000000000014
  0
LINE
  5
1761B
  8
KI2
 10
222.94709365201641
 20
117.5830310987441
 30
-0.0000000000000014
 11
223.54709365201651
 21
116.8830310987441
 31
-0.0000000000000014
  0
LINE
  5
1761C
  8
KI2
 10
224.3470936520165
 20
125.7830310987441
 30
-0.0000000000000014
 11
224.3470936520165
 21
122.3830310987441
 31
-0.0000000000000014
  0
LINE
  5
1761D
  8
KI2
 10
221.5470936520166
 20
124.68448935453161
 30
-0.0000000000000014
 11
221.5470936520166
 21
123.0830310987441
 31
-0.0000000000000014
  0
ARC
  5
1761E
  8
KI2
 10
217.04709365201651
 20
124.68448935453161
 30
-0.0000000000000014
 40
0.3
 50
0.0
 51
49.999999999997613
  0
LINE
  5
1761F
  8
KI2
 10
217.23992993492229
 20
124.9143026874673
 30
-0.0000000000000014
 11
215.8470936520163
 21
126.0830310987441
 31
-0.0000000000000014
  0
ARC
  5
17620
  8
KI2
 10
217.24709365201639
 20
122.3330310987441
 30
-0.0000000000000014
 40
0.75
 50
90.0
 51
270.0
  0
LINE
  5
17621
  8
KI2
 10
217.29552808827921
 20
121.2830310987441
 30
-0.0000000000000014
 11
217.29552808827921
 21
121.5830310987441
 31
-0.0000000000000014
  0
LINE
  5
17622
  8
KI2
 10
217.29552808827921
 20
121.5830310987441
 30
-0.0000000000000014
 11
217.24709365201639
 21
121.5830310987441
 31
-0.0000000000000014
  0
LINE
  5
17623
  8
KI2
 10
217.24709365201639
 20
123.0830310987441
 30
-0.0000000000000014
 11
217.3470936520165
 21
123.0830310987441
 31
-0.0000000000000014
  0
ARC
  5
17624
  8
KI2
 10
219.44709365201641
 20
120.7830310987441
 30
-0.0000000000000014
 40
0.3
 50
270.0
 51
0.0
  0
LINE
  5
17625
  8
KI2
 10
215.94709365201641
 20
118.98303109874411
 30
-0.0000000000000014
 11
215.94709365201641
 21
117.5830310987441
 31
-0.0000000000000014
  0
LINE
  5
17626
  8
KI2
 10
217.79552808827921
 20
120.7830310987441
 30
-0.0000000000000014
 11
219.14709365201651
 21
120.7830310987441
 31
-0.0000000000000014
  0
POINT
  5
17627
  8
KI2
 10
215.94709365201641
 20
118.46894282592849
 30
-0.0000000000000014
  0
ARC
  5
17628
  8
KI2
 10
219.44709365201641
 20
120.7830310987441
 30
-0.0000000000000014
 40
0.3
 50
180.0
 51
270.0
  0
ARC
  5
17629
  8
KI2
 10
217.79552808827921
 20
121.2830310987441
 30
-0.0000000000000014
 40
0.5
 50
180.0
 51
270.0
  0
LINE
  5
1762A
  8
KI2
 10
216.2470936520163
 20
116.3830310987441
 30
-0.0000000000000014
 11
218.19709365201641
 21
116.3830310987441
 31
-0.0000000000000014
  0
LINE
  5
1762B
  8
KI2
 10
216.2470936520163
 20
116.3830310987441
 30
-0.0000000000000014
 11
215.94709365201641
 21
116.083031098744
 31
-0.0000000000000014
  0
LINE
  5
1762C
  8
KI2
 10
218.69709365201641
 20
117.083031098744
 30
-0.0000000000000014
 11
218.19709365201641
 21
116.3830310987441
 31
-0.0000000000000014
  0
LINE
  5
1762D
  8
KI2
 10
219.14709365201651
 20
117.083031098744
 30
-0.0000000000000014
 11
218.69709365201641
 21
117.083031098744
 31
-0.0000000000000014
  0
ARC
  5
1762E
  8
KI2
 10
219.44709365201641
 20
117.083031098744
 30
-0.0000000000000014
 40
0.3
 50
0.0
 51
90.0
  0
ARC
  5
1762F
  8
KI2
 10
219.44709365201641
 20
117.083031098744
 30
-0.0000000000000014
 40
0.3
 50
90.0
 51
180.0
  0
LINE
  5
17630
  8
KI2
 10
217.3470936520165
 20
124.68448935453161
 30
-0.0000000000000014
 11
217.3470936520165
 21
123.0830310987441
 31
-0.0000000000000014
  0
LINE
  5
17631
  8
KI2
 10
219.74709365201639
 20
117.083031098744
 30
-0.0000000000000014
 11
220.19709365201641
 21
117.083031098744
 31
-0.0000000000000014
  0
LINE
  5
17632
  8
KI2
 10
221.09865921575391
 20
120.7830310987441
 30
-0.0000000000000014
 11
219.74709365201639
 21
120.7830310987441
 31
-0.0000000000000014
  0
LINE
  5
17633
  8
KI2
 10
178.8470936520165
 20
126.0830310987441
 30
-0.0000000000000014
 11
179.8470936520165
 21
126.0830310987441
 31
-0.0000000000000014
  0
LINE
  5
17634
  8
KI2
 10
179.94709365201641
 20
118.98303109874411
 30
-0.0000000000000014
 11
178.8470936520165
 21
122.0230310987441
 31
-0.0000000000000014
  0
LINE
  5
17635
  8
KI2
 10
179.2470936520163
 20
116.083031098744
 30
-0.0000000000000014
 11
179.94709365201641
 21
116.083031098744
 31
-0.0000000000000014
  0
LINE
  5
17636
  8
KI2
 10
179.94709365201641
 20
117.5830310987441
 30
-0.0000000000000014
 11
179.3470936520165
 21
116.8830310987441
 31
-0.0000000000000014
  0
ARC
  5
17637
  8
KI2
 10
178.8470936520165
 20
125.7830310987441
 30
-0.0000000000000014
 40
0.3
 50
90.0
 51
180.0
  0
LINE
  5
17638
  8
KI2
 10
178.54709365201651
 20
122.3830310987441
 30
-0.0000000000000014
 11
178.8470936520165
 21
122.0230310987441
 31
-0.0000000000000014
  0
LINE
  5
17639
  8
KI2
 10
178.7470936520163
 20
116.8830310987441
 30
-0.0000000000000014
 11
178.7470936520163
 21
116.5830310987441
 31
-0.0000000000000014
  0
ARC
  5
1763A
  8
KI2
 10
179.2470936520163
 20
116.5830310987441
 30
-0.0000000000000014
 40
0.5
 50
180.0
 51
270.0
  0
LINE
  5
1763B
  8
KI2
 10
178.7470936520163
 20
116.8830310987441
 30
-0.0000000000000014
 11
179.3470936520165
 21
116.8830310987441
 31
-0.0000000000000014
  0
LINE
  5
1763C
  8
KI2
 10
178.54709365201651
 20
125.7830310987441
 30
-0.0000000000000014
 11
178.54709365201651
 21
122.3830310987441
 31
-0.0000000000000014
  0
ARC
  5
1763D
  8
KI2
 10
188.04709365201651
 20
125.7830310987441
 30
-0.0000000000000014
 40
0.3
 50
0.0
 51
90.0
  0
ARC
  5
1763E
  8
KI2
 10
185.8470936520165
 20
124.68448935453161
 30
-0.0000000000000014
 40
0.3
 50
130.00000000000239
 51
180.0
  0
LINE
  5
1763F
  8
KI2
 10
185.6542573691105
 20
124.9143026874673
 30
-0.0000000000000014
 11
187.04709365201651
 21
126.0830310987441
 31
-0.0000000000000014
  0
LINE
  5
17640
  8
KI2
 10
188.04709365201651
 20
126.0830310987441
 30
-0.0000000000000014
 11
187.04709365201651
 21
126.0830310987441
 31
-0.0000000000000014
  0
LINE
  5
17641
  8
KI2
 10
188.3470936520165
 20
122.3830310987441
 30
-0.0000000000000014
 11
188.04709365201651
 21
122.0230310987441
 31
-0.0000000000000014
  0
ARC
  5
17642
  8
KI2
 10
185.64709365201639
 20
122.3330310987441
 30
-0.0000000000000014
 40
0.75
 50
270.0
 51
90.0
  0
LINE
  5
17643
  8
KI2
 10
185.5986592157538
 20
121.2830310987441
 30
-0.0000000000000014
 11
185.5986592157538
 21
121.5830310987441
 31
-0.0000000000000014
  0
LINE
  5
17644
  8
KI2
 10
185.5986592157538
 20
121.5830310987441
 30
-0.0000000000000014
 11
185.64709365201639
 21
121.5830310987441
 31
-0.0000000000000014
  0
LINE
  5
17645
  8
KI2
 10
185.64709365201639
 20
123.0830310987441
 30
-0.0000000000000014
 11
185.54709365201651
 21
123.0830310987441
 31
-0.0000000000000014
  0
LINE
  5
17646
  8
KI2
 10
186.94709365201641
 20
118.98303109874411
 30
-0.0000000000000014
 11
186.94709365201641
 21
117.5830310987441
 31
-0.0000000000000014
  0
POINT
  5
17647
  8
KI2
 10
186.94709365201641
 20
118.46894282592849
 30
-0.0000000000000014
  0
LINE
  5
17648
  8
KI2
 10
186.94709365201641
 20
118.98303109874411
 30
-0.0000000000000014
 11
188.04709365201651
 21
122.0230310987441
 31
-0.0000000000000014
  0
ARC
  5
17649
  8
KI2
 10
185.0986592157538
 20
121.2830310987441
 30
-0.0000000000000014
 40
0.5
 50
270.0
 51
0.0
  0
LINE
  5
1764A
  8
KI2
 10
188.14709365201639
 20
116.8830310987441
 30
-0.0000000000000014
 11
188.14709365201639
 21
116.5830310987441
 31
-0.0000000000000014
  0
LINE
  5
1764B
  8
KI2
 10
187.64709365201639
 20
116.083031098744
 30
-0.0000000000000014
 11
186.94709365201641
 21
116.083031098744
 31
-0.0000000000000014
  0
LINE
  5
1764C
  8
KI2
 10
186.64709365201639
 20
116.3830310987441
 30
-0.0000000000000014
 11
186.94709365201641
 21
116.083031098744
 31
-0.0000000000000014
  0
LINE
  5
1764D
  8
KI2
 10
184.19709365201641
 20
117.083031098744
 30
-0.0000000000000014
 11
184.69709365201641
 21
116.3830310987441
 31
-0.0000000000000014
  0
LINE
  5
1764E
  8
KI2
 10
186.64709365201639
 20
116.3830310987441
 30
-0.0000000000000014
 11
184.69709365201641
 21
116.3830310987441
 31
-0.0000000000000014
  0
ARC
  5
1764F
  8
KI2
 10
187.64709365201639
 20
116.5830310987441
 30
-0.0000000000000014
 40
0.5
 50
270.0
 51
0.0
  0
LINE
  5
17650
  8
KI2
 10
188.14709365201639
 20
116.8830310987441
 30
-0.0000000000000014
 11
187.54709365201651
 21
116.8830310987441
 31
-0.0000000000000014
  0
LINE
  5
17651
  8
KI2
 10
186.94709365201641
 20
117.5830310987441
 30
-0.0000000000000014
 11
187.54709365201651
 21
116.8830310987441
 31
-0.0000000000000014
  0
LINE
  5
17652
  8
KI2
 10
188.3470936520165
 20
125.7830310987441
 30
-0.0000000000000014
 11
188.3470936520165
 21
122.3830310987441
 31
-0.0000000000000014
  0
LINE
  5
17653
  8
KI2
 10
185.54709365201651
 20
124.68448935453161
 30
-0.0000000000000014
 11
185.54709365201651
 21
123.0830310987441
 31
-0.0000000000000014
  0
ARC
  5
17654
  8
KI2
 10
181.04709365201651
 20
124.68448935453161
 30
-0.0000000000000014
 40
0.3
 50
0.0
 51
49.999999999997613
  0
LINE
  5
17655
  8
KI2
 10
181.23992993492229
 20
124.9143026874673
 30
-0.0000000000000014
 11
179.84709365201621
 21
126.0830310987441
 31
-0.0000000000000014
  0
ARC
  5
17656
  8
KI2
 10
181.2470936520163
 20
122.3330310987441
 30
-0.0000000000000014
 40
0.75
 50
90.0
 51
270.0
  0
LINE
  5
17657
  8
KI2
 10
181.29552808827921
 20
121.2830310987441
 30
-0.0000000000000014
 11
181.29552808827921
 21
121.5830310987441
 31
-0.0000000000000014
  0
LINE
  5
17658
  8
KI2
 10
181.29552808827921
 20
121.5830310987441
 30
-0.0000000000000014
 11
181.2470936520163
 21
121.5830310987441
 31
-0.0000000000000014
  0
LINE
  5
17659
  8
KI2
 10
181.2470936520163
 20
123.0830310987441
 30
-0.0000000000000014
 11
181.3470936520165
 21
123.0830310987441
 31
-0.0000000000000014
  0
ARC
  5
1765A
  8
KI2
 10
183.44709365201641
 20
120.7830310987441
 30
-0.0000000000000014
 40
0.3
 50
270.0
 51
0.0
  0
LINE
  5
1765B
  8
KI2
 10
179.94709365201641
 20
118.98303109874411
 30
-0.0000000000000014
 11
179.94709365201641
 21
117.5830310987441
 31
-0.0000000000000014
  0
LINE
  5
1765C
  8
KI2
 10
181.79552808827921
 20
120.7830310987441
 30
-0.0000000000000014
 11
183.14709365201639
 21
120.7830310987441
 31
-0.0000000000000014
  0
POINT
  5
1765D
  8
KI2
 10
179.94709365201641
 20
118.46894282592849
 30
-0.0000000000000014
  0
ARC
  5
1765E
  8
KI2
 10
183.44709365201641
 20
120.7830310987441
 30
-0.0000000000000014
 40
0.3
 50
180.0
 51
270.0
  0
ARC
  5
1765F
  8
KI2
 10
181.79552808827921
 20
121.2830310987441
 30
-0.0000000000000014
 40
0.5
 50
180.0
 51
270.0
  0
LINE
  5
17660
  8
KI2
 10
180.2470936520163
 20
116.3830310987441
 30
-0.0000000000000014
 11
182.19709365201641
 21
116.3830310987441
 31
-0.0000000000000014
  0
LINE
  5
17661
  8
KI2
 10
180.2470936520163
 20
116.3830310987441
 30
-0.0000000000000014
 11
179.94709365201641
 21
116.083031098744
 31
-0.0000000000000014
  0
LINE
  5
17662
  8
KI2
 10
182.69709365201641
 20
117.083031098744
 30
-0.0000000000000014
 11
182.19709365201641
 21
116.3830310987441
 31
-0.0000000000000014
  0
LINE
  5
17663
  8
KI2
 10
183.14709365201639
 20
117.083031098744
 30
-0.0000000000000014
 11
182.69709365201641
 21
117.083031098744
 31
-0.0000000000000014
  0
ARC
  5
17664
  8
KI2
 10
183.44709365201641
 20
117.083031098744
 30
-0.0000000000000014
 40
0.3
 50
0.0
 51
90.0
  0
ARC
  5
17665
  8
KI2
 10
183.44709365201641
 20
117.083031098744
 30
-0.0000000000000014
 40
0.3
 50
90.0
 51
180.0
  0
LINE
  5
17666
  8
KI2
 10
181.3470936520165
 20
124.68448935453161
 30
-0.0000000000000014
 11
181.3470936520165
 21
123.0830310987441
 31
-0.0000000000000014
  0
LINE
  5
17667
  8
KI2
 10
183.7470936520163
 20
117.083031098744
 30
-0.0000000000000014
 11
184.19709365201641
 21
117.083031098744
 31
-0.0000000000000014
  0
LINE
  5
17668
  8
KI2
 10
185.0986592157538
 20
120.7830310987441
 30
-0.0000000000000014
 11
183.7470936520163
 21
120.7830310987441
 31
-0.0000000000000014
  0
LINE
  5
17669
  8
KI2
 10
250.8470936520165
 20
126.0830310987441
 30
-0.0000000000000014
 11
251.8470936520165
 21
126.0830310987441
 31
-0.0000000000000014
  0
LINE
  5
1766A
  8
KI2
 10
251.94709365201641
 20
118.98303109874411
 30
-0.0000000000000014
 11
250.8470936520165
 21
122.0230310987441
 31
-0.0000000000000014
  0
LINE
  5
1766B
  8
KI2
 10
251.24709365201639
 20
116.083031098744
 30
-0.0000000000000014
 11
251.94709365201641
 21
116.083031098744
 31
-0.0000000000000014
  0
LINE
  5
1766C
  8
KI2
 10
251.94709365201641
 20
117.5830310987441
 30
-0.0000000000000014
 11
251.3470936520165
 21
116.8830310987441
 31
-0.0000000000000014
  0
ARC
  5
1766D
  8
KI2
 10
250.8470936520165
 20
125.7830310987441
 30
-0.0000000000000014
 40
0.3
 50
90.0
 51
180.0
  0
LINE
  5
1766E
  8
KI2
 10
250.54709365201651
 20
122.3830310987441
 30
-0.0000000000000014
 11
250.8470936520165
 21
122.0230310987441
 31
-0.0000000000000014
  0
LINE
  5
1766F
  8
KI2
 10
250.74709365201639
 20
116.8830310987441
 30
-0.0000000000000014
 11
250.74709365201639
 21
116.5830310987441
 31
-0.0000000000000014
  0
ARC
  5
17670
  8
KI2
 10
251.24709365201639
 20
116.5830310987441
 30
-0.0000000000000014
 40
0.5
 50
180.0
 51
270.0
  0
LINE
  5
17671
  8
KI2
 10
250.74709365201639
 20
116.8830310987441
 30
-0.0000000000000014
 11
251.3470936520165
 21
116.8830310987441
 31
-0.0000000000000014
  0
LINE
  5
17672
  8
KI2
 10
250.54709365201651
 20
125.7830310987441
 30
-0.0000000000000014
 11
250.54709365201651
 21
122.3830310987441
 31
-0.0000000000000014
  0
ARC
  5
17673
  8
KI2
 10
260.04709365201649
 20
125.7830310987441
 30
-0.0000000000000014
 40
0.3
 50
0.0
 51
90.0
  0
ARC
  5
17674
  8
KI2
 10
257.8470936520165
 20
124.68448935453161
 30
-0.0000000000000014
 40
0.3
 50
130.00000000000239
 51
180.0
  0
LINE
  5
17675
  8
KI2
 10
257.6542573691105
 20
124.9143026874673
 30
-0.0000000000000014
 11
259.0470936520166
 21
126.0830310987441
 31
-0.0000000000000014
  0
LINE
  5
17676
  8
KI2
 10
260.04709365201649
 20
126.0830310987441
 30
-0.0000000000000014
 11
259.0470936520166
 21
126.0830310987441
 31
-0.0000000000000014
  0
LINE
  5
17677
  8
KI2
 10
260.3470936520165
 20
122.3830310987441
 30
-0.0000000000000014
 11
260.04709365201649
 21
122.0230310987441
 31
-0.0000000000000014
  0
ARC
  5
17678
  8
KI2
 10
257.64709365201651
 20
122.3330310987441
 30
-0.0000000000000014
 40
0.75
 50
270.0
 51
90.0
  0
LINE
  5
17679
  8
KI2
 10
257.5986592157538
 20
121.2830310987441
 30
-0.0000000000000014
 11
257.5986592157538
 21
121.5830310987441
 31
-0.0000000000000014
  0
LINE
  5
1767A
  8
KI2
 10
257.5986592157538
 20
121.5830310987441
 30
-0.0000000000000014
 11
257.64709365201651
 21
121.5830310987441
 31
-0.0000000000000014
  0
LINE
  5
1767B
  8
KI2
 10
257.64709365201651
 20
123.0830310987441
 30
-0.0000000000000014
 11
257.5470936520166
 21
123.0830310987441
 31
-0.0000000000000014
  0
LINE
  5
1767C
  8
KI2
 10
258.94709365201641
 20
118.98303109874411
 30
-0.0000000000000014
 11
258.94709365201641
 21
117.5830310987441
 31
-0.0000000000000014
  0
POINT
  5
1767D
  8
KI2
 10
258.94709365201641
 20
118.46894282592849
 30
-0.0000000000000014
  0
LINE
  5
1767E
  8
KI2
 10
258.94709365201641
 20
118.98303109874411
 30
-0.0000000000000014
 11
260.04709365201649
 21
122.0230310987441
 31
-0.0000000000000014
  0
ARC
  5
1767F
  8
KI2
 10
257.0986592157538
 20
121.2830310987441
 30
-0.0000000000000014
 40
0.5
 50
270.0
 51
0.0
  0
LINE
  5
17680
  8
KI2
 10
260.14709365201639
 20
116.8830310987441
 30
-0.0000000000000014
 11
260.14709365201639
 21
116.5830310987441
 31
-0.0000000000000014
  0
LINE
  5
17681
  8
KI2
 10
259.64709365201651
 20
116.083031098744
 30
-0.0000000000000014
 11
258.94709365201641
 21
116.083031098744
 31
-0.0000000000000014
  0
LINE
  5
17682
  8
KI2
 10
258.64709365201639
 20
116.3830310987441
 30
-0.0000000000000014
 11
258.94709365201641
 21
116.083031098744
 31
-0.0000000000000014
  0
LINE
  5
17683
  8
KI2
 10
256.19709365201641
 20
117.083031098744
 30
-0.0000000000000014
 11
256.69709365201641
 21
116.3830310987441
 31
-0.0000000000000014
  0
LINE
  5
17684
  8
KI2
 10
258.64709365201639
 20
116.3830310987441
 30
-0.0000000000000014
 11
256.69709365201641
 21
116.3830310987441
 31
-0.0000000000000014
  0
ARC
  5
17685
  8
KI2
 10
259.64709365201651
 20
116.5830310987441
 30
-0.0000000000000014
 40
0.5
 50
270.0
 51
0.0
  0
LINE
  5
17686
  8
KI2
 10
260.14709365201639
 20
116.8830310987441
 30
-0.0000000000000014
 11
259.5470936520166
 21
116.8830310987441
 31
-0.0000000000000014
  0
LINE
  5
17687
  8
KI2
 10
258.94709365201641
 20
117.5830310987441
 30
-0.0000000000000014
 11
259.5470936520166
 21
116.8830310987441
 31
-0.0000000000000014
  0
LINE
  5
17688
  8
KI2
 10
260.3470936520165
 20
125.7830310987441
 30
-0.0000000000000014
 11
260.3470936520165
 21
122.3830310987441
 31
-0.0000000000000014
  0
LINE
  5
17689
  8
KI2
 10
257.5470936520166
 20
124.68448935453161
 30
-0.0000000000000014
 11
257.5470936520166
 21
123.0830310987441
 31
-0.0000000000000014
  0
ARC
  5
1768A
  8
KI2
 10
253.0470936520166
 20
124.68448935453161
 30
-0.0000000000000014
 40
0.3
 50
0.0
 51
49.999999999997613
  0
LINE
  5
1768B
  8
KI2
 10
253.23992993492229
 20
124.9143026874673
 30
-0.0000000000000014
 11
251.8470936520163
 21
126.0830310987441
 31
-0.0000000000000014
  0
ARC
  5
1768C
  8
KI2
 10
253.24709365201639
 20
122.3330310987441
 30
-0.0000000000000014
 40
0.75
 50
90.0
 51
270.0
  0
LINE
  5
1768D
  8
KI2
 10
253.29552808827921
 20
121.2830310987441
 30
-0.0000000000000014
 11
253.29552808827921
 21
121.5830310987441
 31
-0.0000000000000014
  0
LINE
  5
1768E
  8
KI2
 10
253.29552808827921
 20
121.5830310987441
 30
-0.0000000000000014
 11
253.24709365201639
 21
121.5830310987441
 31
-0.0000000000000014
  0
LINE
  5
1768F
  8
KI2
 10
253.24709365201639
 20
123.0830310987441
 30
-0.0000000000000014
 11
253.3470936520165
 21
123.0830310987441
 31
-0.0000000000000014
  0
ARC
  5
17690
  8
KI2
 10
255.44709365201641
 20
120.7830310987441
 30
-0.0000000000000014
 40
0.3
 50
270.0
 51
0.0
  0
LINE
  5
17691
  8
KI2
 10
251.94709365201641
 20
118.98303109874411
 30
-0.0000000000000014
 11
251.94709365201641
 21
117.5830310987441
 31
-0.0000000000000014
  0
LINE
  5
17692
  8
KI2
 10
253.79552808827921
 20
120.7830310987441
 30
-0.0000000000000014
 11
255.14709365201651
 21
120.7830310987441
 31
-0.0000000000000014
  0
POINT
  5
17693
  8
KI2
 10
251.94709365201641
 20
118.46894282592849
 30
-0.0000000000000014
  0
ARC
  5
17694
  8
KI2
 10
255.44709365201641
 20
120.7830310987441
 30
-0.0000000000000014
 40
0.3
 50
180.0
 51
270.0
  0
ARC
  5
17695
  8
KI2
 10
253.79552808827921
 20
121.2830310987441
 30
-0.0000000000000014
 40
0.5
 50
180.0
 51
270.0
  0
LINE
  5
17696
  8
KI2
 10
252.24709365201639
 20
116.3830310987441
 30
-0.0000000000000014
 11
254.19709365201641
 21
116.3830310987441
 31
-0.0000000000000014
  0
LINE
  5
17697
  8
KI2
 10
252.24709365201639
 20
116.3830310987441
 30
-0.0000000000000014
 11
251.94709365201641
 21
116.083031098744
 31
-0.0000000000000014
  0
LINE
  5
17698
  8
KI2
 10
254.69709365201641
 20
117.083031098744
 30
-0.0000000000000014
 11
254.19709365201641
 21
116.3830310987441
 31
-0.0000000000000014
  0
LINE
  5
17699
  8
KI2
 10
255.14709365201651
 20
117.083031098744
 30
-0.0000000000000014
 11
254.69709365201641
 21
117.083031098744
 31
-0.0000000000000014
  0
ARC
  5
1769A
  8
KI2
 10
255.44709365201641
 20
117.083031098744
 30
-0.0000000000000014
 40
0.3
 50
0.0
 51
90.0
  0
ARC
  5
1769B
  8
KI2
 10
255.44709365201641
 20
117.083031098744
 30
-0.0000000000000014
 40
0.3
 50
90.0
 51
180.0
  0
LINE
  5
1769C
  8
KI2
 10
253.3470936520165
 20
124.68448935453161
 30
-0.0000000000000014
 11
253.3470936520165
 21
123.0830310987441
 31
-0.0000000000000014
  0
LINE
  5
1769D
  8
KI2
 10
255.7470936520163
 20
117.083031098744
 30
-0.0000000000000014
 11
256.19709365201641
 21
117.083031098744
 31
-0.0000000000000014
  0
LINE
  5
1769E
  8
KI2
 10
257.0986592157538
 20
120.7830310987441
 30
-0.0000000000000014
 11
255.7470936520163
 21
120.7830310987441
 31
-0.0000000000000014
  0
LINE
  5
1769F
  8
KI1
 10
227.19709365201501
 20
125.583031098744
 30
-0.0000000000000014
 11
247.69709365201641
 21
125.583031098744
 31
-0.0000000000000014
  0
LINE
  5
176A0
  8
KI1
 10
225.9970936520152
 20
126.8830310987442
 30
-0.0000000000000014
 11
248.8970936520162
 21
126.8830310987442
 31
-0.0000000000000014
  0
LINE
  5
176A1
  8
KI1
 10
191.19709365201501
 20
125.583031098744
 30
-0.0000000000000014
 11
211.69709365201641
 21
125.583031098744
 31
-0.0000000000000014
  0
LINE
  5
176A2
  8
KI1
 10
189.9970936520152
 20
126.8830310987442
 30
-0.0000000000000014
 11
212.8970936520162
 21
126.8830310987442
 31
-0.0000000000000014
  0
LINE
  5
176A3
  8
KI1
 10
177.2470936520161
 20
112.98303109874369
 30
-0.0000000000000014
 11
177.2470936520163
 21
124.8830310987437
 31
-0.0000000000000014
  0
LINE
  5
176A4
  8
KI1
 10
176.19709365201641
 20
124.8830310987438
 30
-0.0000000000000014
 11
177.2470936520163
 21
124.8830310987437
 31
-0.0000000000000014
  0
LINE
  5
176A5
  8
KI1
 10
189.9970936520152
 20
126.0830310987441
 30
-0.0000000000000014
 11
188.94709365201641
 21
126.0830310987441
 31
-0.0000000000000014
  0
LINE
  5
176A6
  8
KI1
 10
188.04709365201541
 20
120.47322529418
 30
-0.0000000000000014
 11
188.44709365201641
 21
121.1730310987442
 31
-0.0000000000000014
  0
LINE
  5
176A7
  8
KI1
 10
189.6470936520162
 20
112.98303109874369
 30
-0.0000000000000014
 11
189.6470936520162
 21
124.8830310987438
 31
-0.0000000000000014
  0
ARC
  5
176A8
  8
KI1
 10
188.54709364406321
 20
120.4731361198952
 30
-0.0000000000000014
 40
0.5000000000001135
 50
179.9897813795902
 51
258.46304189731683
  0
ARC
  5
176A9
  8
KI1
 10
189.2470936520161
 20
112.98303109874369
 30
-0.0000000000000014
 40
0.39999999999921
 50
180.0
 51
0.0
  0
LINE
  5
176AA
  8
KI1
 10
188.44709365201641
 20
114.183031098744
 30
-0.0000000000000014
 11
188.44709365201641
 21
119.9832381697148
 31
-0.0000000000000014
  0
LINE
  5
176AB
  8
KI1
 10
188.44709365201641
 20
121.1730310987442
 30
-0.0000000000000014
 11
188.44709365201641
 21
125.583031098744
 31
-0.0000000000000014
  0
LINE
  5
176AC
  8
KI1
 10
191.19709365201501
 20
125.3830310987442
 30
-0.0000000000000014
 11
191.19709365201501
 21
125.583031098744
 31
-0.0000000000000014
  0
LINE
  5
176AD
  8
KI1
 10
189.6470936520162
 20
124.8830310987438
 30
-0.0000000000000014
 11
190.6970936520155
 21
124.8830310987438
 31
-0.0000000000000014
  0
ARC
  5
176AE
  8
KI1
 10
190.6970936520155
 20
125.3830310987442
 30
-0.0000000000000014
 40
0.5000000000000993
 50
270.0
 51
0.0
  0
ARC
  5
176AF
  8
KI1
 10
183.44709365201589
 20
114.3830310987438
 30
-0.0000000000000014
 40
0.4999999999992742
 50
203.57817847820709
 51
336.4218215218512
  0
LINE
  5
176B0
  8
KI1
 10
183.90535122151221
 20
114.183031098744
 30
-0.0000000000000014
 11
188.44709365201641
 21
114.183031098744
 31
-0.0000000000000014
  0
ARC
  5
176B1
  8
KI1
 10
188.94709365201641
 20
125.583031098744
 30
-0.0000000000000014
 40
0.5000000000000993
 50
90.0
 51
180.0
  0
LINE
  5
176B2
  8
KI1
 10
189.9970936520152
 20
126.8830310987442
 30
-0.0000000000000014
 11
189.9970936520152
 21
126.0830310987441
 31
-0.0000000000000014
  0
LINE
  5
176B3
  8
KI1
 10
169.44709365201641
 20
126.8830310987442
 30
-0.0000000000000014
 11
176.8970936520162
 21
126.8830310987442
 31
-0.0000000000000014
  0
LINE
  5
176B4
  8
KI1
 10
177.94709365201641
 20
126.0830310987441
 30
-0.0000000000000014
 11
176.8970936520162
 21
126.0830310987441
 31
-0.0000000000000014
  0
LINE
  5
176B5
  8
KI1
 10
178.44709365201501
 20
121.1730310987442
 30
-0.0000000000000014
 11
178.84709365201601
 21
120.47322529418
 31
-0.0000000000000014
  0
ARC
  5
176B6
  8
KI1
 10
178.34709365996821
 20
120.4731361198952
 30
-0.0000000000000014
 40
0.500000000000056
 50
281.53695810268317
 51
0.0102186204097569
  0
ARC
  5
176B7
  8
KI1
 10
177.6470936520162
 20
112.98303109874369
 30
-0.0000000000000014
 40
0.3999999999998492
 50
180.0
 51
0.0
  0
LINE
  5
176B8
  8
KI1
 10
178.44709365201641
 20
114.183031098744
 30
-0.0000000000000014
 11
178.44709365201501
 21
119.9832381697148
 31
-0.0000000000000014
  0
LINE
  5
176B9
  8
KI1
 10
178.44709365201501
 20
121.1730310987442
 30
-0.0000000000000014
 11
178.44709365201641
 21
125.583031098744
 31
-0.0000000000000014
  0
LINE
  5
176BA
  8
KI1
 10
175.69709365201641
 20
125.583031098744
 30
-0.0000000000000014
 11
175.69709365201641
 21
125.3830310987442
 31
-0.0000000000000014
  0
ARC
  5
176BB
  8
KI1
 10
176.19709365201641
 20
125.3830310987442
 30
-0.0000000000000014
 40
0.5000000000000142
 50
180.0
 51
270.0
  0
ARC
  5
176BC
  8
KI1
 10
177.94709365201641
 20
125.583031098744
 30
-0.0000000000000014
 40
0.5000000000000142
 50
0.0
 51
90.0
  0
LINE
  5
176BD
  8
KI1
 10
169.71188282327819
 20
125.583031098744
 30
-0.0000000000000014
 11
171.94709365201641
 21
125.583031098744
 31
-0.0000000000000014
  0
LINE
  5
176BE
  8
KI1
 10
172.94709365201729
 20
125.583031098744
 30
-0.0000000000000014
 11
172.94709365201729
 21
124.583031098744
 31
-0.0000000000000014
  0
LINE
  5
176BF
  8
KI1
 10
171.94709365201729
 20
124.583031098744
 30
-0.0000000000000014
 11
171.94709365201641
 21
125.583031098744
 31
-0.0000000000000014
  0
ARC
  5
176C0
  8
KI1
 10
172.44709365201729
 20
124.583031098744
 30
-0.0000000000000014
 40
0.5000000000000142
 50
180.0
 51
0.0
  0
LINE
  5
176C1
  8
KI1
 10
172.94709365201729
 20
125.583031098744
 30
-0.0000000000000014
 11
175.69709365201641
 21
125.583031098744
 31
-0.0000000000000014
  0
LINE
  5
176C2
  8
KI1
 10
165.44709365201589
 20
124.2830310987439
 30
-0.0000000000000014
 11
166.6530592938683
 21
124.2830310987439
 31
-0.0000000000000014
  0
LINE
  5
176C3
  8
KI1
 10
165.44709365201589
 20
124.2830310987439
 30
-0.0000000000000014
 11
165.44709365201589
 21
125.183031098744
 31
-0.0000000000000014
  0
LINE
  5
176C4
  8
KI1
 10
169.71188282327819
 20
125.583031098744
 30
-0.0000000000000014
 11
166.6530592938683
 21
124.2830310987439
 31
-0.0000000000000014
  0
LINE
  5
176C5
  8
KI1
 10
176.8970936520162
 20
126.0830310987441
 30
-0.0000000000000014
 11
176.8970936520162
 21
126.8830310987442
 31
-0.0000000000000014
  0
LINE
  5
176C6
  8
KI1
 10
165.44709365201589
 20
125.183031098744
 30
-0.0000000000000014
 11
169.44709365201641
 21
126.8830310987442
 31
-0.0000000000000014
  0
LINE
  5
176C7
  8
KI1
 10
178.44709365201641
 20
114.183031098744
 30
-0.0000000000000014
 11
182.988836082521
 21
114.183031098744
 31
-0.0000000000000014
  0
LINE
  5
176C8
  8
KI1
 10
178.04709365201629
 20
112.98303109874369
 30
-0.0000000000000014
 11
188.84709365201741
 21
112.98303109874369
 31
-0.0000000000000014
  0
LINE
  5
176C9
  8
KI1
 10
225.6470686520164
 20
124.8830310987438
 30
-0.0000000000000014
 11
225.6470686520164
 21
112.97855903266201
 31
-0.0000000000000014
  0
LINE
  5
176CA
  8
KI1
 10
225.6470686520164
 20
124.8830310987438
 30
-0.0000000000000014
 11
226.6970936520155
 21
124.8830310987438
 31
-0.0000000000000014
  0
LINE
  5
176CB
  8
KI1
 10
225.9970936520152
 20
126.0830310987441
 30
-0.0000000000000014
 11
224.94709365201641
 21
126.0830310987441
 31
-0.0000000000000014
  0
LINE
  5
176CC
  8
KI1
 10
224.04709365201541
 20
120.47322529418
 30
-0.0000000000000014
 11
224.44709365201641
 21
121.1730310987442
 31
-0.0000000000000014
  0
ARC
  5
176CD
  8
KI1
 10
224.54709364406321
 20
120.4731361198952
 30
-0.0000000000000014
 40
0.5000000000001135
 50
179.9897813795902
 51
258.46304189731683
  0
ARC
  5
176CE
  8
KI1
 10
225.2470936520161
 20
112.98303109874369
 30
-0.0000000000000014
 40
0.39999999999921
 50
180.0
 51
0.0
  0
LINE
  5
176CF
  8
KI1
 10
224.44709365201641
 20
114.183031098744
 30
-0.0000000000000014
 11
224.44709365201641
 21
119.9832381697148
 31
-0.0000000000000014
  0
LINE
  5
176D0
  8
KI1
 10
224.44709365201641
 20
121.1730310987442
 30
-0.0000000000000014
 11
224.44709365201641
 21
125.583031098744
 31
-0.0000000000000014
  0
LINE
  5
176D1
  8
KI1
 10
227.19709365201501
 20
125.3830310987442
 30
-0.0000000000000014
 11
227.19709365201501
 21
125.583031098744
 31
-0.0000000000000014
  0
ARC
  5
176D2
  8
KI1
 10
226.6970936520155
 20
125.3830310987442
 30
-0.0000000000000014
 40
0.5000000000000993
 50
270.0
 51
0.0
  0
ARC
  5
176D3
  8
KI1
 10
224.94709365201641
 20
125.583031098744
 30
-0.0000000000000014
 40
0.5000000000000993
 50
90.0
 51
180.0
  0
ARC
  5
176D4
  8
KI1
 10
219.44709365201601
 20
114.3830310987438
 30
-0.0000000000000014
 40
0.4999999999992742
 50
203.57817847820709
 51
336.4218215218512
  0
LINE
  5
176D5
  8
KI1
 10
219.90535122151221
 20
114.183031098744
 30
-0.0000000000000014
 11
224.44709365201641
 21
114.183031098744
 31
-0.0000000000000014
  0
LINE
  5
176D6
  8
KI1
 10
213.94709365201641
 20
126.0830310987441
 30
-0.0000000000000014
 11
212.8970936520162
 21
126.0830310987441
 31
-0.0000000000000014
  0
LINE
  5
176D7
  8
KI1
 10
214.44709365201641
 20
121.1730310987442
 30
-0.0000000000000014
 11
214.8470936520161
 21
120.47322529418
 31
-0.0000000000000014
  0
LINE
  5
176D8
  8
KI1
 10
213.2470936520161
 20
112.98303109874369
 30
-0.0000000000000014
 11
213.2470936520161
 21
124.8830310987438
 31
-0.0000000000000014
  0
ARC
  5
176D9
  8
KI1
 10
214.34709365996821
 20
120.4731361198952
 30
-0.0000000000000014
 40
0.5000000000002347
 50
281.53695810278953
 51
0.0102186204097569
  0
ARC
  5
176DA
  8
KI1
 10
213.6470936520162
 20
112.98303109874369
 30
-0.0000000000000014
 40
0.3999999999998492
 50
180.0
 51
0.0
  0
LINE
  5
176DB
  8
KI1
 10
214.44709365201641
 20
114.183031098744
 30
-0.0000000000000014
 11
214.44709365201641
 21
119.9832381697148
 31
-0.0000000000000014
  0
LINE
  5
176DC
  8
KI1
 10
214.44709365201641
 20
121.1730310987442
 30
-0.0000000000000014
 11
214.44709365201641
 21
125.583031098744
 31
-0.0000000000000014
  0
LINE
  5
176DD
  8
KI1
 10
212.19709365201641
 20
124.8830310987438
 30
-0.0000000000000014
 11
213.2470936520161
 21
124.8830310987438
 31
-0.0000000000000014
  0
LINE
  5
176DE
  8
KI1
 10
211.69709365201641
 20
125.583031098744
 30
-0.0000000000000014
 11
211.69709365201641
 21
125.3830310987442
 31
-0.0000000000000014
  0
ARC
  5
176DF
  8
KI1
 10
212.19709365201641
 20
125.3830310987442
 30
-0.0000000000000014
 40
0.5000000000000142
 50
180.0
 51
270.0
  0
ARC
  5
176E0
  8
KI1
 10
213.94709365201641
 20
125.583031098744
 30
-0.0000000000000014
 40
0.5000000000000142
 50
0.0
 51
90.0
  0
LINE
  5
176E1
  8
KI1
 10
214.44709365201641
 20
114.183031098744
 30
-0.0000000000000014
 11
218.98883608252109
 21
114.183031098744
 31
-0.0000000000000014
  0
LINE
  5
176E2
  8
KI1
 10
214.0470936520168
 20
112.98303109874369
 30
-0.0000000000000014
 11
224.84709365201741
 21
112.98303109874369
 31
-0.0000000000000014
  0
LINE
  5
176E3
  8
KI1
 10
225.9970936520152
 20
126.8830310987442
 30
-0.0000000000000014
 11
225.9970936520152
 21
126.0830310987441
 31
-0.0000000000000014
  0
LINE
  5
176E4
  8
KI1
 10
212.8970936520162
 20
126.0830310987441
 30
-0.0000000000000014
 11
212.8970936520162
 21
126.8830310987442
 31
-0.0000000000000014
  0
LINE
  5
176E5
  8
KI1
 10
249.2470936520161
 20
112.98303109874369
 30
-0.0000000000000014
 11
249.2470936520161
 21
124.8830310987438
 31
-0.0000000000000014
  0
LINE
  5
176E6
  8
KI1
 10
261.64706865201617
 20
124.8830310987438
 30
-0.0000000000000014
 11
261.6470686520164
 21
112.97855903266201
 31
-0.0000000000000014
  0
LINE
  5
176E7
  8
KI1
 10
261.64706865201617
 20
124.8830310987438
 30
-0.0000000000000014
 11
262.6970936520155
 21
124.8830310987438
 31
-0.0000000000000014
  0
LINE
  5
176E8
  8
KI1
 10
273.44709365201601
 20
125.183031098744
 30
-0.0000000000000014
 11
273.44709365201601
 21
124.2830310987439
 31
-0.0000000000000014
  0
LINE
  5
176E9
  8
KI1
 10
272.24112801016543
 20
124.2830310987439
 30
-0.0000000000000014
 11
273.44709365201601
 21
124.2830310987439
 31
-0.0000000000000014
  0
LINE
  5
176EA
  8
KI1
 10
266.94709365201641
 20
124.583031098744
 30
-0.0000000000000014
 11
266.94709365201641
 21
125.583031098744
 31
-0.0000000000000014
  0
LINE
  5
176EB
  8
KI1
 10
266.94709365201641
 20
125.583031098744
 30
-0.0000000000000014
 11
269.18230448075332
 21
125.583031098744
 31
-0.0000000000000014
  0
LINE
  5
176EC
  8
KI1
 10
269.18230448075332
 20
125.583031098744
 30
-0.0000000000000014
 11
272.24112801016543
 21
124.2830310987439
 31
-0.0000000000000014
  0
LINE
  5
176ED
  8
KI1
 10
269.44709365201641
 20
126.8830310987442
 30
-0.0000000000000014
 11
273.44709365201601
 21
125.183031098744
 31
-0.0000000000000014
  0
LINE
  5
176EE
  8
KI1
 10
265.94709365201589
 20
125.583031098744
 30
-0.0000000000000014
 11
265.94709365201589
 21
124.583031098744
 31
-0.0000000000000014
  0
LINE
  5
176EF
  8
KI1
 10
261.99709365201522
 20
126.0830310987441
 30
-0.0000000000000014
 11
260.94709365201641
 21
126.0830310987441
 31
-0.0000000000000014
  0
LINE
  5
176F0
  8
KI1
 10
260.04709365201541
 20
120.47322529418
 30
-0.0000000000000014
 11
260.44709365201641
 21
121.1730310987442
 31
-0.0000000000000014
  0
ARC
  5
176F1
  8
KI1
 10
260.54709364406318
 20
120.4731361198952
 30
-0.0000000000000014
 40
0.5000000000001135
 50
179.9897813795902
 51
258.46304189731683
  0
ARC
  5
176F2
  8
KI1
 10
261.24709365201608
 20
112.98303109874369
 30
-0.0000000000000014
 40
0.39999999999921
 50
180.0
 51
0.0
  0
LINE
  5
176F3
  8
KI1
 10
260.44709365201641
 20
114.183031098744
 30
-0.0000000000000014
 11
260.44709365201641
 21
119.9832381697148
 31
-0.0000000000000014
  0
LINE
  5
176F4
  8
KI1
 10
263.1970936520151
 20
125.3830310987442
 30
-0.0000000000000014
 11
263.1970936520151
 21
125.583031098744
 31
-0.0000000000000014
  0
ARC
  5
176F5
  8
KI1
 10
262.6970936520155
 20
125.3830310987442
 30
-0.0000000000000014
 40
0.5000000000000993
 50
270.0
 51
0.0
  0
LINE
  5
176F6
  8
KI1
 10
260.44709365201641
 20
121.1730310987442
 30
-0.0000000000000014
 11
260.44709365201641
 21
125.583031098744
 31
-0.0000000000000014
  0
ARC
  5
176F7
  8
KI1
 10
255.44709365201589
 20
114.3830310987438
 30
-0.0000000000000014
 40
0.4999999999992742
 50
203.57817847820709
 51
336.4218215218512
  0
LINE
  5
176F8
  8
KI1
 10
255.90535122151221
 20
114.183031098744
 30
-0.0000000000000014
 11
260.44709365201641
 21
114.183031098744
 31
-0.0000000000000014
  0
ARC
  5
176F9
  8
KI1
 10
260.94709365201641
 20
125.583031098744
 30
-0.0000000000000014
 40
0.5000000000000993
 50
90.0
 51
180.0
  0
LINE
  5
176FA
  8
KI1
 10
263.1970936520151
 20
125.583031098744
 30
-0.0000000000000014
 11
265.94709365201589
 21
125.583031098744
 31
-0.0000000000000014
  0
LINE
  5
176FB
  8
KI1
 10
261.99709365201522
 20
126.8830310987442
 30
-0.0000000000000014
 11
261.99709365201522
 21
126.0830310987441
 31
-0.0000000000000014
  0
LINE
  5
176FC
  8
KI1
 10
249.94709365201641
 20
126.0830310987441
 30
-0.0000000000000014
 11
248.8970936520162
 21
126.0830310987441
 31
-0.0000000000000014
  0
LINE
  5
176FD
  8
KI1
 10
250.44709365201641
 20
121.1730310987442
 30
-0.0000000000000014
 11
250.84709365201601
 21
120.47322529418
 31
-0.0000000000000014
  0
ARC
  5
176FE
  8
KI1
 10
250.34709365996821
 20
120.4731361198952
 30
-0.0000000000000014
 40
0.5000000000002347
 50
281.53695810278953
 51
0.0102186204097569
  0
ARC
  5
176FF
  8
KI1
 10
249.6470936520162
 20
112.98303109874369
 30
-0.0000000000000014
 40
0.3999999999998492
 50
180.0
 51
0.0
  0
LINE
  5
17700
  8
KI1
 10
250.44709365201641
 20
114.183031098744
 30
-0.0000000000000014
 11
250.44709365201641
 21
119.9832381697148
 31
-0.0000000000000014
  0
LINE
  5
17701
  8
KI1
 10
248.19709365201641
 20
124.8830310987438
 30
-0.0000000000000014
 11
249.2470936520161
 21
124.8830310987438
 31
-0.0000000000000014
  0
LINE
  5
17702
  8
KI1
 10
250.44709365201641
 20
121.1730310987442
 30
-0.0000000000000014
 11
250.44709365201641
 21
125.583031098744
 31
-0.0000000000000014
  0
LINE
  5
17703
  8
KI1
 10
247.69709365201641
 20
125.583031098744
 30
-0.0000000000000014
 11
247.69709365201641
 21
125.3830310987442
 31
-0.0000000000000014
  0
ARC
  5
17704
  8
KI1
 10
248.19709365201641
 20
125.3830310987442
 30
-0.0000000000000014
 40
0.5000000000000142
 50
180.0
 51
270.0
  0
ARC
  5
17705
  8
KI1
 10
249.94709365201641
 20
125.583031098744
 30
-0.0000000000000014
 40
0.5000000000000142
 50
0.0
 51
90.0
  0
LINE
  5
17706
  8
KI1
 10
248.8970936520162
 20
126.0830310987441
 30
-0.0000000000000014
 11
248.8970936520162
 21
126.8830310987442
 31
-0.0000000000000014
  0
LINE
  5
17707
  8
KI1
 10
250.44709365201641
 20
114.183031098744
 30
-0.0000000000000014
 11
254.98883608252109
 21
114.183031098744
 31
-0.0000000000000014
  0
LINE
  5
17708
  8
KI1
 10
250.0470936520168
 20
112.98303109874369
 30
-0.0000000000000014
 11
260.84709365201741
 21
112.98303109874369
 31
-0.0000000000000014
  0
LINE
  5
17709
  8
KI1
 10
261.99709365201522
 20
126.8830310987442
 30
-0.0000000000000014
 11
269.44709365201641
 21
126.8830310987442
 31
-0.0000000000000014
  0
ARC
  5
1770A
  8
KI1
 10
266.44709365201641
 20
124.583031098744
 30
-0.0000000000000014
 40
0.4999999999999716
 50
180.0
 51
0.0
  0
LINE
  5
1770B
  8
KI1
 10
250.64705012157981
 20
332.80573652058609
 30
-0.0000000000000014
 11
224.24705718245229
 21
332.80573652058609
 31
-0.0000000000000014
  0
LINE
  5
1770C
  8
KI1
 10
237.72989236638421
 20
329.30573646167181
 30
-0.0000000000000014
 11
250.047051050953
 21
329.30573646167181
 31
-0.0000000000000014
  0
LINE
  5
1770D
  8
KI1
 10
250.19320939282699
 20
328.10574394672608
 30
-0.0000000000000014
 11
237.4470536520156
 21
328.10574394672608
 31
-0.0000000000000014
  0
LINE
  5
1770E
  8
KI1
 10
242.6470536520159
 20
331.60574400564218
 30
-0.0000000000000014
 11
248.34706008986981
 21
331.60574400564218
 31
-0.0000000000000014
  0
LINE
  5
1770F
  8
KI1
 10
201.14705126589189
 20
329.30573646167181
 30
-0.0000000000000014
 11
188.84705625308001
 21
329.30573646167181
 31
-0.0000000000000014
  0
LINE
  5
17710
  8
KI1
 10
188.70089791120409
 20
328.10574394672608
 30
-0.0000000000000014
 11
201.4470536520156
 21
328.10574394672608
 31
-0.0000000000000014
  0
ARC
  5
17711
  8
KI1
 10
196.6970536520156
 20
330.05573652058609
 30
-0.0000000000000014
 40
0.4499999999999992
 50
180.0
 51
0.0
  0
LINE
  5
17712
  8
KI1
 10
214.64705012157981
 20
332.80573652058609
 30
-0.0000000000000014
 11
188.24705718245229
 21
332.80573652058609
 31
-0.0000000000000014
  0
LINE
  5
17713
  8
KI1
 10
189.58362780436971
 20
330.21062990230189
 30
-0.0000000000000014
 11
189.86032149460729
 21
329.8153431949579
 31
-0.0000000000000014
  0
ARC
  5
17714
  8
KI1
 10
190.46713877691201
 20
329.99598214526048
 30
-0.0000000000000014
 40
0.3000000099360252
 50
304.99198913573298
 51
34.858993530266311
  0
LINE
  5
17715
  8
KI1
 10
196.24705365201569
 20
331.80573652058621
 30
-0.0000000000000014
 11
196.24705365201569
 21
330.05573652058609
 31
-0.0000000000000014
  0
LINE
  5
17716
  8
KI1
 10
188.84705625308001
 20
330.60574148705678
 30
-0.0000000000000014
 11
188.84705625308001
 21
329.30573646167181
 31
-0.0000000000000014
  0
LINE
  5
17717
  8
KI1
 10
181.34705365201569
 20
329.30574394672681
 30
-0.0000000000000014
 11
181.34705365201569
 21
331.84708958062203
 31
-0.0000000000000014
  0
LINE
  5
17718
  8
KI1
 10
185.54705365201551
 20
329.30574394672681
 30
-0.0000000000000014
 11
185.54705365201551
 21
331.84708958062203
 31
-0.0000000000000014
  0
LINE
  5
17719
  8
KI1
 10
178.44844937365531
 20
331.7865081499578
 30
-0.0000000000000014
 11
174.64705365201581
 21
328.55126617303608
 31
-0.0000000000000014
  0
LINE
  5
1771A
  8
KI1
 10
180.14705365201581
 20
329.10574394672699
 30
-0.0000000000000014
 11
180.14705365201581
 21
331.14762809338868
 31
-0.0000000000000014
  0
LINE
  5
1771B
  8
KI1
 10
178.14703105545809
 20
333.10573902738793
 30
-0.0000000000000014
 11
173.4470536520156
 21
329.10574394672699
 31
-0.0000000000000014
  0
LINE
  5
1771C
  8
KI1
 10
185.54705365201551
 20
329.30574394672681
 30
-0.0000000000000014
 11
183.4470536520156
 21
329.30574394672681
 31
-0.0000000000000014
  0
LINE
  5
1771D
  8
KI1
 10
181.14705365201581
 20
328.10574394672608
 30
-0.0000000000000014
 11
185.69320939282699
 21
328.10574394672608
 31
-0.0000000000000014
  0
LINE
  5
1771E
  8
KI1
 10
181.34705365201569
 20
329.30574394672681
 30
-0.0000000000000014
 11
183.4470536520156
 21
329.30574394672681
 31
-0.0000000000000014
  0
LINE
  5
1771F
  8
KI1
 10
174.64705365201581
 20
328.55126617303608
 30
-0.0000000000000014
 11
174.64705365201581
 21
328.10574394672608
 31
-0.0000000000000014
  0
LINE
  5
17720
  8
KI1
 10
173.4470536520156
 20
329.10574394672699
 30
-0.0000000000000014
 11
173.4470536520156
 21
328.10574394672608
 31
-0.0000000000000014
  0
LINE
  5
17721
  8
KI1
 10
174.64705365201581
 20
328.10574394672608
 30
-0.0000000000000014
 11
173.4470536520156
 21
328.10574394672608
 31
-0.0000000000000014
  0
ARC
  5
17722
  8
KI1
 10
181.14705365201581
 20
329.10574394672699
 30
-0.0000000000000014
 40
1.0
 50
180.0
 51
270.0
  0
LINE
  5
17723
  8
KI1
 10
190.556678956544
 20
329.6924596744268
 30
-0.0000000000000014
 11
190.63916169584891
 21
329.75019759193918
 31
-0.0000000000000014
  0
ARC
  5
17724
  8
KI1
 10
190.26995074197049
 20
330.10208892178912
 30
-0.0000000000000014
 40
0.4999999937576218
 50
214.99197387695901
 51
304.99198913573298
  0
ARC
  5
17725
  8
KI1
 10
187.1970536520156
 20
328.85574394672608
 30
-0.0000000000000014
 40
0.5
 50
19.720842471960889
 51
160.27915752803909
  0
LINE
  5
17726
  8
KI1
 10
186.63455725028879
 20
328.7683062321002
 30
-0.0000000000000014
 11
186.72637972328459
 21
329.0244628040391
 31
-0.0000000000000014
  0
ARC
  5
17727
  8
KI1
 10
185.69320939282699
 20
329.10574394672608
 30
-0.0000000000000014
 40
1.0
 50
270.0
 51
340.27915752803909
  0
ARC
  5
17728
  8
KI1
 10
188.70089791120409
 20
329.10574394672608
 30
-0.0000000000000014
 40
1.0
 50
199.72084247196091
 51
270.0
  0
LINE
  5
17729
  8
KI1
 10
187.7595500537424
 20
328.7683062321002
 30
-0.0000000000000014
 11
187.6677275807466
 21
329.0244628040391
 31
-0.0000000000000014
  0
ARC
  5
1772A
  8
KI1
 10
179.84705365201569
 20
331.14762809338868
 30
-0.0000000000000014
 40
0.3
 50
0.0
 51
50.000000000013692
  0
ARC
  5
1772B
  8
KI1
 10
178.7725093608436
 20
331.40573902738771
 30
-0.0000000000000014
 40
0.5
 50
90.0
 51
130.40000551601739
  0
LINE
  5
1772C
  8
KI1
 10
179.22830425376361
 20
331.9057390273872
 30
-0.0000000000000014
 11
178.7725093608436
 21
331.9057390273872
 31
-0.0000000000000014
  0
LINE
  5
1772D
  8
KI1
 10
179.54969805860699
 20
331.78876124894742
 30
-0.0000000000000014
 11
180.03988993492229
 21
331.37744142632499
 31
-0.0000000000000014
  0
ARC
  5
1772E
  8
KI1
 10
179.22830425376361
 20
331.40573902738771
 30
-0.0000000000000014
 40
0.5
 50
50.000000000013692
 51
90.0
  0
LINE
  5
1772F
  8
KI1
 10
179.84705859492109
 20
333.10573902738793
 30
-0.0000000000000014
 11
178.14703105545809
 21
333.10573902738793
 31
-0.0000000000000014
  0
LINE
  5
17730
  8
KI1
 10
179.84705365201569
 20
333.10573902738793
 30
-0.0000000000000014
 11
181.34705365201569
 21
331.84708958062203
 31
-0.0000000000000014
  0
ARC
  5
17731
  8
KI1
 10
189.24705626486309
 20
330.90574148705701
 30
-0.0000000000000014
 40
0.3
 50
270.0
 51
0.0
  0
LINE
  5
17732
  8
KI1
 10
190.71330859992881
 20
330.1674446719137
 30
-0.0000000000000014
 11
190.4308533765205
 21
330.57294102618312
 31
-0.0000000000000014
  0
LINE
  5
17733
  8
KI1
 10
190.4308533765205
 20
330.57294102618312
 30
-0.0000000000000014
 11
190.54706472642039
 21
330.97968075083207
 31
-0.0000000000000014
  0
LINE
  5
17734
  8
KI1
 10
189.64705720601779
 20
331.60574400564218
 30
-0.0000000000000014
 11
189.64705720601779
 21
331.10573399021968
 31
-0.0000000000000014
  0
LINE
  5
17735
  8
KI1
 10
189.64705720601779
 20
331.10573399021968
 30
-0.0000000000000014
 11
189.5124930088167
 21
330.63472427549573
 31
-0.0000000000000014
  0
ARC
  5
17736
  8
KI1
 10
189.9932395394743
 20
330.49735811687492
 30
-0.0000000000000014
 40
0.4999999937576218
 50
164.0549926757796
 51
214.99198913572849
  0
LINE
  5
17737
  8
KI1
 10
189.54705626486279
 20
331.00574400564102
 30
-0.0000000000000014
 11
189.54705626486279
 21
330.90574148705701
 31
-0.0000000000000014
  0
ARC
  5
17738
  8
KI1
 10
188.94705626486291
 20
331.00574400564102
 30
-0.0000000000000014
 40
0.6
 50
0.0
 51
90.0
  0
LINE
  5
17739
  8
KI1
 10
190.54706472642039
 20
330.97968075083207
 30
-0.0000000000000014
 11
190.54706472642039
 21
331.80573652058621
 31
-0.0000000000000014
  0
LINE
  5
1773A
  8
KI1
 10
196.24705365201569
 20
331.80573652058621
 30
-0.0000000000000014
 11
190.54706472642039
 21
331.80573652058621
 31
-0.0000000000000014
  0
LINE
  5
1773B
  8
KI1
 10
188.04706124311619
 20
332.80573902738729
 30
-0.0000000000000014
 11
188.04706124311619
 21
331.60574400564218
 31
-0.0000000000000014
  0
ARC
  5
1773C
  8
KI1
 10
187.74706124311601
 20
332.80573902738729
 30
-0.0000000000000014
 40
0.3
 50
0.0
 51
90.0
  0
LINE
  5
1773D
  8
KI1
 10
188.24705718245229
 20
332.80573652058609
 30
-0.0000000000000014
 11
188.24705718245229
 21
331.60574400564218
 31
-0.0000000000000014
  0
LINE
  5
1773E
  8
KI1
 10
187.04705365201551
 20
333.10573902738793
 30
-0.0000000000000014
 11
185.54705365201551
 21
331.84708958062203
 31
-0.0000000000000014
  0
LINE
  5
1773F
  8
KI1
 10
187.04705365201551
 20
333.10573902738793
 30
-0.0000000000000014
 11
187.74706124311601
 21
333.10573902738793
 31
-0.0000000000000014
  0
LINE
  5
17740
  8
KI1
 10
189.24705626486309
 20
330.60574148705678
 30
-0.0000000000000014
 11
188.84705625308001
 21
330.60574148705678
 31
-0.0000000000000014
  0
LINE
  5
17741
  8
KI1
 10
188.24705718245229
 20
331.60574400564218
 30
-0.0000000000000014
 11
189.64705720601779
 21
331.60574400564218
 31
-0.0000000000000014
  0
LINE
  5
17742
  8
KI1
 10
188.94705626486291
 20
331.60574400564218
 30
-0.0000000000000014
 11
188.04706124311619
 21
331.60574400564218
 31
-0.0000000000000014
  0
LINE
  5
17743
  8
KI1
 10
241.74705365201581
 20
331.60574400564218
 30
-0.0000000000000014
 11
241.74705365201581
 21
330.05573652058609
 31
-0.0000000000000014
  0
LINE
  5
17744
  8
KI1
 10
242.6470536520159
 20
331.60574400564218
 30
-0.0000000000000014
 11
242.6470536520159
 21
330.05573652058609
 31
-0.0000000000000014
  0
LINE
  5
17745
  8
KI1
 10
232.24705365201581
 20
331.60574400564218
 30
-0.0000000000000014
 11
232.24705365201581
 21
330.05573652058609
 31
-0.0000000000000014
  0
LINE
  5
17746
  8
KI1
 10
233.1470536520159
 20
331.60574400564218
 30
-0.0000000000000014
 11
233.1470536520159
 21
330.05573652058609
 31
-0.0000000000000014
  0
LINE
  5
17747
  8
KI1
 10
224.84705625308001
 20
330.60574148705678
 30
-0.0000000000000014
 11
224.84705625308001
 21
329.30573646167181
 31
-0.0000000000000014
  0
LINE
  5
17748
  8
KI1
 10
225.58362780436971
 20
330.21062990230189
 30
-0.0000000000000014
 11
225.86032149460729
 21
329.8153431949579
 31
-0.0000000000000014
  0
ARC
  5
17749
  8
KI1
 10
226.46713877691209
 20
329.99598214526048
 30
-0.0000000000000014
 40
0.3000000099360252
 50
304.99198913573298
 51
34.858993530266311
  0
LINE
  5
1774A
  8
KI1
 10
214.047051050953
 20
330.60574148705678
 30
-0.0000000000000014
 11
214.047051050953
 21
329.30573646167181
 31
-0.0000000000000014
  0
LINE
  5
1774B
  8
KI1
 10
217.34705365201569
 20
329.30574394672681
 30
-0.0000000000000014
 11
217.34705365201569
 21
331.84708958062203
 31
-0.0000000000000014
  0
LINE
  5
1774C
  8
KI1
 10
221.54705365201551
 20
329.30574394672681
 30
-0.0000000000000014
 11
221.54705365201551
 21
331.84708958062203
 31
-0.0000000000000014
  0
LINE
  5
1774D
  8
KI1
 10
213.31049701192191
 20
330.21062990230189
 30
-0.0000000000000014
 11
213.03380332168439
 21
329.8153431949579
 31
-0.0000000000000014
  0
ARC
  5
1774E
  8
KI1
 10
212.4269860393791
 20
329.99598214526048
 30
-0.0000000000000014
 40
0.3000000099360252
 50
145.14099121094441
 51
235.0079956054567
  0
LINE
  5
1774F
  8
KI1
 10
205.74705365201581
 20
331.80573652058621
 30
-0.0000000000000014
 11
205.74705365201581
 21
330.05573652058609
 31
-0.0000000000000014
  0
LINE
  5
17750
  8
KI1
 10
206.6470536520159
 20
331.80573652058621
 30
-0.0000000000000014
 11
206.6470536520159
 21
330.05573652058609
 31
-0.0000000000000014
  0
LINE
  5
17751
  8
KI1
 10
197.1470536520159
 20
331.80573652058621
 30
-0.0000000000000014
 11
197.1470536520159
 21
330.05573652058609
 31
-0.0000000000000014
  0
LINE
  5
17752
  8
KI1
 10
221.54705365201551
 20
329.30574394672681
 30
-0.0000000000000014
 11
219.4470536520156
 21
329.30574394672681
 31
-0.0000000000000014
  0
LINE
  5
17753
  8
KI1
 10
221.69320939282699
 20
328.10574394672608
 30
-0.0000000000000014
 11
217.20089791120421
 21
328.10574394672608
 31
-0.0000000000000014
  0
LINE
  5
17754
  8
KI1
 10
201.74705126589319
 20
329.30573646167181
 30
-0.0000000000000014
 11
214.047051050953
 21
329.30573646167181
 31
-0.0000000000000014
  0
LINE
  5
17755
  8
KI1
 10
214.1932093928271
 20
328.10574394672608
 30
-0.0000000000000014
 11
201.4470536520156
 21
328.10574394672608
 31
-0.0000000000000014
  0
ARC
  5
17756
  8
KI1
 10
206.1970536520156
 20
330.05573652058609
 30
-0.0000000000000014
 40
0.4499999999999992
 50
180.0
 51
0.0
  0
ARC
  5
17757
  8
KI1
 10
201.44705126589349
 20
329.30573646167181
 30
-0.0000000000000014
 40
0.3
 50
180.0
 51
0.0
  0
LINE
  5
17758
  8
KI1
 10
217.34705365201569
 20
329.30574394672681
 30
-0.0000000000000014
 11
219.4470536520156
 21
329.30574394672681
 31
-0.0000000000000014
  0
ARC
  5
17759
  8
KI1
 10
217.20089791120421
 20
329.10574394672608
 30
-0.0000000000000014
 40
1.0
 50
199.72084247196091
 51
270.0
  0
ARC
  5
1775A
  8
KI1
 10
214.1932093928271
 20
329.10574394672608
 30
-0.0000000000000014
 40
1.0
 50
270.0
 51
340.27915752803909
  0
LINE
  5
1775B
  8
KI1
 10
215.13455725028879
 20
328.7683062321002
 30
-0.0000000000000014
 11
215.22637972328459
 21
329.0244628040391
 31
-0.0000000000000014
  0
LINE
  5
1775C
  8
KI1
 10
216.2595500537424
 20
328.7683062321002
 30
-0.0000000000000014
 11
216.1677275807466
 21
329.0244628040391
 31
-0.0000000000000014
  0
ARC
  5
1775D
  8
KI1
 10
215.6970536520156
 20
328.85574394672608
 30
-0.0000000000000014
 40
0.5
 50
19.720842471960889
 51
160.27915752803909
  0
LINE
  5
1775E
  8
KI1
 10
212.3374458597481
 20
329.6924596744268
 30
-0.0000000000000014
 11
212.2549456081841
 21
329.75019759193918
 31
-0.0000000000000014
  0
ARC
  5
1775F
  8
KI1
 10
212.6241740743211
 20
330.10208892178912
 30
-0.0000000000000014
 40
0.4999999937576218
 50
235.0079956054567
 51
325.00799560546392
  0
ARC
  5
17760
  8
KI1
 10
232.6970536520156
 20
330.05573652058609
 30
-0.0000000000000014
 40
0.4499999999999992
 50
180.0
 51
0.0
  0
LINE
  5
17761
  8
KI1
 10
237.1642149376479
 20
329.30573646167181
 30
-0.0000000000000014
 11
224.84705625308001
 21
329.30573646167181
 31
-0.0000000000000014
  0
LINE
  5
17762
  8
KI1
 10
224.70089791120421
 20
328.10574394672608
 30
-0.0000000000000014
 11
237.4470536520156
 21
328.10574394672608
 31
-0.0000000000000014
  0
LINE
  5
17763
  8
KI1
 10
226.5566789565431
 20
329.6924596744268
 30
-0.0000000000000014
 11
226.63916169584891
 21
329.75019759193918
 31
-0.0000000000000014
  0
ARC
  5
17764
  8
KI1
 10
226.26995074197049
 20
330.10208892178912
 30
-0.0000000000000014
 40
0.4999999937576218
 50
214.99197387695901
 51
304.99198913573298
  0
ARC
  5
17765
  8
KI1
 10
223.1970536520156
 20
328.85574394672608
 30
-0.0000000000000014
 40
0.5
 50
19.720842471960889
 51
160.27915752803909
  0
LINE
  5
17766
  8
KI1
 10
222.63455725028879
 20
328.7683062321002
 30
-0.0000000000000014
 11
222.72637972328479
 21
329.0244628040391
 31
-0.0000000000000014
  0
LINE
  5
17767
  8
KI1
 10
223.7595500537424
 20
328.7683062321002
 30
-0.0000000000000014
 11
223.6677275807464
 21
329.0244628040391
 31
-0.0000000000000014
  0
ARC
  5
17768
  8
KI1
 10
224.70089791120421
 20
329.10574394672608
 30
-0.0000000000000014
 40
1.0
 50
199.72084247196091
 51
270.0
  0
ARC
  5
17769
  8
KI1
 10
221.69320939282699
 20
329.10574394672608
 30
-0.0000000000000014
 40
1.0
 50
270.0
 51
340.27915752803909
  0
ARC
  5
1776A
  8
KI1
 10
242.1970536520156
 20
330.05573652058609
 30
-0.0000000000000014
 40
0.4499999999999992
 50
180.0
 51
0.0
  0
ARC
  5
1776B
  8
KI1
 10
237.44705603814
 20
329.30573646167181
 30
-0.0000000000000014
 40
0.3
 50
180.0
 51
0.0
  0
LINE
  5
1776C
  8
KI1
 10
212.34706008986981
 20
331.80573652058621
 30
-0.0000000000000014
 11
206.6470536520159
 21
331.80573652058621
 31
-0.0000000000000014
  0
LINE
  5
1776D
  8
KI1
 10
205.74705365201581
 20
331.80573652058621
 30
-0.0000000000000014
 11
197.1470536520159
 21
331.80573652058621
 31
-0.0000000000000014
  0
LINE
  5
1776E
  8
KI1
 10
214.84704606091589
 20
332.80573902738729
 30
-0.0000000000000014
 11
214.84704606091589
 21
331.60574400564218
 31
-0.0000000000000014
  0
ARC
  5
1776F
  8
KI1
 10
215.1470460609161
 20
332.80573902738729
 30
-0.0000000000000014
 40
0.3
 50
90.0
 51
180.0
  0
LINE
  5
17770
  8
KI1
 10
214.64705012157981
 20
331.60574400564218
 30
-0.0000000000000014
 11
214.64705012157981
 21
332.80573652058609
 31
-0.0000000000000014
  0
LINE
  5
17771
  8
KI1
 10
215.84705365201569
 20
333.10573902738793
 30
-0.0000000000000014
 11
217.34705365201569
 21
331.84708958062203
 31
-0.0000000000000014
  0
LINE
  5
17772
  8
KI1
 10
213.9470510391692
 20
331.60574400564218
 30
-0.0000000000000014
 11
214.84704606091589
 21
331.60574400564218
 31
-0.0000000000000014
  0
LINE
  5
17773
  8
KI1
 10
215.1470460609161
 20
333.10573902738702
 30
-0.0000000000000014
 11
215.84705365201569
 21
333.10573902738793
 31
-0.0000000000000014
  0
ARC
  5
17774
  8
KI1
 10
213.64705103916901
 20
330.90574148705701
 30
-0.0000000000000014
 40
0.3
 50
180.0
 51
270.0
  0
LINE
  5
17775
  8
KI1
 10
213.24706761027329
 20
331.10573399021968
 30
-0.0000000000000014
 11
213.3816493197331
 21
330.63472427549573
 31
-0.0000000000000014
  0
LINE
  5
17776
  8
KI1
 10
213.24706761027329
 20
331.60574400564218
 30
-0.0000000000000014
 11
213.24706761027329
 21
331.10573399021968
 31
-0.0000000000000014
  0
LINE
  5
17777
  8
KI1
 10
212.180833728621
 20
330.1674446719137
 30
-0.0000000000000014
 11
212.4632714397689
 21
330.57294102618312
 31
-0.0000000000000014
  0
LINE
  5
17778
  8
KI1
 10
212.4632714397689
 20
330.57294102618312
 30
-0.0000000000000014
 11
212.34706008986981
 21
330.97968075083207
 31
-0.0000000000000014
  0
ARC
  5
17779
  8
KI1
 10
212.9008677645574
 20
330.49735811687492
 30
-0.0000000000000014
 40
0.4999999937576218
 50
325.00799560546392
 51
15.94499206543477
  0
LINE
  5
1777A
  8
KI1
 10
213.3470510391702
 20
331.00574400564102
 30
-0.0000000000000014
 11
213.3470510391702
 21
330.90574148705701
 31
-0.0000000000000014
  0
LINE
  5
1777B
  8
KI1
 10
212.34706008986981
 20
330.97968075083207
 30
-0.0000000000000014
 11
212.34706008986981
 21
331.80573652058621
 31
-0.0000000000000014
  0
LINE
  5
1777C
  8
KI1
 10
213.64705103916901
 20
330.60574148705678
 30
-0.0000000000000014
 11
214.047051050953
 21
330.60574148705678
 31
-0.0000000000000014
  0
LINE
  5
1777D
  8
KI1
 10
213.24706761027329
 20
331.60574400564218
 30
-0.0000000000000014
 11
214.64705012157981
 21
331.60574400564218
 31
-0.0000000000000014
  0
ARC
  5
1777E
  8
KI1
 10
213.9470510391692
 20
331.00574400564102
 30
-0.0000000000000014
 40
0.6
 50
90.0
 51
180.0
  0
LINE
  5
1777F
  8
KI1
 10
225.24705626486309
 20
330.60574148705678
 30
-0.0000000000000014
 11
224.84705625308001
 21
330.60574148705678
 31
-0.0000000000000014
  0
ARC
  5
17780
  8
KI1
 10
225.24705626486309
 20
330.90574148705701
 30
-0.0000000000000014
 40
0.3
 50
270.0
 51
0.0
  0
LINE
  5
17781
  8
KI1
 10
223.74706124311601
 20
333.10573902738793
 30
-0.0000000000000014
 11
223.04704870911101
 21
333.10573902738793
 31
-0.0000000000000014
  0
LINE
  5
17782
  8
KI1
 10
224.04706124311619
 20
332.80573902738729
 30
-0.0000000000000014
 11
224.04706124311619
 21
331.60574400564218
 31
-0.0000000000000014
  0
ARC
  5
17783
  8
KI1
 10
223.74706124311601
 20
332.80573902738729
 30
-0.0000000000000014
 40
0.3
 50
0.0
 51
90.0
  0
LINE
  5
17784
  8
KI1
 10
226.7133085999279
 20
330.1674446719137
 30
-0.0000000000000014
 11
226.43085337652059
 21
330.57294102618312
 31
-0.0000000000000014
  0
LINE
  5
17785
  8
KI1
 10
226.54706472642039
 20
330.97968075083207
 30
-0.0000000000000014
 11
226.54706472642039
 21
331.60574400564218
 31
-0.0000000000000014
  0
LINE
  5
17786
  8
KI1
 10
226.43085337652059
 20
330.57294102618312
 30
-0.0000000000000014
 11
226.54706472642039
 21
330.97968075083207
 31
-0.0000000000000014
  0
LINE
  5
17787
  8
KI1
 10
224.24705718245229
 20
331.60574400564218
 30
-0.0000000000000014
 11
225.64705720601779
 21
331.60574400564218
 31
-0.0000000000000014
  0
LINE
  5
17788
  8
KI1
 10
225.64705720601779
 20
331.60574400564218
 30
-0.0000000000000014
 11
225.64705720601779
 21
331.10573399021968
 31
-0.0000000000000014
  0
LINE
  5
17789
  8
KI1
 10
225.64705720601779
 20
331.10573399021968
 30
-0.0000000000000014
 11
225.5124930088167
 21
330.63472427549573
 31
-0.0000000000000014
  0
LINE
  5
1778A
  8
KI1
 10
224.24705718245229
 20
332.80573652058609
 30
-0.0000000000000014
 11
224.24705718245229
 21
331.60574400564218
 31
-0.0000000000000014
  0
ARC
  5
1778B
  8
KI1
 10
225.9932395394743
 20
330.49735811687492
 30
-0.0000000000000014
 40
0.4999999937576218
 50
164.0549926757796
 51
214.99198913572849
  0
LINE
  5
1778C
  8
KI1
 10
224.94705626486291
 20
331.60574400564218
 30
-0.0000000000000014
 11
224.04706124311619
 21
331.60574400564218
 31
-0.0000000000000014
  0
LINE
  5
1778D
  8
KI1
 10
225.54705626486279
 20
331.00574400564102
 30
-0.0000000000000014
 11
225.54705626486279
 21
330.90574148705701
 31
-0.0000000000000014
  0
ARC
  5
1778E
  8
KI1
 10
224.94705626486291
 20
331.00574400564102
 30
-0.0000000000000014
 40
0.6
 50
0.0
 51
90.0
  0
LINE
  5
1778F
  8
KI1
 10
223.04705365201551
 20
333.10573902738793
 30
-0.0000000000000014
 11
221.54705365201551
 21
331.84708958062203
 31
-0.0000000000000014
  0
LINE
  5
17790
  8
KI1
 10
223.04705365201551
 20
333.10573902738793
 30
-0.0000000000000014
 11
221.54705365201551
 21
331.84708958062203
 31
-0.0000000000000014
  0
LINE
  5
17791
  8
KI1
 10
226.54706472642039
 20
331.60574400564218
 30
-0.0000000000000014
 11
232.24705365201581
 21
331.60574400564218
 31
-0.0000000000000014
  0
LINE
  5
17792
  8
KI1
 10
233.1470536520159
 20
331.60574400564218
 30
-0.0000000000000014
 11
241.74705365201581
 21
331.60574400564218
 31
-0.0000000000000014
  0
LINE
  5
17793
  8
KI1
 10
258.74705365201578
 20
329.10574394672699
 30
-0.0000000000000014
 11
258.74705365201578
 21
331.05436656175812
 31
-0.0000000000000014
  0
LINE
  5
17794
  8
KI1
 10
257.54705365201551
 20
331.84708958062203
 30
-0.0000000000000014
 11
257.54705365201551
 21
329.30574394672681
 31
-0.0000000000000014
  0
LINE
  5
17795
  8
KI1
 10
250.047051050953
 20
330.60574148705678
 30
-0.0000000000000014
 11
250.047051050953
 21
329.30573646167181
 31
-0.0000000000000014
  0
LINE
  5
17796
  8
KI1
 10
249.310497011921
 20
330.21062990230189
 30
-0.0000000000000014
 11
249.0338033216843
 21
329.8153431949579
 31
-0.0000000000000014
  0
ARC
  5
17797
  8
KI1
 10
248.4269860393791
 20
329.99598214526048
 30
-0.0000000000000014
 40
0.3000000099360252
 50
145.14099121094441
 51
235.0079956054567
  0
LINE
  5
17798
  8
KI1
 10
253.34705365201569
 20
329.30574394672681
 30
-0.0000000000000014
 11
253.34705365201569
 21
331.84708958062203
 31
-0.0000000000000014
  0
LINE
  5
17799
  8
KI1
 10
260.44565793037822
 20
331.7865081499578
 30
-0.0000000000000014
 11
264.24705365201578
 21
328.55126617303608
 31
-0.0000000000000014
  0
LINE
  5
1779A
  8
KI1
 10
260.74707624857399
 20
333.10573902738793
 30
-0.0000000000000014
 11
265.4470536520156
 21
329.10574394672699
 31
-0.0000000000000014
  0
LINE
  5
1779B
  8
KI1
 10
260.74707624857399
 20
333.10573902738793
 30
-0.0000000000000014
 11
265.4470536520156
 21
329.10574394672699
 31
-0.0000000000000014
  0
LINE
  5
1779C
  8
KI1
 10
257.54705365201551
 20
329.30574394672681
 30
-0.0000000000000014
 11
255.44705365201699
 21
329.30574394672681
 31
-0.0000000000000014
  0
LINE
  5
1779D
  8
KI1
 10
257.74705365201578
 20
328.10574394672608
 30
-0.0000000000000014
 11
253.20089791120409
 21
328.10574394672608
 31
-0.0000000000000014
  0
LINE
  5
1779E
  8
KI1
 10
248.3374458597481
 20
329.6924596744268
 30
-0.0000000000000014
 11
248.2549456081841
 21
329.75019759193918
 31
-0.0000000000000014
  0
ARC
  5
1779F
  8
KI1
 10
248.6241740743211
 20
330.10208892178912
 30
-0.0000000000000014
 40
0.4999999937576218
 50
235.0079956054567
 51
325.00799560546392
  0
ARC
  5
177A0
  8
KI1
 10
250.19320939282699
 20
329.10574394672608
 30
-0.0000000000000014
 40
1.0
 50
270.0
 51
340.27915752803909
  0
ARC
  5
177A1
  8
KI1
 10
251.6970536520156
 20
328.85574394672608
 30
-0.0000000000000014
 40
0.5
 50
19.720842471960889
 51
160.27915752803909
  0
LINE
  5
177A2
  8
KI1
 10
251.13455725028879
 20
328.7683062321002
 30
-0.0000000000000014
 11
251.22637972328479
 21
329.02446280403899
 31
-0.0000000000000014
  0
ARC
  5
177A3
  8
KI1
 10
253.20089791120409
 20
329.10574394672608
 30
-0.0000000000000014
 40
1.0
 50
199.72084247196091
 51
270.0
  0
LINE
  5
177A4
  8
KI1
 10
252.2595500537424
 20
328.7683062321002
 30
-0.0000000000000014
 11
252.1677275807464
 21
329.02446280403899
 31
-0.0000000000000014
  0
LINE
  5
177A5
  8
KI1
 10
253.34705365201569
 20
329.30574394672681
 30
-0.0000000000000014
 11
255.44705365201699
 21
329.30574394672681
 31
-0.0000000000000014
  0
LINE
  5
177A6
  8
KI1
 10
265.4470536520156
 20
329.10574394672699
 30
-0.0000000000000014
 11
265.4470536520156
 21
328.10574394672608
 31
-0.0000000000000014
  0
LINE
  5
177A7
  8
KI1
 10
264.24705365201578
 20
328.55126617303608
 30
-0.0000000000000014
 11
264.24705365201578
 21
328.10574394672608
 31
-0.0000000000000014
  0
LINE
  5
177A8
  8
KI1
 10
265.4470536520156
 20
329.10574394672699
 30
-0.0000000000000014
 11
265.4470536520156
 21
328.60574394672699
 31
-0.0000000000000014
  0
LINE
  5
177A9
  8
KI1
 10
265.4470536520156
 20
328.10574394672608
 30
-0.0000000000000014
 11
264.24705365201578
 21
328.10574394672608
 31
-0.0000000000000014
  0
ARC
  5
177AA
  8
KI1
 10
257.74705365201578
 20
329.10574394672699
 30
-0.0000000000000014
 40
1.0
 50
270.0
 51
0.0
  0
LINE
  5
177AB
  8
KI1
 10
249.24706761027329
 20
331.60574400564218
 30
-0.0000000000000014
 11
250.64705012157981
 21
331.60574400564218
 31
-0.0000000000000014
  0
LINE
  5
177AC
  8
KI1
 10
249.9470510391692
 20
331.60574400564218
 30
-0.0000000000000014
 11
250.84704606091589
 21
331.60574400564218
 31
-0.0000000000000014
  0
LINE
  5
177AD
  8
KI1
 10
249.64705103916901
 20
330.60574148705678
 30
-0.0000000000000014
 11
250.047051050953
 21
330.60574148705678
 31
-0.0000000000000014
  0
ARC
  5
177AE
  8
KI1
 10
249.64705103916901
 20
330.90574148705701
 30
-0.0000000000000014
 40
0.3
 50
180.0
 51
270.0
  0
LINE
  5
177AF
  8
KI1
 10
249.24706761027329
 20
331.10573399021968
 30
-0.0000000000000014
 11
249.38164931973401
 21
330.63472427549573
 31
-0.0000000000000014
  0
LINE
  5
177B0
  8
KI1
 10
249.24706761027329
 20
331.60574400564218
 30
-0.0000000000000014
 11
249.24706761027329
 21
331.10573399021968
 31
-0.0000000000000014
  0
LINE
  5
177B1
  8
KI1
 10
248.180833728621
 20
330.1674446719137
 30
-0.0000000000000014
 11
248.46327143976879
 21
330.57294102618312
 31
-0.0000000000000014
  0
LINE
  5
177B2
  8
KI1
 10
248.34706008986981
 20
330.97968075083207
 30
-0.0000000000000014
 11
248.34706008986981
 21
331.60574400564218
 31
-0.0000000000000014
  0
LINE
  5
177B3
  8
KI1
 10
248.46327143976879
 20
330.57294102618312
 30
-0.0000000000000014
 11
248.34706008986981
 21
330.97968075083207
 31
-0.0000000000000014
  0
ARC
  5
177B4
  8
KI1
 10
248.90086776455729
 20
330.49735811687492
 30
-0.0000000000000014
 40
0.4999999937576218
 50
325.00799560546392
 51
15.94499206543477
  0
LINE
  5
177B5
  8
KI1
 10
249.3470510391702
 20
331.00574400564102
 30
-0.0000000000000014
 11
249.3470510391702
 21
330.90574148705701
 31
-0.0000000000000014
  0
ARC
  5
177B6
  8
KI1
 10
249.9470510391692
 20
331.00574400564102
 30
-0.0000000000000014
 40
0.6
 50
90.0
 51
180.0
  0
LINE
  5
177B7
  8
KI1
 10
251.84705365201569
 20
333.10573902738793
 30
-0.0000000000000014
 11
253.34705365201569
 21
331.84708958062203
 31
-0.0000000000000014
  0
LINE
  5
177B8
  8
KI1
 10
251.84705365201569
 20
333.10573902738793
 30
-0.0000000000000014
 11
253.34705365201569
 21
331.84708958062203
 31
-0.0000000000000014
  0
LINE
  5
177B9
  8
KI1
 10
250.84704606091589
 20
332.80573902738729
 30
-0.0000000000000014
 11
250.84704606091589
 21
331.60574400564218
 31
-0.0000000000000014
  0
LINE
  5
177BA
  8
KI1
 10
251.1470460609161
 20
333.10573902738793
 30
-0.0000000000000014
 11
251.84705859492109
 21
333.10573902738793
 31
-0.0000000000000014
  0
ARC
  5
177BB
  8
KI1
 10
251.1470460609161
 20
332.80573902738729
 30
-0.0000000000000014
 40
0.3
 50
90.0
 51
180.0
  0
LINE
  5
177BC
  8
KI1
 10
250.64705012157981
 20
331.60574400564218
 30
-0.0000000000000014
 11
250.64705012157981
 21
332.80573652058609
 31
-0.0000000000000014
  0
LINE
  5
177BD
  8
KI1
 10
251.1470460609161
 20
333.10573902738793
 30
-0.0000000000000014
 11
251.84705859492109
 21
333.10573902738793
 31
-0.0000000000000014
  0
LINE
  5
177BE
  8
KI1
 10
259.04705365201551
 20
333.10573902738793
 30
-0.0000000000000014
 11
257.54705365201551
 21
331.84708958062203
 31
-0.0000000000000014
  0
ARC
  5
177BF
  8
KI1
 10
259.24705365201578
 20
331.05436656175812
 30
-0.0000000000000014
 40
0.5
 50
129.9999999999863
 51
180.0
  0
LINE
  5
177C0
  8
KI1
 10
259.34440924542503
 20
331.78876124894742
 30
-0.0000000000000014
 11
258.92565984717328
 21
331.43738878331692
 31
-0.0000000000000014
  0
ARC
  5
177C1
  8
KI1
 10
259.66580305026889
 20
331.40573902738771
 30
-0.0000000000000014
 40
0.5
 50
90.0
 51
129.9999999999863
  0
LINE
  5
177C2
  8
KI1
 10
260.12159794318802
 20
331.9057390273872
 30
-0.0000000000000014
 11
259.66580305026889
 21
331.9057390273872
 31
-0.0000000000000014
  0
ARC
  5
177C3
  8
KI1
 10
260.12159794318802
 20
331.40573902738771
 30
-0.0000000000000014
 40
0.5
 50
49.599994483982577
 51
90.0
  0
LINE
  5
177C4
  8
KI1
 10
259.04704870911098
 20
333.10573902738793
 30
-0.0000000000000014
 11
260.74707624857399
 21
333.10573902738793
 31
-0.0000000000000014
  0
LINE
  5
177C5
  8
KI1
 10
259.04704870911098
 20
333.10573902738793
 30
-0.0000000000000014
 11
260.74707624857399
 21
333.10573902738793
 31
-0.0000000000000014
  0
LINE
  5
177C6
  8
KI1
 10
259.04705365201551
 20
333.10573902738793
 30
-0.0000000000000014
 11
257.54705365201551
 21
331.84708958062203
 31
-0.0000000000000014
  0
LINE
  5
177CA
  8
KI1
 10
233.6970460854092
 20
662.40574394563089
 30
-0.0000000000000014
 11
224.9470460854092
 21
662.40574394563089
 31
-0.0000000000000014
  0
ARC
  5
177CB
  8
KI1
 10
231.54704608540911
 20
637.10574394563082
 30
-0.0000000000000014
 40
0.5
 50
270.0
 51
0.0
  0
LINE
  5
177CC
  8
KI1
 10
233.54704608540911
 20
640.10574394563082
 30
-0.0000000000000014
 11
232.04704608540911
 21
640.10574394563082
 31
-0.0000000000000014
  0
LINE
  5
177CD
  8
KI1
 10
231.3970460854091
 20
641.25574394563091
 30
-0.0000000000000014
 11
233.54704608540911
 21
641.25574394563091
 31
-0.0000000000000014
  0
LINE
  5
177CE
  8
KI1
 10
205.1970460854092
 20
662.40574394563089
 30
-0.0000000000000014
 11
213.94704608540911
 21
662.40574394563089
 31
-0.0000000000000014
  0
LINE
  5
177CF
  8
KI1
 10
207.4970460854091
 20
641.25574394563091
 30
-0.0000000000000014
 11
205.3470460854092
 21
641.25574394563091
 31
-0.0000000000000014
  0
LINE
  5
177D0
  8
KI1
 10
205.3470460854092
 20
640.10574394563082
 30
-0.0000000000000014
 11
206.84704608540909
 21
640.10574394563082
 31
-0.0000000000000014
  0
LINE
  5
177D1
  8
KI1
 10
205.8470460854092
 20
661.25574394563091
 30
-0.0000000000000014
 11
233.04704608540911
 21
661.25574394563091
 31
-0.0000000000000014
  0
ARC
  5
177D2
  8
KI1
 10
204.6970460854092
 20
663.60574394563082
 30
-0.0000000000000014
 40
0.5
 50
0.0
 51
180.0
  0
ARC
  5
177D3
  8
KI1
 10
204.7720460854091
 20
638.33574394563084
 30
-0.0000000000000014
 40
0.575000000000003
 50
180.0
 51
0.0
  0
LINE
  5
177D4
  8
KI1
 10
204.1970460854092
 20
638.33574394563084
 30
-0.0000000000000014
 11
204.1970460854092
 21
663.60574394563082
 31
-0.0000000000000014
  0
LINE
  5
177D5
  8
KI1
 10
205.1970460854092
 20
663.60574394563082
 30
-0.0000000000000014
 11
205.1970460854092
 21
662.40574394563089
 31
-0.0000000000000014
  0
LINE
  5
177D6
  8
KI1
 10
205.3470460854092
 20
641.25574394563091
 30
-0.0000000000000014
 11
205.3470460854092
 21
660.75574394563091
 31
-0.0000000000000014
  0
LINE
  5
177D7
  8
KI1
 10
205.3470460854092
 20
638.33574394563084
 30
-0.0000000000000014
 11
205.3470460854092
 21
640.10574394563082
 31
-0.0000000000000014
  0
ARC
  5
177D8
  8
KI1
 10
205.8470460854092
 20
660.75574394563091
 30
-0.0000000000000014
 40
0.4999999999999999
 50
90.0
 51
180.0
  0
LINE
  5
177D9
  8
KI1
 10
214.9470460854092
 20
662.40574394563089
 30
-0.0000000000000014
 11
223.94704608540911
 21
662.40574394563089
 31
-0.0000000000000014
  0
ARC
  5
177DA
  8
KI1
 10
212.3720460854091
 20
645.78074394563089
 30
-0.0000000000000014
 40
0.5749999999999959
 50
0.0
 51
180.0
  0
LINE
  5
177DB
  8
KI1
 10
212.64704608540919
 20
636.60574394563082
 30
-0.0000000000000014
 11
207.3470460854092
 21
636.60574394563082
 31
-0.0000000000000014
  0
LINE
  5
177DC
  8
KI1
 10
211.4970460854091
 20
637.75574394563091
 30
-0.0000000000000014
 11
207.9970460854091
 21
637.75574394563091
 31
-0.0000000000000014
  0
ARC
  5
177DD
  8
KI1
 10
207.4970460854091
 20
640.75574394563091
 30
-0.0000000000000014
 40
0.5
 50
0.0
 51
90.0
  0
ARC
  5
177DE
  8
KI1
 10
207.3470460854092
 20
637.10574394563082
 30
-0.0000000000000014
 40
0.5
 50
180.0
 51
270.0
  0
LINE
  5
177DF
  8
KI1
 10
206.84704608540909
 20
637.10574394563082
 30
-0.0000000000000014
 11
206.84704608540909
 21
640.10574394563082
 31
-0.0000000000000014
  0
LINE
  5
177E0
  8
KI1
 10
207.9970460854091
 20
640.75574394563091
 30
-0.0000000000000014
 11
207.9970460854091
 21
637.75574394563091
 31
-0.0000000000000014
  0
LINE
  5
177E1
  8
KI1
 10
211.79704608540911
 20
638.05574394563087
 30
-0.0000000000000014
 11
211.79704608540911
 21
645.78074394563089
 31
-0.0000000000000014
  0
ARC
  5
177E2
  8
KI1
 10
211.4970460854091
 20
638.05574394563087
 30
-0.0000000000000014
 40
0.2999999999999999
 50
270.0
 51
0.0
  0
LINE
  5
177E3
  8
KI1
 10
214.6983102247581
 20
643.90574394563066
 30
-0.0000000000000014
 11
213.14704608540919
 21
643.90574394563066
 31
-0.0000000000000014
  0
LINE
  5
177E4
  8
KI1
 10
214.89704608540919
 20
637.60574394563082
 30
-0.0000000000000014
 11
212.9470460854092
 21
637.60574394563082
 31
-0.0000000000000014
  0
LINE
  5
177E5
  8
KI1
 10
214.89831022475809
 20
645.05574394563064
 30
-0.0000000000000014
 11
212.9470460854092
 21
645.05574394563064
 31
-0.0000000000000014
  0
LINE
  5
177E6
  8
KI1
 10
214.04704608540911
 20
639.30574394563064
 30
-0.0000000000000014
 11
214.6970460854092
 21
640.30574394563064
 31
-0.0000000000000014
  0
ARC
  5
177E7
  8
KI1
 10
214.4470460854092
 20
663.60574394563082
 30
-0.0000000000000014
 40
0.5
 50
0.0
 51
180.0
  0
LINE
  5
177E8
  8
KI1
 10
212.9470460854092
 20
642.40574394563077
 30
-0.0000000000000014
 11
213.14704608540919
 21
643.90574394563066
 31
-0.0000000000000014
  0
LINE
  5
177E9
  8
KI1
 10
212.9470460854092
 20
638.90574394563066
 30
-0.0000000000000014
 11
212.9470460854092
 21
642.40574394563077
 31
-0.0000000000000014
  0
LINE
  5
177EA
  8
KI1
 10
214.04704608540911
 20
638.90574394563066
 30
-0.0000000000000014
 11
212.9470460854092
 21
638.90574394563066
 31
-0.0000000000000014
  0
LINE
  5
177EB
  8
KI1
 10
214.04704608540911
 20
638.90574394563066
 30
-0.0000000000000014
 11
214.04704608540911
 21
639.30574394563064
 31
-0.0000000000000014
  0
LINE
  5
177EC
  8
KI1
 10
212.9470460854092
 20
645.78074394563089
 30
-0.0000000000000014
 11
212.9470460854092
 21
645.05574394563064
 31
-0.0000000000000014
  0
LINE
  5
177ED
  8
KI1
 10
213.94704608540911
 20
663.60574394563082
 30
-0.0000000000000014
 11
213.94704608540911
 21
662.40574394563089
 31
-0.0000000000000014
  0
ARC
  5
177EE
  8
KI1
 10
212.64704608540919
 20
636.90574394563089
 30
-0.0000000000000014
 40
0.2999999999999999
 50
270.0
 51
0.0
  0
LINE
  5
177EF
  8
KI1
 10
212.9470460854092
 20
636.90574394563089
 30
-0.0000000000000014
 11
212.9470460854092
 21
637.60574394563082
 31
-0.0000000000000014
  0
ARC
  5
177F0
  8
KI1
 10
214.89704608540919
 20
637.90574394563077
 30
-0.0000000000000014
 40
0.2999999999999999
 50
270.0
 51
0.0
  0
ARC
  5
177F1
  8
KI1
 10
214.89831022475809
 20
644.75574394563057
 30
-0.0000000000000014
 40
0.2999999999999999
 50
0.0
 51
90.0
  0
LINE
  5
177F2
  8
KI1
 10
215.1983102247581
 20
644.75574394563057
 30
-0.0000000000000014
 11
215.1983102247581
 21
644.40574394563066
 31
-0.0000000000000014
  0
LINE
  5
177F3
  8
KI1
 10
215.1970460854092
 20
640.00574394563068
 30
-0.0000000000000014
 11
215.1970460854092
 21
637.90574394563077
 31
-0.0000000000000014
  0
ARC
  5
177F4
  8
KI1
 10
214.89704608540919
 20
640.00574394563068
 30
-0.0000000000000014
 40
0.2999999999999999
 50
0.0
 51
90.0
  0
LINE
  5
177F5
  8
KI1
 10
214.89704608540919
 20
640.30574394563064
 30
-0.0000000000000014
 11
214.6970460854092
 21
640.30574394563064
 31
-0.0000000000000014
  0
ARC
  5
177F6
  8
KI1
 10
214.6983102247581
 20
644.40574394563066
 30
-0.0000000000000014
 40
0.5
 50
270.0
 51
0.0
  0
LINE
  5
177F7
  8
KI1
 10
214.9470460854092
 20
663.60574394563082
 30
-0.0000000000000014
 11
214.9470460854092
 21
662.40574394563089
 31
-0.0000000000000014
  0
LINE
  5
177F8
  8
KI1
 10
224.1983102247581
 20
643.90574394563066
 30
-0.0000000000000014
 11
225.7470460854091
 21
643.90574394563066
 31
-0.0000000000000014
  0
LINE
  5
177F9
  8
KI1
 10
223.9970460854091
 20
637.60574394563082
 30
-0.0000000000000014
 11
225.9470460854092
 21
637.60574394563082
 31
-0.0000000000000014
  0
LINE
  5
177FA
  8
KI1
 10
224.84704608540909
 20
638.90574394563066
 30
-0.0000000000000014
 11
225.9470460854092
 21
638.90574394563066
 31
-0.0000000000000014
  0
LINE
  5
177FB
  8
KI1
 10
223.998310224758
 20
645.05574394563064
 30
-0.0000000000000014
 11
225.9470460854092
 21
645.05574394563064
 31
-0.0000000000000014
  0
ARC
  5
177FC
  8
KI1
 10
224.1983102247581
 20
644.40574394563066
 30
-0.0000000000000014
 40
0.5
 50
180.0
 51
270.0
  0
LINE
  5
177FD
  8
KI1
 10
223.9970460854091
 20
640.30574394563064
 30
-0.0000000000000014
 11
224.1970460854092
 21
640.30574394563064
 31
-0.0000000000000014
  0
ARC
  5
177FE
  8
KI1
 10
224.4470460854092
 20
663.60574394563082
 30
-0.0000000000000014
 40
0.5
 50
0.0
 51
180.0
  0
ARC
  5
177FF
  8
KI1
 10
223.9970460854091
 20
637.90574394563077
 30
-0.0000000000000014
 40
0.2999999999999999
 50
180.0
 51
270.0
  0
ARC
  5
17800
  8
KI1
 10
223.998310224758
 20
644.75574394563057
 30
-0.0000000000000014
 40
0.2999999999999999
 50
90.0
 51
180.0
  0
LINE
  5
17801
  8
KI1
 10
223.6983102247581
 20
644.75574394563057
 30
-0.0000000000000014
 11
223.6983102247581
 21
644.40574394563066
 31
-0.0000000000000014
  0
LINE
  5
17802
  8
KI1
 10
223.6970460854092
 20
640.00574394563068
 30
-0.0000000000000014
 11
223.6970460854092
 21
637.90574394563077
 31
-0.0000000000000014
  0
ARC
  5
17803
  8
KI1
 10
223.9970460854091
 20
640.00574394563068
 30
-0.0000000000000014
 40
0.2999999999999999
 50
90.0
 51
180.0
  0
LINE
  5
17804
  8
KI1
 10
223.9470460854092
 20
663.60574394563082
 30
-0.0000000000000014
 11
223.9470460854092
 21
662.40574394563089
 31
-0.0000000000000014
  0
LINE
  5
17805
  8
KI1
 10
224.84704608540909
 20
638.90574394563066
 30
-0.0000000000000014
 11
224.84704608540909
 21
639.30574394563064
 31
-0.0000000000000014
  0
LINE
  5
17806
  8
KI1
 10
224.84704608540909
 20
639.30574394563064
 30
-0.0000000000000014
 11
224.1970460854092
 21
640.30574394563064
 31
-0.0000000000000014
  0
LINE
  5
17807
  8
KI1
 10
224.9470460854092
 20
663.60574394563082
 30
-0.0000000000000014
 11
224.9470460854092
 21
662.40574394563089
 31
-0.0000000000000014
  0
LINE
  5
17808
  8
KI1
 10
226.2470460854091
 20
636.60574394563082
 30
-0.0000000000000014
 11
231.54704608540911
 21
636.60574394563082
 31
-0.0000000000000014
  0
LINE
  5
17809
  8
KI1
 10
227.3970460854091
 20
637.75574394563091
 30
-0.0000000000000014
 11
230.8970460854091
 21
637.75574394563091
 31
-0.0000000000000014
  0
ARC
  5
1780A
  8
KI1
 10
227.3970460854091
 20
638.05574394563087
 30
-0.0000000000000014
 40
0.2999999999999999
 50
180.0
 51
270.0
  0
LINE
  5
1780B
  8
KI1
 10
225.7470460854091
 20
643.90574394563066
 30
-0.0000000000000014
 11
225.9470460854092
 21
642.40574394563077
 31
-0.0000000000000014
  0
LINE
  5
1780C
  8
KI1
 10
225.9470460854092
 20
638.90574394563066
 30
-0.0000000000000014
 11
225.9470460854092
 21
642.40574394563077
 31
-0.0000000000000014
  0
LINE
  5
1780D
  8
KI1
 10
227.09704608540909
 20
638.05574394563087
 30
-0.0000000000000014
 11
227.09704608540909
 21
645.78074394563089
 31
-0.0000000000000014
  0
LINE
  5
1780E
  8
KI1
 10
225.9470460854092
 20
645.78074394563089
 30
-0.0000000000000014
 11
225.9470460854092
 21
645.05574394563064
 31
-0.0000000000000014
  0
ARC
  5
1780F
  8
KI1
 10
226.5220460854091
 20
645.78074394563089
 30
-0.0000000000000014
 40
0.5749999999999959
 50
0.0
 51
180.0
  0
LINE
  5
17810
  8
KI1
 10
225.9470460854092
 20
636.90574394563089
 30
-0.0000000000000014
 11
225.9470460854092
 21
637.60574394563082
 31
-0.0000000000000014
  0
ARC
  5
17811
  8
KI1
 10
226.2470460854091
 20
636.90574394563089
 30
-0.0000000000000014
 40
0.2999999999999999
 50
180.0
 51
270.0
  0
LINE
  5
17812
  8
KI1
 10
232.04704608540911
 20
637.10574394563082
 30
-0.0000000000000014
 11
232.04704608540911
 21
640.10574394563082
 31
-0.0000000000000014
  0
ARC
  5
17813
  8
KI1
 10
234.1970460854092
 20
663.60574394563082
 30
-0.0000000000000014
 40
0.5
 50
0.0
 51
180.0
  0
ARC
  5
17814
  8
KI1
 10
234.1220460854091
 20
638.33574394563084
 30
-0.0000000000000014
 40
0.575000000000003
 50
180.0
 51
0.0
  0
LINE
  5
17815
  8
KI1
 10
233.6970460854092
 20
663.60574394563082
 30
-0.0000000000000014
 11
233.6970460854092
 21
662.40574394563089
 31
-0.0000000000000014
  0
LINE
  5
17816
  8
KI1
 10
233.54704608540911
 20
641.25574394563091
 30
-0.0000000000000014
 11
233.54704608540911
 21
660.75574394563091
 31
-0.0000000000000014
  0
LINE
  5
17817
  8
KI1
 10
233.54704608540911
 20
638.33574394563084
 30
-0.0000000000000014
 11
233.54704608540911
 21
640.10574394563082
 31
-0.0000000000000014
  0
ARC
  5
17818
  8
KI1
 10
233.04704608540911
 20
660.75574394563091
 30
-0.0000000000000014
 40
0.4999999999999999
 50
0.0
 51
90.0
  0
LINE
  5
17819
  8
KI1
 10
234.69704608540911
 20
638.33574394563084
 30
-0.0000000000000014
 11
234.69704608540911
 21
663.60574394563082
 31
-0.0000000000000014
  0
ARC
  5
1781A
  8
KI1
 10
231.39704608540919
 20
640.75574394563091
 30
-0.0000000000000014
 40
0.5
 50
90.0
 51
180.0
  0
LINE
  5
1781B
  8
KI1
 10
230.89704608540919
 20
640.75574394563091
 30
-0.0000000000000014
 11
230.89704608540919
 21
637.75574394563091
 31
-0.0000000000000014
  0
LINE
  5
1781C
  8
KI1
 10
191.3970460854091
 20
637.75574394563091
 30
-0.0000000000000014
 11
197.54704608540899
 21
637.75574394563091
 31
-0.0000000000000014
  0
LINE
  5
1781D
  8
KI1
 10
190.2470460854091
 20
636.60574394563082
 30
-0.0000000000000014
 11
206.62704608540909
 21
636.60574394563082
 31
-0.0000000000000014
  0
LINE
  5
1781E
  8
KI1
 10
197.69704608540911
 20
662.40574394563089
 30
-0.0000000000000014
 11
188.94704608540911
 21
662.40574394563089
 31
-0.0000000000000014
  0
LINE
  5
1781F
  8
KI1
 10
197.04704608540911
 20
661.25574394563091
 30
-0.0000000000000014
 11
169.84704608540909
 21
661.25574394563091
 31
-0.0000000000000014
  0
LINE
  5
17820
  8
KI1
 10
198.69704608540911
 20
637.75574394563091
 30
-0.0000000000000014
 11
205.42704608540919
 21
637.75574394563091
 31
-0.0000000000000014
  0
ARC
  5
17821
  8
KI1
 10
206.0270460854091
 20
639.00574394563091
 30
-0.0000000000000014
 40
0.5999999999999996
 50
0.0
 51
180.0
  0
LINE
  5
17822
  8
KI1
 10
206.62704608540909
 20
639.00574394563091
 30
-0.0000000000000014
 11
206.62704608540909
 21
636.60574394563082
 31
-0.0000000000000014
  0
LINE
  5
17823
  8
KI1
 10
205.42704608540919
 20
639.00574394563091
 30
-0.0000000000000014
 11
205.42704608540919
 21
637.75574394563091
 31
-0.0000000000000014
  0
ARC
  5
17824
  8
KI1
 10
198.1970460854092
 20
663.60574394563082
 30
-0.0000000000000014
 40
0.5
 50
0.0
 51
180.0
  0
LINE
  5
17825
  8
KI1
 10
198.69704608540911
 20
637.75574394563091
 30
-0.0000000000000014
 11
198.69704608540911
 21
663.60574394563082
 31
-0.0000000000000014
  0
LINE
  5
17826
  8
KI1
 10
197.69704608540911
 20
663.60574394563082
 30
-0.0000000000000014
 11
197.69704608540911
 21
662.40574394563089
 31
-0.0000000000000014
  0
LINE
  5
17827
  8
KI1
 10
197.54704608540899
 20
637.75574394563091
 30
-0.0000000000000014
 11
197.54704608540899
 21
660.75574394563091
 31
-0.0000000000000014
  0
ARC
  5
17828
  8
KI1
 10
197.04704608540911
 20
660.75574394563091
 30
-0.0000000000000014
 40
0.4999999999999999
 50
0.0
 51
90.0
  0
LINE
  5
17829
  8
KI1
 10
163.8970460854091
 20
636.60574394563082
 30
-0.0000000000000014
 11
176.6470460854091
 21
636.60574394563082
 31
-0.0000000000000014
  0
LINE
  5
1782A
  8
KI1
 10
163.09704608540909
 20
637.60574394563082
 30
-0.0000000000000014
 11
168.19704608540911
 21
637.60574394563082
 31
-0.0000000000000014
  0
LINE
  5
1782B
  8
KI1
 10
178.8970460854091
 20
637.60574394563082
 30
-0.0000000000000014
 11
176.94704608540911
 21
637.60574394563082
 31
-0.0000000000000014
  0
LINE
  5
1782C
  8
KI1
 10
178.8957819460602
 20
645.05574394563075
 30
-0.0000000000000014
 11
176.94704608540911
 21
645.05574394563075
 31
-0.0000000000000014
  0
ARC
  5
1782D
  8
KI1
 10
178.69578194606021
 20
644.40574394563066
 30
-0.0000000000000014
 40
0.5
 50
270.0
 51
0.0
  0
LINE
  5
1782E
  8
KI1
 10
178.8970460854091
 20
640.30574394563064
 30
-0.0000000000000014
 11
178.69704608540911
 21
640.30574394563064
 31
-0.0000000000000014
  0
ARC
  5
1782F
  8
KI1
 10
178.44704608540911
 20
663.60574394563082
 30
-0.0000000000000014
 40
0.5
 50
0.0
 51
180.0
  0
LINE
  5
17830
  8
KI1
 10
188.19578194606021
 20
643.90574394563066
 30
-0.0000000000000014
 11
189.7470460854091
 21
643.90574394563066
 31
-0.0000000000000014
  0
LINE
  5
17831
  8
KI1
 10
187.9970460854091
 20
637.60574394563082
 30
-0.0000000000000014
 11
189.94704608540911
 21
637.60574394563082
 31
-0.0000000000000014
  0
LINE
  5
17832
  8
KI1
 10
187.99578194606019
 20
645.05574394563075
 30
-0.0000000000000014
 11
189.94704608540911
 21
645.05574394563075
 31
-0.0000000000000014
  0
LINE
  5
17833
  8
KI1
 10
188.84704608540909
 20
639.30574394563075
 30
-0.0000000000000014
 11
188.19704608540911
 21
640.30574394563064
 31
-0.0000000000000014
  0
ARC
  5
17834
  8
KI1
 10
188.44704608540911
 20
663.60574394563082
 30
-0.0000000000000014
 40
0.5
 50
0.0
 51
180.0
  0
LINE
  5
17835
  8
KI1
 10
188.94704608540911
 20
663.60574394563082
 30
-0.0000000000000014
 11
188.94704608540911
 21
662.40574394563089
 31
-0.0000000000000014
  0
ARC
  5
17836
  8
KI1
 10
190.5220460854091
 20
645.78074394563089
 30
-0.0000000000000014
 40
0.5749999999999959
 50
0.0
 51
180.0
  0
ARC
  5
17837
  8
KI1
 10
190.2470460854091
 20
636.90574394563089
 30
-0.0000000000000014
 40
0.2999999999999999
 50
180.0
 51
270.0
  0
LINE
  5
17838
  8
KI1
 10
191.09704608540909
 20
638.05574394563087
 30
-0.0000000000000014
 11
191.09704608540909
 21
645.78074394563089
 31
-0.0000000000000014
  0
ARC
  5
17839
  8
KI1
 10
191.3970460854091
 20
638.05574394563087
 30
-0.0000000000000014
 40
0.2999999999999999
 50
180.0
 51
270.0
  0
LINE
  5
1783A
  8
KI1
 10
189.7470460854091
 20
643.90574394563066
 30
-0.0000000000000014
 11
189.94704608540911
 21
642.40574394563077
 31
-0.0000000000000014
  0
LINE
  5
1783B
  8
KI1
 10
189.94704608540911
 20
638.90574394563066
 30
-0.0000000000000014
 11
189.94704608540911
 21
642.40574394563077
 31
-0.0000000000000014
  0
LINE
  5
1783C
  8
KI1
 10
188.84704608540909
 20
638.90574394563066
 30
-0.0000000000000014
 11
189.94704608540911
 21
638.90574394563066
 31
-0.0000000000000014
  0
LINE
  5
1783D
  8
KI1
 10
188.84704608540909
 20
638.90574394563066
 30
-0.0000000000000014
 11
188.84704608540909
 21
639.30574394563075
 31
-0.0000000000000014
  0
LINE
  5
1783E
  8
KI1
 10
189.94704608540911
 20
645.78074394563089
 30
-0.0000000000000014
 11
189.94704608540911
 21
645.05574394563075
 31
-0.0000000000000014
  0
LINE
  5
1783F
  8
KI1
 10
189.94704608540911
 20
636.90574394563089
 30
-0.0000000000000014
 11
189.94704608540911
 21
637.60574394563082
 31
-0.0000000000000014
  0
LINE
  5
17840
  8
KI1
 10
187.9470460854092
 20
663.60574394563082
 30
-0.0000000000000014
 11
187.9470460854092
 21
662.40574394563089
 31
-0.0000000000000014
  0
ARC
  5
17841
  8
KI1
 10
187.9970460854091
 20
637.90574394563077
 30
-0.0000000000000014
 40
0.2999999999999999
 50
180.0
 51
270.0
  0
ARC
  5
17842
  8
KI1
 10
187.99578194606019
 20
644.75574394563057
 30
-0.0000000000000014
 40
0.2999999999999999
 50
90.0
 51
180.0
  0
LINE
  5
17843
  8
KI1
 10
187.69578194606029
 20
644.75574394563057
 30
-0.0000000000000014
 11
187.69578194606029
 21
644.40574394563066
 31
-0.0000000000000014
  0
LINE
  5
17844
  8
KI1
 10
187.69704608540911
 20
640.00574394563068
 30
-0.0000000000000014
 11
187.69704608540911
 21
637.90574394563077
 31
-0.0000000000000014
  0
ARC
  5
17845
  8
KI1
 10
187.9970460854091
 20
640.00574394563068
 30
-0.0000000000000014
 40
0.2999999999999999
 50
90.0
 51
180.0
  0
LINE
  5
17846
  8
KI1
 10
187.9970460854091
 20
640.30574394563064
 30
-0.0000000000000014
 11
188.19704608540911
 21
640.30574394563064
 31
-0.0000000000000014
  0
ARC
  5
17847
  8
KI1
 10
188.19578194606021
 20
644.40574394563066
 30
-0.0000000000000014
 40
0.5
 50
180.0
 51
270.0
  0
LINE
  5
17848
  8
KI1
 10
178.94704608540911
 20
662.40574394563089
 30
-0.0000000000000014
 11
187.9470460854092
 21
662.40574394563089
 31
-0.0000000000000014
  0
LINE
  5
17849
  8
KI1
 10
178.94704608540911
 20
663.60574394563082
 30
-0.0000000000000014
 11
178.94704608540911
 21
662.40574394563089
 31
-0.0000000000000014
  0
ARC
  5
1784A
  8
KI1
 10
178.8970460854091
 20
637.90574394563077
 30
-0.0000000000000014
 40
0.2999999999999999
 50
270.0
 51
0.0
  0
ARC
  5
1784B
  8
KI1
 10
178.8957819460602
 20
644.75574394563057
 30
-0.0000000000000014
 40
0.2999999999999999
 50
0.0
 51
90.0
  0
LINE
  5
1784C
  8
KI1
 10
179.19578194606021
 20
644.75574394563057
 30
-0.0000000000000014
 11
179.19578194606021
 21
644.40574394563066
 31
-0.0000000000000014
  0
LINE
  5
1784D
  8
KI1
 10
179.1970460854092
 20
640.00574394563068
 30
-0.0000000000000014
 11
179.1970460854092
 21
637.90574394563077
 31
-0.0000000000000014
  0
ARC
  5
1784E
  8
KI1
 10
178.8970460854091
 20
640.00574394563068
 30
-0.0000000000000014
 40
0.2999999999999999
 50
0.0
 51
90.0
  0
LINE
  5
1784F
  8
KI1
 10
175.4970460854091
 20
637.75574394563091
 30
-0.0000000000000014
 11
169.34704608540909
 21
637.75574394563091
 31
-0.0000000000000014
  0
LINE
  5
17850
  8
KI1
 10
169.1970460854092
 20
662.40574394563089
 30
-0.0000000000000014
 11
177.94704608540911
 21
662.40574394563089
 31
-0.0000000000000014
  0
ARC
  5
17851
  8
KI1
 10
175.4970460854091
 20
638.05574394563087
 30
-0.0000000000000014
 40
0.2999999999999999
 50
270.0
 51
0.0
  0
LINE
  5
17852
  8
KI1
 10
177.94704608540911
 20
663.60574394563082
 30
-0.0000000000000014
 11
177.94704608540911
 21
662.40574394563089
 31
-0.0000000000000014
  0
LINE
  5
17853
  8
KI1
 10
178.69578194606021
 20
643.90574394563066
 30
-0.0000000000000014
 11
177.1470460854091
 21
643.90574394563066
 31
-0.0000000000000014
  0
LINE
  5
17854
  8
KI1
 10
178.04704608540911
 20
638.90574394563066
 30
-0.0000000000000014
 11
176.94704608540911
 21
638.90574394563066
 31
-0.0000000000000014
  0
LINE
  5
17855
  8
KI1
 10
178.04704608540911
 20
638.90574394563066
 30
-0.0000000000000014
 11
178.04704608540911
 21
639.30574394563075
 31
-0.0000000000000014
  0
LINE
  5
17856
  8
KI1
 10
178.04704608540911
 20
639.30574394563075
 30
-0.0000000000000014
 11
178.69704608540911
 21
640.30574394563064
 31
-0.0000000000000014
  0
LINE
  5
17857
  8
KI1
 10
177.1470460854091
 20
643.90574394563066
 30
-0.0000000000000014
 11
176.94704608540911
 21
642.40574394563077
 31
-0.0000000000000014
  0
LINE
  5
17858
  8
KI1
 10
176.94704608540911
 20
638.90574394563066
 30
-0.0000000000000014
 11
176.94704608540911
 21
642.40574394563077
 31
-0.0000000000000014
  0
LINE
  5
17859
  8
KI1
 10
175.79704608540911
 20
638.05574394563087
 30
-0.0000000000000014
 11
175.79704608540911
 21
645.78074394563089
 31
-0.0000000000000014
  0
LINE
  5
1785A
  8
KI1
 10
176.94704608540911
 20
645.78074394563089
 30
-0.0000000000000014
 11
176.94704608540911
 21
645.05574394563075
 31
-0.0000000000000014
  0
ARC
  5
1785B
  8
KI1
 10
176.3720460854091
 20
645.78074394563089
 30
-0.0000000000000014
 40
0.5749999999999959
 50
0.0
 51
180.0
  0
LINE
  5
1785C
  8
KI1
 10
176.94704608540911
 20
636.90574394563089
 30
-0.0000000000000014
 11
176.94704608540911
 21
637.60574394563082
 31
-0.0000000000000014
  0
ARC
  5
1785D
  8
KI1
 10
176.6470460854091
 20
636.90574394563089
 30
-0.0000000000000014
 40
0.2999999999999999
 50
270.0
 51
0.0
  0
ARC
  5
1785E
  8
KI1
 10
168.69704608540911
 20
663.60574394563082
 30
-0.0000000000000014
 40
0.5
 50
0.0
 51
180.0
  0
LINE
  5
1785F
  8
KI1
 10
169.1970460854092
 20
663.60574394563082
 30
-0.0000000000000014
 11
169.1970460854092
 21
662.40574394563089
 31
-0.0000000000000014
  0
LINE
  5
17860
  8
KI1
 10
169.34704608540909
 20
637.75574394563091
 30
-0.0000000000000014
 11
169.34704608540909
 21
660.75574394563091
 31
-0.0000000000000014
  0
ARC
  5
17861
  8
KI1
 10
169.84704608540909
 20
660.75574394563091
 30
-0.0000000000000014
 40
0.4999999999999999
 50
90.0
 51
180.0
  0
LINE
  5
17862
  8
KI1
 10
168.19704608540911
 20
637.60574394563082
 30
-0.0000000000000014
 11
168.19704608540911
 21
663.60574394563082
 31
-0.0000000000000014
  0
ARC
  5
17863
  8
KI1
 10
163.09704608540909
 20
637.10574394563082
 30
-0.0000000000000014
 40
0.5
 50
90.0
 51
180.0
  0
ARC
  5
17864
  8
KI1
 10
163.8970460854091
 20
636.30574394563087
 30
-0.0000000000000014
 40
0.2999999999999999
 50
90.0
 51
180.0
  0
LINE
  5
17865
  8
KI1
 10
163.59704608540909
 20
636.30574394563087
 30
-0.0000000000000014
 11
163.59704608540909
 21
624.10574394563082
 31
-0.0000000000000014
  0
LINE
  5
17866
  8
KI1
 10
162.59704608540909
 20
637.10574394563082
 30
-0.0000000000000014
 11
162.59704608540909
 21
624.10574394563082
 31
-0.0000000000000014
  0
ARC
  5
17867
  8
KI1
 10
163.09704608540909
 20
624.10574394563082
 30
-0.0000000000000014
 40
0.5
 50
180.0
 51
0.0
  0
LINE
  5
17868
  8
KI1
 10
247.49704608540929
 20
637.75574394563091
 30
-0.0000000000000014
 11
241.3470460854092
 21
637.75574394563091
 31
-0.0000000000000014
  0
LINE
  5
17869
  8
KI1
 10
248.64704608540919
 20
636.60574394563082
 30
-0.0000000000000014
 11
232.26704608540919
 21
636.60574394563082
 31
-0.0000000000000014
  0
LINE
  5
1786A
  8
KI1
 10
241.1970460854092
 20
662.40574394563089
 30
-0.0000000000000014
 11
249.9470460854092
 21
662.40574394563089
 31
-0.0000000000000014
  0
LINE
  5
1786B
  8
KI1
 10
241.84704608540929
 20
661.25574394563091
 30
-0.0000000000000014
 11
269.04704608540919
 21
661.25574394563091
 31
-0.0000000000000014
  0
LINE
  5
1786C
  8
KI1
 10
240.1970460854092
 20
637.75574394563091
 30
-0.0000000000000014
 11
233.46704608540909
 21
637.75574394563091
 31
-0.0000000000000014
  0
ARC
  5
1786D
  8
KI1
 10
232.86704608540921
 20
639.00574394563091
 30
-0.0000000000000014
 40
0.5999999999999996
 50
0.0
 51
180.0
  0
LINE
  5
1786E
  8
KI1
 10
232.26704608540919
 20
639.00574394563091
 30
-0.0000000000000014
 11
232.26704608540919
 21
636.60574394563082
 31
-0.0000000000000014
  0
LINE
  5
1786F
  8
KI1
 10
233.46704608540909
 20
639.00574394563091
 30
-0.0000000000000014
 11
233.46704608540909
 21
637.75574394563091
 31
-0.0000000000000014
  0
ARC
  5
17870
  8
KI1
 10
240.6970460854092
 20
663.60574394563082
 30
-0.0000000000000014
 40
0.5
 50
0.0
 51
180.0
  0
LINE
  5
17871
  8
KI1
 10
240.1970460854092
 20
637.75574394563091
 30
-0.0000000000000014
 11
240.1970460854092
 21
663.60574394563082
 31
-0.0000000000000014
  0
LINE
  5
17872
  8
KI1
 10
241.1970460854092
 20
663.60574394563082
 30
-0.0000000000000014
 11
241.1970460854092
 21
662.40574394563089
 31
-0.0000000000000014
  0
LINE
  5
17873
  8
KI1
 10
241.3470460854092
 20
637.75574394563091
 30
-0.0000000000000014
 11
241.3470460854092
 21
660.75574394563091
 31
-0.0000000000000014
  0
ARC
  5
17874
  8
KI1
 10
241.84704608540929
 20
660.75574394563091
 30
-0.0000000000000014
 40
0.4999999999999999
 50
90.0
 51
180.0
  0
LINE
  5
17875
  8
KI1
 10
274.99704608540918
 20
636.60574394563082
 30
-0.0000000000000014
 11
262.24704608540918
 21
636.60574394563082
 31
-0.0000000000000014
  0
LINE
  5
17876
  8
KI1
 10
275.79704608540919
 20
637.60574394563082
 30
-0.0000000000000014
 11
270.69704608540923
 21
637.60574394563082
 31
-0.0000000000000014
  0
LINE
  5
17877
  8
KI1
 10
259.99704608540929
 20
637.60574394563082
 30
-0.0000000000000014
 11
261.94704608540923
 21
637.60574394563082
 31
-0.0000000000000014
  0
LINE
  5
17878
  8
KI1
 10
259.99831022475809
 20
645.05574394563075
 30
-0.0000000000000014
 11
261.94704608540923
 21
645.05574394563075
 31
-0.0000000000000014
  0
ARC
  5
17879
  8
KI1
 10
260.19831022475807
 20
644.40574394563066
 30
-0.0000000000000014
 40
0.5
 50
180.0
 51
270.0
  0
LINE
  5
1787A
  8
KI1
 10
259.99704608540929
 20
640.30574394563064
 30
-0.0000000000000014
 11
260.19704608540923
 21
640.30574394563064
 31
-0.0000000000000014
  0
ARC
  5
1787B
  8
KI1
 10
260.44704608540923
 20
663.60574394563082
 30
-0.0000000000000014
 40
0.5
 50
0.0
 51
180.0
  0
LINE
  5
1787C
  8
KI1
 10
250.6983102247581
 20
643.90574394563066
 30
-0.0000000000000014
 11
249.14704608540919
 21
643.90574394563066
 31
-0.0000000000000014
  0
LINE
  5
1787D
  8
KI1
 10
250.89704608540919
 20
637.60574394563082
 30
-0.0000000000000014
 11
248.9470460854092
 21
637.60574394563082
 31
-0.0000000000000014
  0
LINE
  5
1787E
  8
KI1
 10
250.89831022475809
 20
645.05574394563075
 30
-0.0000000000000014
 11
248.9470460854092
 21
645.05574394563075
 31
-0.0000000000000014
  0
LINE
  5
1787F
  8
KI1
 10
250.04704608540919
 20
639.30574394563075
 30
-0.0000000000000014
 11
250.6970460854092
 21
640.30574394563064
 31
-0.0000000000000014
  0
ARC
  5
17880
  8
KI1
 10
250.4470460854092
 20
663.60574394563082
 30
-0.0000000000000014
 40
0.5
 50
0.0
 51
180.0
  0
LINE
  5
17881
  8
KI1
 10
249.9470460854092
 20
663.60574394563082
 30
-0.0000000000000014
 11
249.9470460854092
 21
662.40574394563089
 31
-0.0000000000000014
  0
ARC
  5
17882
  8
KI1
 10
248.37204608540929
 20
645.78074394563089
 30
-0.0000000000000014
 40
0.5749999999999959
 50
0.0
 51
180.0
  0
ARC
  5
17883
  8
KI1
 10
248.64704608540919
 20
636.90574394563089
 30
-0.0000000000000014
 40
0.2999999999999999
 50
270.0
 51
0.0
  0
LINE
  5
17884
  8
KI1
 10
247.79704608540919
 20
638.05574394563087
 30
-0.0000000000000014
 11
247.79704608540919
 21
645.78074394563089
 31
-0.0000000000000014
  0
ARC
  5
17885
  8
KI1
 10
247.49704608540929
 20
638.05574394563087
 30
-0.0000000000000014
 40
0.2999999999999999
 50
270.0
 51
0.0
  0
LINE
  5
17886
  8
KI1
 10
249.14704608540919
 20
643.90574394563066
 30
-0.0000000000000014
 11
248.9470460854092
 21
642.40574394563077
 31
-0.0000000000000014
  0
LINE
  5
17887
  8
KI1
 10
248.9470460854092
 20
638.90574394563066
 30
-0.0000000000000014
 11
248.9470460854092
 21
642.40574394563077
 31
-0.0000000000000014
  0
LINE
  5
17888
  8
KI1
 10
250.04704608540919
 20
638.90574394563066
 30
-0.0000000000000014
 11
248.9470460854092
 21
638.90574394563066
 31
-0.0000000000000014
  0
LINE
  5
17889
  8
KI1
 10
250.04704608540919
 20
638.90574394563066
 30
-0.0000000000000014
 11
250.04704608540919
 21
639.30574394563075
 31
-0.0000000000000014
  0
LINE
  5
1788A
  8
KI1
 10
248.9470460854092
 20
645.78074394563089
 30
-0.0000000000000014
 11
248.9470460854092
 21
645.05574394563075
 31
-0.0000000000000014
  0
LINE
  5
1788B
  8
KI1
 10
248.9470460854092
 20
636.90574394563089
 30
-0.0000000000000014
 11
248.9470460854092
 21
637.60574394563082
 31
-0.0000000000000014
  0
LINE
  5
1788C
  8
KI1
 10
250.9470460854092
 20
663.60574394563082
 30
-0.0000000000000014
 11
250.9470460854092
 21
662.40574394563089
 31
-0.0000000000000014
  0
ARC
  5
1788D
  8
KI1
 10
250.89704608540919
 20
637.90574394563077
 30
-0.0000000000000014
 40
0.2999999999999999
 50
270.0
 51
0.0
  0
ARC
  5
1788E
  8
KI1
 10
250.89831022475809
 20
644.75574394563057
 30
-0.0000000000000014
 40
0.2999999999999999
 50
0.0
 51
90.0
  0
LINE
  5
1788F
  8
KI1
 10
251.1983102247581
 20
644.75574394563057
 30
-0.0000000000000014
 11
251.1983102247581
 21
644.40574394563066
 31
-0.0000000000000014
  0
LINE
  5
17890
  8
KI1
 10
251.1970460854092
 20
640.00574394563068
 30
-0.0000000000000014
 11
251.1970460854092
 21
637.90574394563077
 31
-0.0000000000000014
  0
ARC
  5
17891
  8
KI1
 10
250.89704608540919
 20
640.00574394563068
 30
-0.0000000000000014
 40
0.2999999999999999
 50
0.0
 51
90.0
  0
LINE
  5
17892
  8
KI1
 10
250.89704608540919
 20
640.30574394563064
 30
-0.0000000000000014
 11
250.6970460854092
 21
640.30574394563064
 31
-0.0000000000000014
  0
ARC
  5
17893
  8
KI1
 10
250.6983102247581
 20
644.40574394563066
 30
-0.0000000000000014
 40
0.5
 50
270.0
 51
0.0
  0
LINE
  5
17894
  8
KI1
 10
259.94704608540923
 20
662.40574394563089
 30
-0.0000000000000014
 11
250.9470460854092
 21
662.40574394563089
 31
-0.0000000000000014
  0
LINE
  5
17895
  8
KI1
 10
259.94704608540923
 20
663.60574394563082
 30
-0.0000000000000014
 11
259.94704608540923
 21
662.40574394563089
 31
-0.0000000000000014
  0
ARC
  5
17896
  8
KI1
 10
259.99704608540929
 20
637.90574394563077
 30
-0.0000000000000014
 40
0.2999999999999999
 50
180.0
 51
270.0
  0
ARC
  5
17897
  8
KI1
 10
259.99831022475809
 20
644.75574394563057
 30
-0.0000000000000014
 40
0.2999999999999999
 50
90.0
 51
180.0
  0
LINE
  5
17898
  8
KI1
 10
259.69831022475807
 20
644.75574394563057
 30
-0.0000000000000014
 11
259.69831022475807
 21
644.40574394563066
 31
-0.0000000000000014
  0
LINE
  5
17899
  8
KI1
 10
259.69704608540911
 20
640.00574394563068
 30
-0.0000000000000014
 11
259.69704608540911
 21
637.90574394563077
 31
-0.0000000000000014
  0
ARC
  5
1789A
  8
KI1
 10
259.99704608540929
 20
640.00574394563068
 30
-0.0000000000000014
 40
0.2999999999999999
 50
90.0
 51
180.0
  0
LINE
  5
1789B
  8
KI1
 10
263.39704608540922
 20
637.75574394563091
 30
-0.0000000000000014
 11
269.54704608540919
 21
637.75574394563091
 31
-0.0000000000000014
  0
LINE
  5
1789C
  8
KI1
 10
269.69704608540923
 20
662.40574394563089
 30
-0.0000000000000014
 11
260.94704608540923
 21
662.40574394563089
 31
-0.0000000000000014
  0
ARC
  5
1789D
  8
KI1
 10
263.39704608540922
 20
638.05574394563087
 30
-0.0000000000000014
 40
0.2999999999999999
 50
180.0
 51
270.0
  0
LINE
  5
1789E
  8
KI1
 10
260.94704608540923
 20
663.60574394563082
 30
-0.0000000000000014
 11
260.94704608540923
 21
662.40574394563089
 31
-0.0000000000000014
  0
LINE
  5
1789F
  8
KI1
 10
260.19831022475807
 20
643.90574394563066
 30
-0.0000000000000014
 11
261.74704608540929
 21
643.90574394563066
 31
-0.0000000000000014
  0
LINE
  5
178A0
  8
KI1
 10
260.84704608540932
 20
638.90574394563066
 30
-0.0000000000000014
 11
261.94704608540923
 21
638.90574394563066
 31
-0.0000000000000014
  0
LINE
  5
178A1
  8
KI1
 10
260.84704608540932
 20
638.90574394563066
 30
-0.0000000000000014
 11
260.84704608540932
 21
639.30574394563075
 31
-0.0000000000000014
  0
LINE
  5
178A2
  8
KI1
 10
260.84704608540932
 20
639.30574394563075
 30
-0.0000000000000014
 11
260.19704608540923
 21
640.30574394563064
 31
-0.0000000000000014
  0
LINE
  5
178A3
  8
KI1
 10
261.74704608540929
 20
643.90574394563066
 30
-0.0000000000000014
 11
261.94704608540923
 21
642.40574394563077
 31
-0.0000000000000014
  0
LINE
  5
178A4
  8
KI1
 10
261.94704608540923
 20
638.90574394563066
 30
-0.0000000000000014
 11
261.94704608540923
 21
642.40574394563077
 31
-0.0000000000000014
  0
LINE
  5
178A5
  8
KI1
 10
263.09704608540932
 20
638.05574394563087
 30
-0.0000000000000014
 11
263.09704608540932
 21
645.78074394563089
 31
-0.0000000000000014
  0
LINE
  5
178A6
  8
KI1
 10
261.94704608540923
 20
645.78074394563089
 30
-0.0000000000000014
 11
261.94704608540923
 21
645.05574394563075
 31
-0.0000000000000014
  0
ARC
  5
178A7
  8
KI1
 10
262.52204608540922
 20
645.78074394563089
 30
-0.0000000000000014
 40
0.5749999999999959
 50
0.0
 51
180.0
  0
LINE
  5
178A8
  8
KI1
 10
261.94704608540923
 20
636.90574394563089
 30
-0.0000000000000014
 11
261.94704608540923
 21
637.60574394563082
 31
-0.0000000000000014
  0
ARC
  5
178A9
  8
KI1
 10
262.24704608540918
 20
636.90574394563089
 30
-0.0000000000000014
 40
0.2999999999999999
 50
180.0
 51
270.0
  0
ARC
  5
178AA
  8
KI1
 10
270.19704608540911
 20
663.60574394563082
 30
-0.0000000000000014
 40
0.5
 50
0.0
 51
180.0
  0
LINE
  5
178AB
  8
KI1
 10
269.69704608540923
 20
663.60574394563082
 30
-0.0000000000000014
 11
269.69704608540923
 21
662.40574394563089
 31
-0.0000000000000014
  0
LINE
  5
178AC
  8
KI1
 10
269.54704608540919
 20
637.75574394563091
 30
-0.0000000000000014
 11
269.54704608540919
 21
660.75574394563091
 31
-0.0000000000000014
  0
ARC
  5
178AD
  8
KI1
 10
269.04704608540919
 20
660.75574394563091
 30
-0.0000000000000014
 40
0.4999999999999999
 50
0.0
 51
90.0
  0
LINE
  5
178AE
  8
KI1
 10
270.69704608540923
 20
637.60574394563082
 30
-0.0000000000000014
 11
270.69704608540923
 21
663.60574394563082
 31
-0.0000000000000014
  0
ARC
  5
178AF
  8
KI1
 10
275.79704608540919
 20
637.10574394563082
 30
-0.0000000000000014
 40
0.5
 50
0.0
 51
90.0
  0
ARC
  5
178B0
  8
KI1
 10
274.99704608540918
 20
636.30574394563087
 30
-0.0000000000000014
 40
0.2999999999999999
 50
0.0
 51
90.0
  0
LINE
  5
178B1
  8
KI1
 10
275.29704608540919
 20
636.30574394563087
 30
-0.0000000000000014
 11
275.29704608540919
 21
624.10574394563082
 31
-0.0000000000000014
  0
LINE
  5
178B2
  8
KI1
 10
276.29704608540919
 20
637.10574394563082
 30
-0.0000000000000014
 11
276.29704608540919
 21
624.10574394563082
 31
-0.0000000000000014
  0
ARC
  5
178B3
  8
KI1
 10
275.79704608540919
 20
624.10574394563082
 30
-0.0000000000000014
 40
0.5
 50
180.0
 51
0.0
  0
LINE
  5
17904
  8
SU
 10
134.94704608540911
 20
161.88108569179499
 30
-0.0000000000000014
 11
124.34132237366011
 21
180.25073801158231
 31
-0.0000000000000014
210
0.0
220
0.0
230
-1.0
1001
ACAD
1000
DSTYLE
1002
{
1070
    41
1040
1.5
1070
    77
1070
     0
1070
   371
1070
    13
1002
}
  0
LINE
  5
17905
  8
SU
 10
124.34132237366011
 20
180.25073801158231
 30
-0.0000000000000014
 11
102.9796596873601
 21
180.25073801158231
 31
-0.0000000000000014
210
0.0
220
0.0
230
-1.0
1001
ACAD
1000
DSTYLE
1002
{
1070
    41
1040
1.5
1070
    77
1070
     0
1070
   371
1070
    13
1002
}
  0
LINE
  5
17906
  8
SU
 10
134.5140333835169
 20
161.63108569179499
 30
-0.0000000000000014
 11
136.44704608540911
 21
159.28300948044171
 31
-0.0000000000000014
210
0.0
220
0.0
230
-1.0
  0
LINE
  5
17907
  8
SU
 10
135.38005878730129
 20
162.13108569179499
 30
-0.0000000000000014
 11
136.44704608540911
 21
159.28300948044171
 31
-0.0000000000000014
210
0.0
220
0.0
230
-1.0
  0
LINE
  5
17908
  8
SU
 10
136.44704608540911
 20
159.28300948044171
 30
-0.0000000000000014
 11
134.94704608540911
 21
161.88108569179499
 31
-0.0000000000000014
210
0.0
220
0.0
230
-1.0
  0
LINE
  5
1790B
  8
SU
 10
134.94704608540911
 20
365.70382215080002
 30
-0.0000000000000014
 11
124.34132237366011
 21
384.07347447058743
 31
-0.0000000000000014
210
0.0
220
0.0
230
-1.0
1001
ACAD
1000
DSTYLE
1002
{
1070
    41
1040
1.5
1070
    77
1070
     0
1070
   371
1070
    13
1002
}
  0
LINE
  5
1790C
  8
SU
 10
124.34132237366011
 20
384.07347447058743
 30
-0.0000000000000014
 11
102.9796596873601
 21
384.07347447058743
 31
-0.0000000000000014
210
0.0
220
0.0
230
-1.0
1001
ACAD
1000
DSTYLE
1002
{
1070
    41
1040
1.5
1070
    77
1070
     0
1070
   371
1070
    13
1002
}
  0
LINE
  5
1790D
  8
SU
 10
134.5140333835169
 20
365.45382215080002
 30
-0.0000000000000014
 11
136.44704608540911
 21
363.10574593944671
 31
-0.0000000000000014
210
0.0
220
0.0
230
-1.0
  0
LINE
  5
1790E
  8
SU
 10
135.38005878730129
 20
365.95382215080002
 30
-0.0000000000000014
 11
136.44704608540911
 21
363.10574593944671
 31
-0.0000000000000014
210
0.0
220
0.0
230
-1.0
  0
LINE
  5
1790F
  8
SU
 10
136.44704608540911
 20
363.10574593944671
 30
-0.0000000000000014
 11
134.94704608540911
 21
365.70382215080002
 31
-0.0000000000000014
210
0.0
220
0.0
230
-1.0
  0
TEXT
  5
1BC04
  8
MJ
 10
200.3353027727957
 20
279.65186288284468
 30
-0.0000000000000014
 40
7.0
  1
直貼りレール
 41
0.8299999999999999
 72
     4
 11
220.08930277279569
 21
283.15186288284468
 31
-0.0000000000000014
  0
TEXT
  5
1BC0D
  8
MJ
 10
199.7192481085788
 20
55.629030084138321
 30
-0.0000000000000014
 40
7.0
  1
埋込みレール
 41
0.8299999999999999
 72
     4
 11
219.47324810857879
 21
59.129030084138321
 31
-0.0000000000000014
  0
LINE
  5
1BC0E
  8
KI2
 10
179.44704487049231
 20
644.80574473009847
 30
-0.0000000000000014
 11
187.44704487049219
 21
644.80574473009847
 31
-0.0000000000000014
  0
LINE
  5
1BC0F
  8
KI2
 10
177.54704487049219
 20
640.99574473009852
 30
-0.0000000000000014
 11
189.3470448704922
 21
640.99574473009852
 31
-0.0000000000000014
  0
LINE
  5
1BC10
  8
KI2
 10
177.54704487049219
 20
642.99574473009852
 30
-0.0000000000000014
 11
189.3470448704922
 21
642.99574473009852
 31
-0.0000000000000014
  0
LINE
  5
1BC11
  8
KI2
 10
179.44704487049231
 20
644.80574473009847
 30
-0.0000000000000014
 11
179.44704487049231
 21
642.99574473009852
 31
-0.0000000000000014
  0
LINE
  5
1BC12
  8
KI2
 10
177.54704487049219
 20
642.99574473009852
 30
-0.0000000000000014
 11
177.54704487049219
 21
640.99574473009852
 31
-0.0000000000000014
  0
LINE
  5
1BC13
  8
KI2
 10
186.44704487049231
 20
640.99574473009852
 30
-0.0000000000000014
 11
186.44704487049231
 21
627.10574473009865
 31
-0.0000000000000014
  0
LINE
  5
1BC14
  8
KI2
 10
180.44704487049231
 20
640.99574473009852
 30
-0.0000000000000014
 11
180.44704487049231
 21
627.10574473009865
 31
-0.0000000000000014
  0
LINE
  5
1BC15
  8
KI2
 10
180.44704487049231
 20
638.48574473009853
 30
-0.0000000000000014
 11
186.44704487049231
 21
638.48574473009853
 31
-0.0000000000000014
  0
LINE
  5
1BC16
  8
KI2
 10
181.72704487049219
 20
653.20574473009844
 30
-0.0000000000000014
 11
185.16704487049219
 21
653.20574473009844
 31
-0.0000000000000014
  0
LINE
  5
1BC17
  8
KI2
 10
185.6670448704923
 20
652.70574473009844
 30
-0.0000000000000014
 11
181.22704487049219
 21
652.70574473009844
 31
-0.0000000000000014
  0
LINE
  5
1BC18
  8
KI2
 10
181.22704487049219
 20
652.70574473009844
 30
-0.0000000000000014
 11
181.22704487049219
 21
644.80574473009847
 31
-0.0000000000000014
  0
LINE
  5
1BC19
  8
KI2
 10
181.72704487049219
 20
653.20574473009844
 30
-0.0000000000000014
 11
181.22704487049219
 21
652.70574473009844
 31
-0.0000000000000014
  0
LINE
  5
1BC1A
  8
KI2
 10
185.6670448704923
 20
652.70574473009844
 30
-0.0000000000000014
 11
185.6670448704923
 21
644.80574473009847
 31
-0.0000000000000014
  0
LINE
  5
1BC1B
  8
KI2
 10
185.6670448704923
 20
652.70574473009844
 30
-0.0000000000000014
 11
185.16704487049219
 21
653.20574473009844
 31
-0.0000000000000014
  0
LINE
  5
1BC1C
  8
KI2
 10
187.44704487049219
 20
644.80574473009847
 30
-0.0000000000000014
 11
187.44704487049219
 21
642.99574473009852
 31
-0.0000000000000014
  0
LINE
  5
1BC1D
  8
KI2
 10
189.3470448704922
 20
642.99574473009852
 30
-0.0000000000000014
 11
189.3470448704922
 21
640.99574473009852
 31
-0.0000000000000014
  0
LINE
  5
1BC1E
  8
KI2
 10
215.44704487049231
 20
644.80574473009847
 30
-0.0000000000000014
 11
223.44704487049231
 21
644.80574473009847
 31
-0.0000000000000014
  0
LINE
  5
1BC1F
  8
KI2
 10
213.5470448704923
 20
640.99574473009852
 30
-0.0000000000000014
 11
225.34704487049231
 21
640.99574473009852
 31
-0.0000000000000014
  0
LINE
  5
1BC20
  8
KI2
 10
213.5470448704923
 20
642.99574473009852
 30
-0.0000000000000014
 11
225.34704487049231
 21
642.99574473009852
 31
-0.0000000000000014
  0
LINE
  5
1BC21
  8
KI2
 10
215.44704487049231
 20
644.80574473009847
 30
-0.0000000000000014
 11
215.44704487049231
 21
642.99574473009852
 31
-0.0000000000000014
  0
LINE
  5
1BC22
  8
KI2
 10
213.5470448704923
 20
642.99574473009852
 30
-0.0000000000000014
 11
213.5470448704923
 21
640.99574473009852
 31
-0.0000000000000014
  0
LINE
  5
1BC23
  8
KI2
 10
222.44704487049231
 20
640.99574473009852
 30
-0.0000000000000014
 11
222.44704487049231
 21
627.10574473009865
 31
-0.0000000000000014
  0
LINE
  5
1BC24
  8
KI2
 10
216.44704487049231
 20
640.99574473009852
 30
-0.0000000000000014
 11
216.44704487049231
 21
627.10574473009865
 31
-0.0000000000000014
  0
LINE
  5
1BC25
  8
KI2
 10
216.44704487049231
 20
638.48574473009853
 30
-0.0000000000000014
 11
222.44704487049231
 21
638.48574473009853
 31
-0.0000000000000014
  0
LINE
  5
1BC26
  8
KI2
 10
217.72704487049231
 20
653.20574473009844
 30
-0.0000000000000014
 11
221.1670448704923
 21
653.20574473009844
 31
-0.0000000000000014
  0
LINE
  5
1BC27
  8
KI2
 10
221.6670448704923
 20
652.70574473009844
 30
-0.0000000000000014
 11
217.22704487049231
 21
652.70574473009844
 31
-0.0000000000000014
  0
LINE
  5
1BC28
  8
KI2
 10
217.22704487049231
 20
652.70574473009844
 30
-0.0000000000000014
 11
217.22704487049231
 21
644.80574473009847
 31
-0.0000000000000014
  0
LINE
  5
1BC29
  8
KI2
 10
217.72704487049231
 20
653.20574473009844
 30
-0.0000000000000014
 11
217.22704487049231
 21
652.70574473009844
 31
-0.0000000000000014
  0
LINE
  5
1BC2A
  8
KI2
 10
221.6670448704923
 20
652.70574473009844
 30
-0.0000000000000014
 11
221.6670448704923
 21
644.80574473009847
 31
-0.0000000000000014
  0
LINE
  5
1BC2B
  8
KI2
 10
221.6670448704923
 20
652.70574473009844
 30
-0.0000000000000014
 11
221.1670448704923
 21
653.20574473009844
 31
-0.0000000000000014
  0
LINE
  5
1BC2C
  8
KI2
 10
223.44704487049231
 20
644.80574473009847
 30
-0.0000000000000014
 11
223.44704487049231
 21
642.99574473009852
 31
-0.0000000000000014
  0
LINE
  5
1BC2D
  8
KI2
 10
225.34704487049231
 20
642.99574473009852
 30
-0.0000000000000014
 11
225.34704487049231
 21
640.99574473009852
 31
-0.0000000000000014
  0
LINE
  5
1BC2E
  8
KI2
 10
251.44704487049231
 20
644.80574473009847
 30
-0.0000000000000014
 11
259.44704487049228
 21
644.80574473009847
 31
-0.0000000000000014
  0
LINE
  5
1BC2F
  8
KI2
 10
249.5470448704923
 20
640.99574473009852
 30
-0.0000000000000014
 11
261.3470448704922
 21
640.99574473009852
 31
-0.0000000000000014
  0
LINE
  5
1BC30
  8
KI2
 10
249.5470448704923
 20
642.99574473009852
 30
-0.0000000000000014
 11
261.3470448704922
 21
642.99574473009852
 31
-0.0000000000000014
  0
LINE
  5
1BC31
  8
KI2
 10
251.44704487049231
 20
644.80574473009847
 30
-0.0000000000000014
 11
251.44704487049231
 21
642.99574473009852
 31
-0.0000000000000014
  0
LINE
  5
1BC32
  8
KI2
 10
249.5470448704923
 20
642.99574473009852
 30
-0.0000000000000014
 11
249.5470448704923
 21
640.99574473009852
 31
-0.0000000000000014
  0
LINE
  5
1BC33
  8
KI2
 10
258.44704487049228
 20
640.99574473009852
 30
-0.0000000000000014
 11
258.44704487049228
 21
627.10574473009865
 31
-0.0000000000000014
  0
LINE
  5
1BC34
  8
KI2
 10
252.44704487049231
 20
640.99574473009852
 30
-0.0000000000000014
 11
252.44704487049231
 21
627.10574473009865
 31
-0.0000000000000014
  0
LINE
  5
1BC35
  8
KI2
 10
252.44704487049231
 20
638.48574473009853
 30
-0.0000000000000014
 11
258.44704487049228
 21
638.48574473009853
 31
-0.0000000000000014
  0
LINE
  5
1BC36
  8
KI2
 10
253.72704487049231
 20
653.20574473009844
 30
-0.0000000000000014
 11
257.1670448704923
 21
653.20574473009844
 31
-0.0000000000000014
  0
LINE
  5
1BC37
  8
KI2
 10
257.6670448704923
 20
652.70574473009844
 30
-0.0000000000000014
 11
253.22704487049231
 21
652.70574473009844
 31
-0.0000000000000014
  0
LINE
  5
1BC38
  8
KI2
 10
253.22704487049231
 20
652.70574473009844
 30
-0.0000000000000014
 11
253.22704487049231
 21
644.80574473009847
 31
-0.0000000000000014
  0
LINE
  5
1BC39
  8
KI2
 10
253.72704487049231
 20
653.20574473009844
 30
-0.0000000000000014
 11
253.22704487049231
 21
652.70574473009844
 31
-0.0000000000000014
  0
LINE
  5
1BC3A
  8
KI2
 10
257.6670448704923
 20
652.70574473009844
 30
-0.0000000000000014
 11
257.6670448704923
 21
644.80574473009847
 31
-0.0000000000000014
  0
LINE
  5
1BC3B
  8
KI2
 10
257.6670448704923
 20
652.70574473009844
 30
-0.0000000000000014
 11
257.1670448704923
 21
653.20574473009844
 31
-0.0000000000000014
  0
LINE
  5
1BC3C
  8
KI2
 10
259.44704487049228
 20
644.80574473009847
 30
-0.0000000000000014
 11
259.44704487049228
 21
642.99574473009852
 31
-0.0000000000000014
  0
LINE
  5
1BC3D
  8
KI2
 10
261.3470448704922
 20
642.99574473009852
 30
-0.0000000000000014
 11
261.3470448704922
 21
640.99574473009852
 31
-0.0000000000000014
  0
LINE
  5
1E832
  8
KI1
 10
853.8159698081937
 20
295.48474779943712
 30
0.0
 11
1026.815969808194
 21
295.48474779943712
 31
0.0
  0
LINE
  5
1E833
  8
KI1
 10
1026.815969808194
 20
295.48474779943712
 30
0.0
 11
1026.815969808194
 21
262.4847487511625
 31
0.0
  0
LINE
  5
1E834
  8
KI1
 10
853.8159698081937
 20
295.48474779943712
 30
0.0
 11
853.8159698081937
 21
262.4847487511625
 31
0.0
  0
LINE
  5
1E835
  8
KI1
 10
1026.815969808194
 20
262.4847487511625
 30
0.0
 11
853.8159698081937
 21
262.4847487511625
 31
0.0
  0
LINE
  5
1E836
  8
KI1
 10
888.8159698081937
 20
298.4847477994316
 30
0.0
 11
715.8159698081937
 21
298.4847477994316
 31
0.0
  0
LINE
  5
1E837
  8
KI1
 10
888.8159698081937
 20
298.4847477994316
 30
0.0
 11
888.8159698081937
 21
331.48474684770622
 31
0.0
  0
LINE
  5
1E838
  8
KI1
 10
715.8159698081937
 20
298.4847477994316
 30
0.0
 11
715.81596980819393
 21
331.48474684770622
 31
0.0
  0
LINE
  5
1E839
  8
KI1
 10
715.81596980819393
 20
331.48474684770622
 30
0.0
 11
888.8159698081937
 21
331.48474684770622
 31
0.0
  0
LINE
  5
1E83A
  8
KI1
 10
750.81596980819324
 20
334.48474779943149
 30
0.0
 11
577.81596980819324
 21
334.48474779943149
 31
0.0
  0
LINE
  5
1E83B
  8
KI1
 10
750.81596980819324
 20
334.48474779943149
 30
0.0
 11
750.81596980819324
 21
367.48474684770622
 31
0.0
  0
LINE
  5
1E83C
  8
KI1
 10
577.81596980819324
 20
367.48474684770622
 30
0.0
 11
750.81596980819324
 21
367.48474684770622
 31
0.0
  0
LINE
  5
1E83D
  8
PH
 10
750.81596980819324
 20
298.4847477994316
 30
0.0
 11
577.81596980819324
 21
298.4847477994316
 31
0.0
  0
LINE
  5
1E83E
  8
PH
 10
577.81596980819324
 20
298.4847477994316
 30
0.0
 11
577.81596980819324
 21
331.48474684770622
 31
0.0
  0
LINE
  5
1E83F
  8
PH
 10
750.81596980819324
 20
298.4847477994316
 30
0.0
 11
750.81596980819324
 21
331.48474684770622
 31
0.0
  0
LINE
  5
1E840
  8
PH
 10
577.81596980819324
 20
331.48474684770622
 30
0.0
 11
750.81596980819324
 21
331.48474684770622
 31
0.0
  0
LINE
  5
1E841
  8
PH
 10
750.81596980819324
 20
262.4847477994316
 30
0.0
 11
577.81596980819324
 21
262.4847477994316
 31
0.0
  0
LINE
  5
1E842
  8
PH
 10
577.81596980819324
 20
262.4847477994316
 30
0.0
 11
577.81596980819324
 21
295.48474684770622
 31
0.0
  0
LINE
  5
1E843
  8
PH
 10
750.81596980819324
 20
262.4847477994316
 30
0.0
 11
750.81596980819324
 21
295.48474684770622
 31
0.0
  0
LINE
  5
1E844
  8
PH
 10
577.81596980819324
 20
295.48474684770622
 30
0.0
 11
750.81596980819324
 21
295.48474684770622
 31
0.0
  0
LINE
  5
1E849
  8
KI2
 10
1029.815969808194
 20
348.88474779943323
 30
0.0
 11
750.81596980819324
 21
348.88474779943328
 31
0.0
  0
LINE
  5
1E84A
  8
KI2
 10
1029.815969808194
 20
360.98474779943308
 30
0.0
 11
750.81596980819324
 21
360.98474779943308
 31
0.0
  0
LINE
  5
1E84B
  8
KI2
 10
1029.815969808194
 20
353.08474779943299
 30
0.0
 11
750.81596980819324
 21
353.0847477994331
 31
0.0
  0
LINE
  5
1E84C
  8
KI2
 10
1029.815969808194
 20
312.88474779943311
 30
0.0
 11
888.8159698081937
 21
312.88474779943323
 31
0.0
  0
LINE
  5
1E84D
  8
KI2
 10
715.8159698081937
 20
312.88474779943328
 30
0.0
 11
574.81596980819324
 21
312.88474779943351
 31
0.0
  0
LINE
  5
1E84E
  8
KI2
 10
1029.815969808194
 20
317.08474779943299
 30
0.0
 11
888.8159698081937
 21
317.08474779943299
 31
0.0
  0
LINE
  5
1E84F
  8
KI2
 10
715.8159698081937
 20
317.08474779943299
 30
0.0
 11
574.81596980819324
 21
317.08474779943299
 31
0.0
  0
LINE
  5
1E850
  8
KI2
 10
853.8159698081937
 20
276.88474779943328
 30
0.0
 11
574.81596980819324
 21
276.88474779943328
 31
0.0
  0
LINE
  5
1E851
  8
KI2
 10
853.8159698081937
 20
281.0847477994331
 30
0.0
 11
574.81596980819324
 21
281.0847477994331
 31
0.0
  0
LINE
  5
1E852
  8
KI2
 10
853.8159698081937
 20
268.98474804866629
 30
0.0
 11
574.81596980819324
 21
268.98474804866629
 31
0.0
  0
LINE
  5
1E853
  8
KI1
 10
577.81596980819324
 20
334.48474779943149
 30
0.0
 11
577.81596980819324
 21
367.48474684770622
 31
0.0
  0
LINE
  5
1E854
  8
OS
 10
556.31596980819324
 20
391.98474779943427
 30
0.0
 11
556.31596980819324
 21
237.9847477994343
 31
0.0
  0
LINE
  5
1E855
  8
OS
 10
558.31596980819324
 20
391.98474779943427
 30
0.0
 11
558.31596980819324
 21
237.9847477994343
 31
0.0
  0
LINE
  5
1E856
  8
OS
 10
568.81596980819324
 20
391.98474779943427
 30
0.0
 11
568.81596980819324
 21
237.9847477994343
 31
0.0
  0
LINE
  5
1E857
  8
OS
 10
574.81596980819324
 20
397.98474779943439
 30
0.0
 11
574.81596980819324
 21
231.9847477994343
 31
0.0
  0
LINE
  5
1E858
  8
OS
 10
566.81596980819324
 20
391.98474779943427
 30
0.0
 11
566.81596980819324
 21
237.9847477994343
 31
0.0
  0
LINE
  5
1E859
  8
OS
 10
556.31596980819324
 20
367.48474779943427
 30
0.0
 11
510.31596735966428
 21
321.48467815573667
 31
0.0
  0
LINE
  5
1E85A
  8
OS
 10
510.31596735966428
 20
239.9847477994343
 30
0.0
 11
556.31596980819324
 21
239.9847477994343
 31
0.0
  0
LINE
  5
1E85B
  8
OS
 10
510.31596735966428
 20
237.9847477994343
 30
0.0
 11
568.81596980819324
 21
237.9847477994343
 31
0.0
  0
LINE
  5
1E85C
  8
OS
 10
510.31596735966428
 20
231.9847477994343
 30
0.0
 11
574.81596980819324
 21
231.9847477994343
 31
0.0
  0
LINE
  5
1E85D
  8
OS
 10
510.31596735966428
 20
308.48492125943523
 30
0.0
 11
556.31596980819324
 21
262.48474779943427
 31
0.0
  0
LINE
  5
1E85E
  8
OS
 10
510.31596735966428
 20
248.4847477994343
 30
0.0
 11
556.31596980819324
 21
248.4847477994343
 31
0.0
  0
LINE
  5
1E85F
  8
OS
 10
510.31596735966428
 20
250.4847477994343
 30
0.0
 11
556.31596980819324
 21
250.4847477994343
 31
0.0
  0
LINE
  5
1E860
  8
OS
 10
510.31596735966428
 20
262.48474779943427
 30
0.0
 11
556.31596980819324
 21
262.48474779943427
 31
0.0
  0
LINE
  5
1E861
  8
OS
 10
510.31596735966428
 20
389.98474779943427
 30
0.0
 11
556.31596980819324
 21
389.98474779943427
 31
0.0
  0
LINE
  5
1E862
  8
OS
 10
510.31596735966428
 20
391.98474779943427
 30
0.0
 11
568.81596980819324
 21
391.98474779943427
 31
0.0
  0
LINE
  5
1E863
  8
OS
 10
510.31596735966428
 20
397.98474779943439
 30
0.0
 11
574.81596980819324
 21
397.98474779943439
 31
0.0
  0
LINE
  5
1E864
  8
OS
 10
510.31596735966428
 20
381.48474779943427
 30
0.0
 11
556.31596980819324
 21
381.48474779943427
 31
0.0
  0
LINE
  5
1E865
  8
OS
 10
510.31596735966428
 20
367.48474779943427
 30
0.0
 11
556.31596980819324
 21
367.48474779943427
 31
0.0
  0
LINE
  5
1E866
  8
OS
 10
510.31596735966428
 20
379.48474779943427
 30
0.0
 11
556.31596980819324
 21
379.48474779943427
 31
0.0
  0
TEXT
  5
1E867
  8
SU
 10
503.93812597647923
 20
415.86158451676641
 30
0.0
 40
7.9999999999999982
  1
巾木
 41
0.9
  0
LINE
  5
1E868
  8
SU
 10
531.13295358203777
 20
397.26397484082707
 30
0.0
 11
532.08393844830255
 21
394.37509481837282
 31
0.0
  0
LINE
  5
1E869
  8
SU
 10
530.24742410806709
 20
396.7993916397437
 30
0.0
 11
532.08393844830255
 21
394.37509481837282
 31
0.0
  0
LINE
  5
1E86A
  8
SU
 10
532.08393844830255
 20
394.37509481837282
 30
0.0
 11
530.69018884505238
 21
397.03168324028542
 31
0.0
  0
LINE
  5
1E86B
  8
SU
 10
530.69018884505238
 20
397.03168324028542
 30
0.0
 11
522.07552180361051
 21
413.45186708648009
 31
0.0
1001
ACAD
1000
DSTYLE
1002
{
1070
   371
1070
    13
1070
   176
1070
   256
1070
    41
1040
1.5
1070
   147
1040
1.0
1070
    77
1070
     0
1002
}
  0
LINE
  5
1E86C
  8
SU
 10
522.07552180361051
 20
413.45186708648009
 30
0.0
 11
500.71385911731051
 21
413.45186708648009
 31
0.0
1001
ACAD
1000
DSTYLE
1002
{
1070
   371
1070
    13
1070
   176
1070
   256
1070
    41
1040
1.5
1070
   147
1040
1.0
1070
    77
1070
     0
1002
}
  0
LINE
  5
1E86D
  8
OS
 10
1048.315969808194
 20
391.98474779943427
 30
0.0
 11
1048.315969808194
 21
237.9847477994343
 31
0.0
  0
LINE
  5
1E86E
  8
OS
 10
1046.315969808194
 20
391.98474779943427
 30
0.0
 11
1046.315969808194
 21
237.9847477994343
 31
0.0
  0
LINE
  5
1E86F
  8
OS
 10
1035.815969808194
 20
391.98474779943427
 30
0.0
 11
1035.815969808194
 21
237.9847477994343
 31
0.0
  0
LINE
  5
1E870
  8
OS
 10
1029.815969808194
 20
397.98474779943439
 30
0.0
 11
1029.815969808194
 21
231.9847477994343
 31
0.0
  0
LINE
  5
1E871
  8
OS
 10
1037.815969808194
 20
391.98474779943427
 30
0.0
 11
1037.815969808194
 21
237.9847477994343
 31
0.0
  0
LINE
  5
1E872
  8
OS
 10
1048.315969808194
 20
367.48474779943427
 30
0.0
 11
1094.3159722567229
 21
321.48467815573667
 31
0.0
  0
LINE
  5
1E873
  8
OS
 10
1094.3159722567229
 20
239.9847477994343
 30
0.0
 11
1048.315969808194
 21
239.9847477994343
 31
0.0
  0
LINE
  5
1E874
  8
OS
 10
1094.3159722567229
 20
237.9847477994343
 30
0.0
 11
1035.815969808194
 21
237.9847477994343
 31
0.0
  0
LINE
  5
1E875
  8
OS
 10
1094.3159722567229
 20
231.9847477994343
 30
0.0
 11
1029.815969808194
 21
231.9847477994343
 31
0.0
  0
LINE
  5
1E876
  8
OS
 10
1094.3159722567229
 20
308.48492125943523
 30
0.0
 11
1048.315969808194
 21
262.48474779943427
 31
0.0
  0
LINE
  5
1E877
  8
OS
 10
1094.3159722567229
 20
248.4847477994343
 30
0.0
 11
1048.315969808194
 21
248.4847477994343
 31
0.0
  0
LINE
  5
1E878
  8
OS
 10
1094.3159722567229
 20
250.4847477994343
 30
0.0
 11
1048.315969808194
 21
250.4847477994343
 31
0.0
  0
LINE
  5
1E879
  8
OS
 10
1094.3159722567229
 20
262.48474779943427
 30
0.0
 11
1048.315969808194
 21
262.48474779943427
 31
0.0
  0
LINE
  5
1E87A
  8
OS
 10
1094.3159722567229
 20
389.98474779943427
 30
0.0
 11
1048.315969808194
 21
389.98474779943427
 31
0.0
  0
LINE
  5
1E87B
  8
OS
 10
1094.3159722567229
 20
391.98474779943427
 30
0.0
 11
1035.815969808194
 21
391.98474779943427
 31
0.0
  0
LINE
  5
1E87C
  8
OS
 10
1094.3159722567229
 20
397.98474779943439
 30
0.0
 11
1029.815969808194
 21
397.98474779943439
 31
0.0
  0
LINE
  5
1E87D
  8
OS
 10
1094.3159722567229
 20
381.48474779943427
 30
0.0
 11
1048.315969808194
 21
381.48474779943427
 31
0.0
  0
LINE
  5
1E87E
  8
OS
 10
1094.3159722567229
 20
367.48474779943427
 30
0.0
 11
1048.315969808194
 21
367.48474779943427
 31
0.0
  0
LINE
  5
1E87F
  8
OS
 10
1094.3159722567229
 20
379.48474779943427
 30
0.0
 11
1048.315969808194
 21
379.48474779943427
 31
0.0
  0
TEXT
  5
1E880
  8
SU
 10
1084.8538136399079
 20
415.86158451676641
 30
0.0
 40
7.9999999999999982
  1
巾木
 41
0.9
  0
LINE
  5
1E881
  8
SU
 10
1074.38451550832
 20
396.7993916397437
 30
0.0
 11
1072.548001168085
 21
394.37509481837282
 31
0.0
  0
LINE
  5
1E882
  8
SU
 10
1073.4989860343489
 20
397.26397484082707
 30
0.0
 11
1072.548001168085
 21
394.37509481837282
 31
0.0
  0
LINE
  5
1E883
  8
SU
 10
1072.548001168085
 20
394.37509481837282
 30
0.0
 11
1073.9417507713349
 21
397.03168324028542
 31
0.0
  0
LINE
  5
1E884
  8
SU
 10
1073.9417507713349
 20
397.03168324028542
 30
0.0
 11
1082.556417812777
 21
413.45186708648009
 31
0.0
1001
ACAD
1000
DSTYLE
1002
{
1070
   371
1070
    13
1070
   176
1070
   256
1070
    41
1040
1.5
1070
   147
1040
1.0
1070
    77
1070
     0
1002
}
  0
LINE
  5
1E885
  8
SU
 10
1082.556417812777
 20
413.45186708648009
 30
0.0
 11
1103.918080499077
 21
413.45186708648009
 31
0.0
1001
ACAD
1000
DSTYLE
1002
{
1070
   371
1070
    13
1070
   176
1070
   256
1070
    41
1040
1.5
1070
   147
1040
1.0
1070
    77
1070
     0
1002
}
  0
LINE
  5
1E88A
  8
KI2
 10
1029.815969808194
 20
268.9847480486664
 30
0.0
 11
1026.815969808194
 21
268.9847480486664
 31
0.0
  0
LINE
  5
1E88B
  8
KI2
 10
577.81596980819324
 20
360.98474779943319
 30
0.0
 11
574.81596980819324
 21
360.98474779943319
 31
0.0
  0
LINE
  5
1E88C
  8
KI2
 10
750.81597777043316
 20
342.78474563397901
 30
0.0
 11
750.81597777043316
 21
343.484745633979
 31
0.0
  0
LINE
  5
1E88D
  8
KI2
 10
756.81597380559754
 20
342.78474563397901
 30
0.0
 11
750.81597777043316
 21
342.78474563397901
 31
0.0
  0
LINE
  5
1E88E
  8
KI2
 10
756.81597380559754
 20
343.484745633979
 30
0.0
 11
750.81597777043316
 21
343.484745633979
 31
0.0
  0
LINE
  5
1E88F
  8
KI2
 10
750.81597245175976
 20
358.48474563397917
 30
0.0
 11
750.81597228252917
 21
359.18474563397899
 31
0.0
  0
LINE
  5
1E890
  8
KI2
 10
750.81597228252917
 20
359.18474563397899
 30
0.0
 11
756.81597308032281
 21
359.18474708452879
 31
0.0
  0
LINE
  5
1E891
  8
KI2
 10
750.81597245175976
 20
358.48474563397917
 30
0.0
 11
756.81597324955362
 21
358.48474708452869
 31
0.0
  0
LINE
  5
1E892
  8
KI2
 10
759.81597380559754
 20
356.18474708452868
 30
0.0
 11
759.81597380559754
 21
345.78474563397901
 31
0.0
  0
LINE
  5
1E893
  8
KI2
 10
759.11597380559738
 20
356.18474708452868
 30
0.0
 11
759.11597380559738
 21
345.78474563397901
 31
0.0
  0
ARC
  5
1E894
  8
KI2
 10
756.81597380559754
 20
345.78474563397901
 30
0.0
 40
3.0
 50
270.0
 51
0.0
1001
GENIUS_GENODEF_13
1002
{
1000
HIER
1070
     0
1002
}
1002
{
1000
MANEDIT
1070
     0
1002
}
1002
{
1000
NOSEL
1070
     0
1002
}
1002
{
1000
BEHIND
1070
     0
1002
}
1002
{
1000
OTHER
1070
     0
1002
}
1002
{
1000
REACTOR
1002
}
1001
GENIUS_GENOBJ-N-FIL_13
1002
{
1000
OWNER
1000
GEN
1002
}
  0
ARC
  5
1E895
  8
KI2
 10
756.81597380559754
 20
345.78474563397901
 30
0.0
 40
2.2999999999999989
 50
270.0
 51
0.0
1001
GENIUS_GENODEF_13
1002
{
1000
HIER
1070
     0
1002
}
1002
{
1000
MANEDIT
1070
     0
1002
}
1002
{
1000
NOSEL
1070
     0
1002
}
1002
{
1000
BEHIND
1070
     0
1002
}
1002
{
1000
OTHER
1070
     0
1002
}
1002
{
1000
REACTOR
1002
}
1001
GENIUS_GENOBJ-N-FIL_13
1002
{
1000
OWNER
1000
GEN
1002
}
  0
ARC
  5
1E896
  8
KI2
 10
756.81597380559754
 20
356.18474708452868
 30
0.0
 40
3.0
 50
0.0
 51
90.000013851727005
1001
GENIUS_GENODEF_13
1002
{
1000
HIER
1070
     0
1002
}
1002
{
1000
MANEDIT
1070
     0
1002
}
1002
{
1000
NOSEL
1070
     0
1002
}
1002
{
1000
BEHIND
1070
     0
1002
}
1002
{
1000
OTHER
1070
     0
1002
}
1002
{
1000
REACTOR
1002
}
1001
GENIUS_GENOBJ-N-FIL_13
1002
{
1000
OWNER
1000
GEN
1002
}
  0
ARC
  5
1E897
  8
KI2
 10
756.81597380559754
 20
356.18474708452868
 30
0.0
 40
2.2999999999999989
 50
0.0
 51
90.000013851727005
1001
GENIUS_GENODEF_13
1002
{
1000
HIER
1070
     0
1002
}
1002
{
1000
MANEDIT
1070
     0
1002
}
1002
{
1000
NOSEL
1070
     0
1002
}
1002
{
1000
BEHIND
1070
     0
1002
}
1002
{
1000
OTHER
1070
     0
1002
}
1002
{
1000
REACTOR
1002
}
1001
GENIUS_GENOBJ-N-FIL_13
1002
{
1000
OWNER
1000
GEN
1002
}
  0
LINE
  5
1E898
  8
KI2
 10
715.81596184595389
 20
323.18474901315869
 30
0.0
 11
715.81596184595389
 21
322.48474901315871
 31
0.0
  0
LINE
  5
1E899
  8
KI2
 10
709.81596581078963
 20
323.18474901315869
 30
0.0
 11
715.81596184595389
 21
323.18474901315869
 31
0.0
  0
LINE
  5
1E89A
  8
KI2
 10
709.81596581078963
 20
322.48474901315871
 30
0.0
 11
715.81596184595389
 21
322.48474901315871
 31
0.0
  0
LINE
  5
1E89B
  8
KI2
 10
715.8159671646273
 20
307.48474901315848
 30
0.0
 11
715.81596733385788
 21
306.78474901315872
 31
0.0
  0
LINE
  5
1E89C
  8
KI2
 10
715.81596733385788
 20
306.78474901315872
 30
0.0
 11
709.81596653606425
 21
306.78474756260903
 31
0.0
  0
LINE
  5
1E89D
  8
KI2
 10
715.8159671646273
 20
307.48474901315848
 30
0.0
 11
709.81596636683355
 21
307.48474756260902
 31
0.0
  0
LINE
  5
1E89E
  8
KI2
 10
706.81596581078963
 20
309.78474756260903
 30
0.0
 11
706.81596581078963
 21
320.18474901315881
 31
0.0
  0
LINE
  5
1E89F
  8
KI2
 10
707.51596581078968
 20
309.78474756260903
 30
0.0
 11
707.51596581078968
 21
320.18474901315881
 31
0.0
  0
ARC
  5
1E8A0
  8
KI2
 10
709.81596581078963
 20
320.18474901315881
 30
0.0
 40
3.0
 50
90.0
 51
180.0
1001
GENIUS_GENODEF_13
1002
{
1000
HIER
1070
     0
1002
}
1002
{
1000
MANEDIT
1070
     0
1002
}
1002
{
1000
NOSEL
1070
     0
1002
}
1002
{
1000
BEHIND
1070
     0
1002
}
1002
{
1000
OTHER
1070
     0
1002
}
1002
{
1000
REACTOR
1002
}
1001
GENIUS_GENOBJ-N-FIL_13
1002
{
1000
OWNER
1000
GEN
1002
}
  0
ARC
  5
1E8A1
  8
KI2
 10
709.81596581078963
 20
320.18474901315881
 30
0.0
 40
2.2999999999999989
 50
90.0
 51
180.0
1001
GENIUS_GENODEF_13
1002
{
1000
HIER
1070
     0
1002
}
1002
{
1000
MANEDIT
1070
     0
1002
}
1002
{
1000
NOSEL
1070
     0
1002
}
1002
{
1000
BEHIND
1070
     0
1002
}
1002
{
1000
OTHER
1070
     0
1002
}
1002
{
1000
REACTOR
1002
}
1001
GENIUS_GENOBJ-N-FIL_13
1002
{
1000
OWNER
1000
GEN
1002
}
  0
ARC
  5
1E8A2
  8
KI2
 10
709.81596581078963
 20
309.78474756260903
 30
0.0
 40
3.0
 50
180.0
 51
270.00001385172698
1001
GENIUS_GENODEF_13
1002
{
1000
HIER
1070
     0
1002
}
1002
{
1000
MANEDIT
1070
     0
1002
}
1002
{
1000
NOSEL
1070
     0
1002
}
1002
{
1000
BEHIND
1070
     0
1002
}
1002
{
1000
OTHER
1070
     0
1002
}
1002
{
1000
REACTOR
1002
}
1001
GENIUS_GENOBJ-N-FIL_13
1002
{
1000
OWNER
1000
GEN
1002
}
  0
ARC
  5
1E8A3
  8
KI2
 10
709.81596581078963
 20
309.78474756260903
 30
0.0
 40
2.2999999999999989
 50
180.0
 51
270.00001385172698
1001
GENIUS_GENODEF_13
1002
{
1000
HIER
1070
     0
1002
}
1002
{
1000
MANEDIT
1070
     0
1002
}
1002
{
1000
NOSEL
1070
     0
1002
}
1002
{
1000
BEHIND
1070
     0
1002
}
1002
{
1000
OTHER
1070
     0
1002
}
1002
{
1000
REACTOR
1002
}
1001
GENIUS_GENOBJ-N-FIL_13
1002
{
1000
OWNER
1000
GEN
1002
}
  0
LINE
  5
1E8A4
  8
KI2
 10
888.81597777043385
 20
306.7847456339789
 30
0.0
 11
888.81597777043385
 21
307.484745633979
 31
0.0
  0
LINE
  5
1E8A5
  8
KI2
 10
894.81597380559788
 20
306.7847456339789
 30
0.0
 11
888.81597777043385
 21
306.7847456339789
 31
0.0
  0
LINE
  5
1E8A6
  8
KI2
 10
894.81597380559788
 20
307.484745633979
 30
0.0
 11
888.81597777043385
 21
307.484745633979
 31
0.0
  0
LINE
  5
1E8A7
  8
KI2
 10
888.81597245176033
 20
322.48474563397917
 30
0.0
 11
888.81597228252986
 21
323.18474563397899
 31
0.0
  0
LINE
  5
1E8A8
  8
KI2
 10
888.81597228252986
 20
323.18474563397899
 30
0.0
 11
894.81597308032326
 21
323.18474708452868
 31
0.0
  0
LINE
  5
1E8A9
  8
KI2
 10
888.81597245176033
 20
322.48474563397917
 30
0.0
 11
894.81597324955396
 21
322.48474708452869
 31
0.0
  0
LINE
  5
1E8AA
  8
KI2
 10
897.81597380559799
 20
320.18474708452868
 30
0.0
 11
897.81597380559799
 21
309.78474563397901
 31
0.0
  0
LINE
  5
1E8AB
  8
KI2
 10
897.11597380559795
 20
320.18474708452868
 30
0.0
 11
897.11597380559795
 21
309.78474563397901
 31
0.0
  0
ARC
  5
1E8AC
  8
KI2
 10
894.81597380559788
 20
309.78474563397901
 30
0.0
 40
3.0
 50
270.0
 51
0.0
1001
GENIUS_GENODEF_13
1002
{
1000
HIER
1070
     0
1002
}
1002
{
1000
MANEDIT
1070
     0
1002
}
1002
{
1000
NOSEL
1070
     0
1002
}
1002
{
1000
BEHIND
1070
     0
1002
}
1002
{
1000
OTHER
1070
     0
1002
}
1002
{
1000
REACTOR
1002
}
1001
GENIUS_GENOBJ-N-FIL_13
1002
{
1000
OWNER
1000
GEN
1002
}
  0
ARC
  5
1E8AD
  8
KI2
 10
894.81597380559788
 20
309.78474563397901
 30
0.0
 40
2.2999999999999989
 50
270.0
 51
0.0
1001
GENIUS_GENODEF_13
1002
{
1000
HIER
1070
     0
1002
}
1002
{
1000
MANEDIT
1070
     0
1002
}
1002
{
1000
NOSEL
1070
     0
1002
}
1002
{
1000
BEHIND
1070
     0
1002
}
1002
{
1000
OTHER
1070
     0
1002
}
1002
{
1000
REACTOR
1002
}
1001
GENIUS_GENOBJ-N-FIL_13
1002
{
1000
OWNER
1000
GEN
1002
}
  0
ARC
  5
1E8AE
  8
KI2
 10
894.81597380559788
 20
320.18474708452868
 30
0.0
 40
3.0
 50
0.0
 51
90.000013851727005
1001
GENIUS_GENODEF_13
1002
{
1000
HIER
1070
     0
1002
}
1002
{
1000
MANEDIT
1070
     0
1002
}
1002
{
1000
NOSEL
1070
     0
1002
}
1002
{
1000
BEHIND
1070
     0
1002
}
1002
{
1000
OTHER
1070
     0
1002
}
1002
{
1000
REACTOR
1002
}
1001
GENIUS_GENOBJ-N-FIL_13
1002
{
1000
OWNER
1000
GEN
1002
}
  0
ARC
  5
1E8AF
  8
KI2
 10
894.81597380559788
 20
320.18474708452868
 30
0.0
 40
2.2999999999999989
 50
0.0
 51
90.000013851727005
1001
GENIUS_GENODEF_13
1002
{
1000
HIER
1070
     0
1002
}
1002
{
1000
MANEDIT
1070
     0
1002
}
1002
{
1000
NOSEL
1070
     0
1002
}
1002
{
1000
BEHIND
1070
     0
1002
}
1002
{
1000
OTHER
1070
     0
1002
}
1002
{
1000
REACTOR
1002
}
1001
GENIUS_GENOBJ-N-FIL_13
1002
{
1000
OWNER
1000
GEN
1002
}
  0
LINE
  5
1E8B0
  8
KI2
 10
853.81596184595412
 20
287.1847499648897
 30
0.0
 11
853.81596184595412
 21
286.48474996488972
 31
0.0
  0
LINE
  5
1E8B1
  8
KI2
 10
847.81596581078975
 20
287.1847499648897
 30
0.0
 11
853.81596184595412
 21
287.1847499648897
 31
0.0
  0
LINE
  5
1E8B2
  8
KI2
 10
847.81596581078975
 20
286.48474996488972
 30
0.0
 11
853.81596184595412
 21
286.48474996488972
 31
0.0
  0
LINE
  5
1E8B3
  8
KI2
 10
853.81596716462741
 20
271.48474996488937
 30
0.0
 11
853.81596733385811
 21
270.78474996488961
 31
0.0
  0
LINE
  5
1E8B4
  8
KI2
 10
853.81596733385811
 20
270.78474996488961
 30
0.0
 11
847.81596653606459
 21
270.78474851433992
 31
0.0
  0
LINE
  5
1E8B5
  8
KI2
 10
853.81596716462741
 20
271.48474996488937
 30
0.0
 11
847.81596636683366
 21
271.48474851434003
 31
0.0
  0
LINE
  5
1E8B6
  8
KI2
 10
844.81596581078986
 20
273.78474851433992
 30
0.0
 11
844.81596581078986
 21
284.1847499648897
 31
0.0
  0
LINE
  5
1E8B7
  8
KI2
 10
845.51596581078979
 20
273.78474851433992
 30
0.0
 11
845.51596581078979
 21
284.1847499648897
 31
0.0
  0
ARC
  5
1E8B8
  8
KI2
 10
847.81596581078975
 20
284.1847499648897
 30
0.0
 40
3.0
 50
90.0
 51
180.0
1001
GENIUS_GENODEF_13
1002
{
1000
HIER
1070
     0
1002
}
1002
{
1000
MANEDIT
1070
     0
1002
}
1002
{
1000
NOSEL
1070
     0
1002
}
1002
{
1000
BEHIND
1070
     0
1002
}
1002
{
1000
OTHER
1070
     0
1002
}
1002
{
1000
REACTOR
1002
}
1001
GENIUS_GENOBJ-N-FIL_13
1002
{
1000
OWNER
1000
GEN
1002
}
  0
ARC
  5
1E8B9
  8
KI2
 10
847.81596581078975
 20
284.1847499648897
 30
0.0
 40
2.2999999999999989
 50
90.0
 51
180.0
1001
GENIUS_GENODEF_13
1002
{
1000
HIER
1070
     0
1002
}
1002
{
1000
MANEDIT
1070
     0
1002
}
1002
{
1000
NOSEL
1070
     0
1002
}
1002
{
1000
BEHIND
1070
     0
1002
}
1002
{
1000
OTHER
1070
     0
1002
}
1002
{
1000
REACTOR
1002
}
1001
GENIUS_GENOBJ-N-FIL_13
1002
{
1000
OWNER
1000
GEN
1002
}
  0
ARC
  5
1E8BA
  8
KI2
 10
847.81596581078975
 20
273.78474851433992
 30
0.0
 40
3.0
 50
180.0
 51
270.00001385172698
1001
GENIUS_GENODEF_13
1002
{
1000
HIER
1070
     0
1002
}
1002
{
1000
MANEDIT
1070
     0
1002
}
1002
{
1000
NOSEL
1070
     0
1002
}
1002
{
1000
BEHIND
1070
     0
1002
}
1002
{
1000
OTHER
1070
     0
1002
}
1002
{
1000
REACTOR
1002
}
1001
GENIUS_GENOBJ-N-FIL_13
1002
{
1000
OWNER
1000
GEN
1002
}
  0
ARC
  5
1E8BB
  8
KI2
 10
847.81596581078975
 20
273.78474851433992
 30
0.0
 40
2.2999999999999989
 50
180.0
 51
270.00001385172698
1001
GENIUS_GENODEF_13
1002
{
1000
HIER
1070
     0
1002
}
1002
{
1000
MANEDIT
1070
     0
1002
}
1002
{
1000
NOSEL
1070
     0
1002
}
1002
{
1000
BEHIND
1070
     0
1002
}
1002
{
1000
OTHER
1070
     0
1002
}
1002
{
1000
REACTOR
1002
}
1001
GENIUS_GENOBJ-N-FIL_13
1002
{
1000
OWNER
1000
GEN
1002
}
  0
LINE
  5
1E8BC
  8
KI2
 10
1026.8159777704341
 20
270.78474658570991
 30
0.0
 11
1026.8159777704341
 21
271.48474658571001
 31
0.0
  0
LINE
  5
1E8BD
  8
KI2
 10
1032.8159738055981
 20
270.78474658570991
 30
0.0
 11
1026.8159777704341
 21
270.78474658570991
 31
0.0
  0
LINE
  5
1E8BE
  8
KI2
 10
1032.8159738055981
 20
271.48474658571001
 30
0.0
 11
1026.8159777704341
 21
271.48474658571001
 31
0.0
  0
LINE
  5
1E8BF
  8
KI2
 10
1026.8159724517609
 20
286.48474658571018
 30
0.0
 11
1026.8159722825301
 21
287.18474658571
 31
0.0
  0
LINE
  5
1E8C0
  8
KI2
 10
1026.8159722825301
 20
287.18474658571
 30
0.0
 11
1032.8159730803229
 21
287.18474803625969
 31
0.0
  0
LINE
  5
1E8C1
  8
KI2
 10
1026.8159724517609
 20
286.48474658571018
 30
0.0
 11
1032.815973249554
 21
286.48474803625959
 31
0.0
  0
LINE
  5
1E8C2
  8
KI2
 10
1035.8159738055981
 20
284.18474803625969
 30
0.0
 11
1035.8159738055981
 21
273.78474658570991
 31
0.0
  0
LINE
  5
1E8C3
  8
KI2
 10
1035.1159738055981
 20
284.18474803625969
 30
0.0
 11
1035.1159738055981
 21
273.78474658570991
 31
0.0
  0
ARC
  5
1E8C4
  8
KI2
 10
1032.8159738055981
 20
273.78474658570991
 30
0.0
 40
3.0
 50
270.0
 51
0.0
1001
GENIUS_GENODEF_13
1002
{
1000
HIER
1070
     0
1002
}
1002
{
1000
MANEDIT
1070
     0
1002
}
1002
{
1000
NOSEL
1070
     0
1002
}
1002
{
1000
BEHIND
1070
     0
1002
}
1002
{
1000
OTHER
1070
     0
1002
}
1002
{
1000
REACTOR
1002
}
1001
GENIUS_GENOBJ-N-FIL_13
1002
{
1000
OWNER
1000
GEN
1002
}
  0
ARC
  5
1E8C5
  8
KI2
 10
1032.8159738055981
 20
273.78474658570991
 30
0.0
 40
2.2999999999999989
 50
270.0
 51
0.0
1001
GENIUS_GENODEF_13
1002
{
1000
HIER
1070
     0
1002
}
1002
{
1000
MANEDIT
1070
     0
1002
}
1002
{
1000
NOSEL
1070
     0
1002
}
1002
{
1000
BEHIND
1070
     0
1002
}
1002
{
1000
OTHER
1070
     0
1002
}
1002
{
1000
REACTOR
1002
}
1001
GENIUS_GENOBJ-N-FIL_13
1002
{
1000
OWNER
1000
GEN
1002
}
  0
ARC
  5
1E8C6
  8
KI2
 10
1032.8159738055981
 20
284.18474803625969
 30
0.0
 40
3.0
 50
0.0
 51
90.000013851727005
1001
GENIUS_GENODEF_13
1002
{
1000
HIER
1070
     0
1002
}
1002
{
1000
MANEDIT
1070
     0
1002
}
1002
{
1000
NOSEL
1070
     0
1002
}
1002
{
1000
BEHIND
1070
     0
1002
}
1002
{
1000
OTHER
1070
     0
1002
}
1002
{
1000
REACTOR
1002
}
1001
GENIUS_GENOBJ-N-FIL_13
1002
{
1000
OWNER
1000
GEN
1002
}
  0
ARC
  5
1E8C7
  8
KI2
 10
1032.8159738055981
 20
284.18474803625969
 30
0.0
 40
2.2999999999999989
 50
0.0
 51
90.000013851727005
1001
GENIUS_GENODEF_13
1002
{
1000
HIER
1070
     0
1002
}
1002
{
1000
MANEDIT
1070
     0
1002
}
1002
{
1000
NOSEL
1070
     0
1002
}
1002
{
1000
BEHIND
1070
     0
1002
}
1002
{
1000
OTHER
1070
     0
1002
}
1002
{
1000
REACTOR
1002
}
1001
GENIUS_GENOBJ-N-FIL_13
1002
{
1000
OWNER
1000
GEN
1002
}
  0
LINE
  5
1E8C8
  8
KI2
 10
577.81596184595321
 20
359.18474901315881
 30
0.0
 11
577.81596184595321
 21
358.48474901315871
 31
0.0
  0
LINE
  5
1E8C9
  8
KI2
 10
571.81596581078895
 20
359.18474901315881
 30
0.0
 11
577.81596184595321
 21
359.18474901315881
 31
0.0
  0
LINE
  5
1E8CA
  8
KI2
 10
571.81596581078895
 20
358.48474901315871
 30
0.0
 11
577.81596184595321
 21
358.48474901315871
 31
0.0
  0
LINE
  5
1E8CB
  8
KI2
 10
577.81596716462661
 20
343.48474901315848
 30
0.0
 11
577.8159673338572
 21
342.78474901315872
 31
0.0
  0
LINE
  5
1E8CC
  8
KI2
 10
577.8159673338572
 20
342.78474901315872
 30
0.0
 11
571.81596653606357
 21
342.78474756260903
 31
0.0
  0
LINE
  5
1E8CD
  8
KI2
 10
577.81596716462661
 20
343.48474901315848
 30
0.0
 11
571.81596636683287
 21
343.48474756260902
 31
0.0
  0
LINE
  5
1E8CE
  8
KI2
 10
568.81596581078895
 20
345.78474756260903
 30
0.0
 11
568.81596581078895
 21
356.18474901315869
 31
0.0
  0
LINE
  5
1E8CF
  8
KI2
 10
569.515965810789
 20
345.78474756260903
 30
0.0
 11
569.515965810789
 21
356.18474901315869
 31
0.0
  0
ARC
  5
1E8D0
  8
KI2
 10
571.81596581078895
 20
356.18474901315869
 30
0.0
 40
3.0
 50
90.0
 51
180.0
1001
GENIUS_GENODEF_13
1002
{
1000
HIER
1070
     0
1002
}
1002
{
1000
MANEDIT
1070
     0
1002
}
1002
{
1000
NOSEL
1070
     0
1002
}
1002
{
1000
BEHIND
1070
     0
1002
}
1002
{
1000
OTHER
1070
     0
1002
}
1002
{
1000
REACTOR
1002
}
1001
GENIUS_GENOBJ-N-FIL_13
1002
{
1000
OWNER
1000
GEN
1002
}
  0
ARC
  5
1E8D1
  8
KI2
 10
571.81596581078895
 20
356.18474901315869
 30
0.0
 40
2.2999999999999989
 50
90.0
 51
180.0
1001
GENIUS_GENODEF_13
1002
{
1000
HIER
1070
     0
1002
}
1002
{
1000
MANEDIT
1070
     0
1002
}
1002
{
1000
NOSEL
1070
     0
1002
}
1002
{
1000
BEHIND
1070
     0
1002
}
1002
{
1000
OTHER
1070
     0
1002
}
1002
{
1000
REACTOR
1002
}
1001
GENIUS_GENOBJ-N-FIL_13
1002
{
1000
OWNER
1000
GEN
1002
}
  0
ARC
  5
1E8D2
  8
KI2
 10
571.81596581078895
 20
345.78474756260903
 30
0.0
 40
3.0
 50
180.0
 51
270.00001385172698
1001
GENIUS_GENODEF_13
1002
{
1000
HIER
1070
     0
1002
}
1002
{
1000
MANEDIT
1070
     0
1002
}
1002
{
1000
NOSEL
1070
     0
1002
}
1002
{
1000
BEHIND
1070
     0
1002
}
1002
{
1000
OTHER
1070
     0
1002
}
1002
{
1000
REACTOR
1002
}
1001
GENIUS_GENOBJ-N-FIL_13
1002
{
1000
OWNER
1000
GEN
1002
}
  0
ARC
  5
1E8D3
  8
KI2
 10
571.81596581078895
 20
345.78474756260903
 30
0.0
 40
2.2999999999999989
 50
180.0
 51
270.00001385172698
1001
GENIUS_GENODEF_13
1002
{
1000
HIER
1070
     0
1002
}
1002
{
1000
MANEDIT
1070
     0
1002
}
1002
{
1000
NOSEL
1070
     0
1002
}
1002
{
1000
BEHIND
1070
     0
1002
}
1002
{
1000
OTHER
1070
     0
1002
}
1002
{
1000
REACTOR
1002
}
1001
GENIUS_GENOBJ-N-FIL_13
1002
{
1000
OWNER
1000
GEN
1002
}
  0
LINE
  5
1EC5D
  8
OS
 10
99.447110634857964
 20
316.10574394672591
 30
-0.0000000000000014
 11
339.44711063485789
 21
316.10574394672591
 31
-0.0000000000000014
  0
LINE
  5
1EC60
  8
OS
 10
99.447110634857964
 20
318.10574394672591
 30
-0.0000000000000014
 11
339.44711063485789
 21
318.10574394672591
 31
-0.0000000000000014
  0
LINE
  5
1EC61
  8
OS
 10
99.447110634857964
 20
322.10574394672591
 30
-0.0000000000000014
 11
339.44711063485789
 21
322.10574394672591
 31
-0.0000000000000014
  0
LINE
  5
1EC62
  8
OS
 10
99.447110634857964
 20
326.10574394672591
 30
-0.0000000000000014
 11
339.44711063485789
 21
326.10574394672591
 31
-0.0000000000000014
  0
LINE
  5
1EC64
  8
OS
 10
99.447110634857964
 20
320.10574394672591
 30
-0.0000000000000014
 11
339.44711063485789
 21
320.1057439467254
 31
-0.0000000000000014
  0
LINE
  5
1EC65
  8
OS
 10
99.447110634857964
 20
324.10574394672591
 30
-0.0000000000000014
 11
339.44711063485789
 21
324.10574394672591
 31
-0.0000000000000014
  0
LINE
  5
1EC66
  8
OS
 10
99.447110634857964
 20
328.10574394672591
 30
-0.0000000000000014
 11
339.44711063485789
 21
328.10574394672591
 31
-0.0000000000000014
  0
LINE
  5
1EC9F
  8
KI1
 10
113.9471106348586
 20
132.0772361217798
 30
-0.0000000000000014
 11
109.4471106348586
 21
124.2830074877197
 31
-0.0000000000000014
  0
LINE
  5
1ECA0
  8
KI1
 10
104.9471106348586
 20
132.0772361217798
 30
-0.0000000000000014
 11
113.9471106348586
 21
132.0772361217798
 31
-0.0000000000000014
  0
LINE
  5
1ECA1
  8
KI1
 10
109.4471106348586
 20
124.2830074877197
 30
-0.0000000000000014
 11
104.9471106348586
 21
132.0772361217798
 31
-0.0000000000000014
  0
TEXT
  5
1ECA2
  8
OS
 10
103.81496777771569
 20
136.30930748241781
 30
-0.0000000000000014
 40
7.5
  1
FL
 41
0.8299999999999999
 72
     1
 11
109.4471106348586
 21
136.30930748241781
 31
-0.0000000000000014
 73
     1
  0
LINE
  5
1ED15
  8
KI1
 10
113.9471106348586
 20
335.89997258078478
 30
-0.0000000000000014
 11
109.4471106348586
 21
328.10574394672471
 31
-0.0000000000000014
  0
LINE
  5
1ED16
  8
KI1
 10
104.9471106348586
 20
335.89997258078478
 30
-0.0000000000000014
 11
113.9471106348586
 21
335.89997258078478
 31
-0.0000000000000014
  0
LINE
  5
1ED17
  8
KI1
 10
109.4471106348586
 20
328.10574394672471
 30
-0.0000000000000014
 11
104.9471106348586
 21
335.89997258078478
 31
-0.0000000000000014
  0
TEXT
  5
1ED18
  8
OS
 10
103.81496777771569
 20
340.13204394142281
 30
-0.0000000000000014
 40
7.5
  1
FL
 41
0.8299999999999999
 72
     1
 11
109.4471106348586
 21
340.13204394142281
 31
-0.0000000000000014
 73
     1
  0
LINE
  5
1EF17
  8
SU
 10
1026.815969808194
 20
190.9847477994343
 30
0.0
 11
1035.815969808194
 21
190.9847477994343
 31
0.0
  0
LINE
  5
1EF1A
  8
SU
 10
823.42114432989013
 20
331.48474684770622
 30
0.0
 11
823.42114432989013
 21
334.48474779943149
 31
0.0
  0
LINE
  5
1EF1C
  8
SU
 10
750.81596980819324
 20
429.98474779943427
 30
0.0
 11
759.81597380559754
 21
429.98474779943427
 31
0.0
  0
LINE
  5
1EF1E
  8
SU
 10
568.81596980819324
 20
392.98474779943427
 30
0.0
 11
568.81596980819324
 21
432.98474779943461
 31
0.0
  0
LINE
  5
1EF1F
  8
SU
 10
577.81596980819324
 20
429.98474779943461
 30
0.0
 11
568.81596980819324
 21
429.98474779943461
 31
0.0
  0
LINE
  5
1EF22
  8
SU
 10
577.81596980819324
 20
368.4847468477048
 30
0.0
 11
577.81596980819324
 21
432.98474779943427
 31
0.0
  0
LINE
  5
1EF23
  8
SU
 10
750.81596980819324
 20
368.48474684770622
 30
0.0
 11
750.81596980819324
 21
432.98474779943427
 31
0.0
  0
LINE
  5
1EF24
  8
SU
 10
577.81596980819324
 20
429.98474779943427
 30
0.0
 11
750.81596980819324
 21
429.98474779943427
 31
0.0
  0
LINE
  5
1EF28
  8
SU
 10
1029.815969808194
 20
398.98474779943427
 30
0.0
 11
1029.815969808194
 21
432.98474779943461
 31
0.0
  0
LINE
  5
1EF29
  8
SU
 10
759.81597380559754
 20
357.18474708452879
 30
0.0
 11
759.81597380559754
 21
432.98474779943461
 31
0.0
  0
LINE
  5
1EF2A
  8
SU
 10
1029.815969808194
 20
429.98474779943461
 30
0.0
 11
759.81597380559754
 21
429.98474779943461
 31
0.0
  0
LINE
  5
1EF2E
  8
SU
 10
751.81596980819324
 20
367.48474684770622
 30
0.0
 11
826.42114432989013
 21
367.48474684770622
 31
0.0
  0
LINE
  5
1EF2F
  8
SU
 10
751.81596980819324
 20
334.48474779943149
 30
0.0
 11
826.42114432989013
 21
334.48474779943149
 31
0.0
  0
LINE
  5
1EF30
  8
SU
 10
823.42114432989013
 20
367.48474684770622
 30
0.0
 11
823.42114432989013
 21
334.48474779943149
 31
0.0
  0
LINE
  5
1EF34
  8
SU
 10
852.8159698081937
 20
295.48474779943712
 30
0.0
 11
820.42114432989001
 21
295.48474779943712
 31
0.0
  0
LINE
  5
1EF35
  8
SU
 10
852.92114432989047
 20
262.4847487511625
 30
0.0
 11
820.42114432989001
 21
262.4847487511625
 31
0.0
  0
LINE
  5
1EF36
  8
SU
 10
823.42114432989013
 20
295.48474779943712
 30
0.0
 11
823.42114432989013
 21
262.4847487511625
 31
0.0
  0
LINE
  5
1EF3A
  8
SU
 10
823.42114432989013
 20
298.4847477994316
 30
0.0
 11
823.42114432989013
 21
295.48474779944269
 31
0.0
  0
LINE
  5
1EF3C
  8
SU
 10
852.8159698081937
 20
298.4847477994316
 30
0.0
 11
820.42114432989001
 21
298.4847477994316
 31
0.0
  0
LINE
  5
1EF3D
  8
SU
 10
751.81596980819324
 20
331.48474684770622
 30
0.0
 11
826.42114432989013
 21
331.48474684770622
 31
0.0
  0
LINE
  5
1EF3E
  8
SU
 10
823.42114432989013
 20
298.4847477994316
 30
0.0
 11
823.42114432989013
 21
331.48474684770622
 31
0.0
  0
LINE
  5
1EF42
  8
SU
 10
715.81596980819324
 20
297.4847477994316
 30
0.0
 11
715.81596980819324
 21
207.9847477994343
 31
0.0
  0
LINE
  5
1EF43
  8
SU
 10
750.81596980819324
 20
261.48474779943149
 30
0.0
 11
750.81596980819324
 21
207.9847477994343
 31
0.0
  0
LINE
  5
1EF44
  8
SU
 10
715.81596980819324
 20
210.9847477994343
 30
0.0
 11
750.81596980819324
 21
210.9847477994343
 31
0.0
  0
LINE
  5
1EF48
  8
SU
 10
1025.815969808194
 20
164.98474779943419
 30
0.0
 11
1035.815969808194
 21
170.98474779943419
 31
0.0
  0
LINE
  5
1EF49
  8
SU
 10
1025.815969808194
 20
176.98474779943419
 30
0.0
 11
1035.815969808194
 21
170.98474779943419
 31
0.0
  0
LINE
  5
1EF4A
  8
SU
 10
1025.815969808194
 20
164.98474779943419
 30
0.0
 11
1025.815969808194
 21
176.98474779943419
 31
0.0
  0
LINE
  5
1EF4B
  8
SU
 10
1035.7482418636271
 20
170.9441110326936
 30
0.0
 11
1035.7482418636271
 21
171.02538456617449
 31
0.0
  0
LINE
  5
1EF4C
  8
SU
 10
1035.548241863627
 20
170.82411103269371
 30
0.0
 11
1035.548241863627
 21
171.14538456617441
 31
0.0
  0
LINE
  5
1EF4D
  8
SU
 10
1035.348241863627
 20
170.70411103269359
 30
0.0
 11
1035.348241863627
 21
171.26538456617459
 31
0.0
  0
LINE
  5
1EF4E
  8
SU
 10
1035.1482418636269
 20
170.5841110326937
 30
0.0
 11
1035.1482418636269
 21
171.38538456617471
 31
0.0
  0
LINE
  5
1EF4F
  8
SU
 10
1034.9482418636269
 20
170.46411103269381
 30
0.0
 11
1034.9482418636269
 21
171.5053845661746
 31
0.0
  0
LINE
  5
1EF50
  8
SU
 10
1034.7482418636271
 20
170.34411103269369
 30
0.0
 11
1034.7482418636271
 21
171.62538456617449
 31
0.0
  0
LINE
  5
1EF51
  8
SU
 10
1034.548241863627
 20
170.2241110326936
 30
0.0
 11
1034.548241863627
 21
171.74538456617461
 31
0.0
  0
LINE
  5
1EF52
  8
SU
 10
1034.348241863627
 20
170.10411103269371
 30
0.0
 11
1034.348241863627
 21
171.8653845661747
 31
0.0
  0
LINE
  5
1EF53
  8
SU
 10
1034.1482418636269
 20
169.98411103269379
 30
0.0
 11
1034.1482418636269
 21
171.98538456617459
 31
0.0
  0
LINE
  5
1EF54
  8
SU
 10
1033.9482418636269
 20
169.8641110326939
 30
0.0
 11
1033.9482418636269
 21
172.10538456617451
 31
0.0
  0
LINE
  5
1EF55
  8
SU
 10
1033.7482418636271
 20
169.74411103269361
 30
0.0
 11
1033.7482418636271
 21
172.2253845661746
 31
0.0
  0
LINE
  5
1EF56
  8
SU
 10
1033.548241863627
 20
169.62411103269369
 30
0.0
 11
1033.548241863627
 21
172.34538456617469
 31
0.0
  0
LINE
  5
1EF57
  8
SU
 10
1033.348241863627
 20
169.5041110326938
 30
0.0
 11
1033.348241863627
 21
172.46538456617461
 31
0.0
  0
LINE
  5
1EF58
  8
SU
 10
1033.1482418636269
 20
169.38411103269371
 30
0.0
 11
1033.1482418636269
 21
172.5853845661745
 31
0.0
  0
LINE
  5
1EF59
  8
SU
 10
1032.9482418636269
 20
169.26411103269379
 30
0.0
 11
1032.9482418636269
 21
172.70538456617459
 31
0.0
  0
LINE
  5
1EF5A
  8
SU
 10
1032.7482418636271
 20
169.14411103269359
 30
0.0
 11
1032.7482418636271
 21
172.82538456617451
 31
0.0
  0
LINE
  5
1EF5B
  8
SU
 10
1032.548241863627
 20
169.02411103269381
 30
0.0
 11
1032.548241863627
 21
172.9453845661746
 31
0.0
  0
LINE
  5
1EF5C
  8
SU
 10
1032.348241863627
 20
168.90411103269361
 30
0.0
 11
1032.348241863627
 21
173.06538456617449
 31
0.0
  0
LINE
  5
1EF5D
  8
SU
 10
1032.1482418636269
 20
168.78411103269369
 30
0.0
 11
1032.1482418636269
 21
173.1853845661746
 31
0.0
  0
LINE
  5
1EF5E
  8
SU
 10
1031.9482418636269
 20
168.6641110326936
 30
0.0
 11
1031.9482418636269
 21
173.3053845661745
 31
0.0
  0
LINE
  5
1EF5F
  8
SU
 10
1031.7482418636271
 20
168.54411103269371
 30
0.0
 11
1031.7482418636271
 21
173.42538456617461
 31
0.0
  0
LINE
  5
1EF60
  8
SU
 10
1031.548241863627
 20
168.42411103269379
 30
0.0
 11
1031.548241863627
 21
173.5453845661745
 31
0.0
  0
LINE
  5
1EF61
  8
SU
 10
1031.348241863627
 20
168.3041110326937
 30
0.0
 11
1031.348241863627
 21
173.66538456617471
 31
0.0
  0
LINE
  5
1EF62
  8
SU
 10
1031.1482418636269
 20
168.18411103269361
 30
0.0
 11
1031.1482418636269
 21
173.7853845661746
 31
0.0
  0
LINE
  5
1EF63
  8
SU
 10
1030.9482418636269
 20
168.06411103269369
 30
0.0
 11
1030.9482418636269
 21
173.90538456617469
 31
0.0
  0
LINE
  5
1EF64
  8
SU
 10
1030.7482418636271
 20
167.9441110326936
 30
0.0
 11
1030.7482418636271
 21
174.02538456617461
 31
0.0
  0
LINE
  5
1EF65
  8
SU
 10
1030.548241863627
 20
167.82411103269371
 30
0.0
 11
1030.548241863627
 21
174.14538456617441
 31
0.0
  0
LINE
  5
1EF66
  8
SU
 10
1030.348241863627
 20
167.70411103269359
 30
0.0
 11
1030.348241863627
 21
174.26538456617459
 31
0.0
  0
LINE
  5
1EF67
  8
SU
 10
1030.1482418636269
 20
167.5841110326937
 30
0.0
 11
1030.1482418636269
 21
174.38538456617471
 31
0.0
  0
LINE
  5
1EF68
  8
SU
 10
1029.9482418636269
 20
167.46411103269381
 30
0.0
 11
1029.9482418636269
 21
174.5053845661746
 31
0.0
  0
LINE
  5
1EF69
  8
SU
 10
1029.7482418636271
 20
167.34411103269369
 30
0.0
 11
1029.7482418636271
 21
174.62538456617449
 31
0.0
  0
LINE
  5
1EF6A
  8
SU
 10
1029.548241863627
 20
167.2241110326936
 30
0.0
 11
1029.548241863627
 21
174.74538456617461
 31
0.0
  0
LINE
  5
1EF6B
  8
SU
 10
1029.348241863627
 20
167.10411103269371
 30
0.0
 11
1029.348241863627
 21
174.8653845661747
 31
0.0
  0
LINE
  5
1EF6C
  8
SU
 10
1029.1482418636269
 20
166.98411103269379
 30
0.0
 11
1029.1482418636269
 21
174.98538456617459
 31
0.0
  0
LINE
  5
1EF6D
  8
SU
 10
1028.9482418636269
 20
166.8641110326939
 30
0.0
 11
1028.9482418636269
 21
175.10538456617451
 31
0.0
  0
LINE
  5
1EF6E
  8
SU
 10
1028.7482418636271
 20
166.74411103269361
 30
0.0
 11
1028.7482418636271
 21
175.2253845661746
 31
0.0
  0
LINE
  5
1EF6F
  8
SU
 10
1028.548241863627
 20
166.62411103269369
 30
0.0
 11
1028.548241863627
 21
175.34538456617469
 31
0.0
  0
LINE
  5
1EF70
  8
SU
 10
1028.348241863627
 20
166.5041110326938
 30
0.0
 11
1028.348241863627
 21
175.46538456617461
 31
0.0
  0
LINE
  5
1EF71
  8
SU
 10
1028.1482418636269
 20
166.38411103269371
 30
0.0
 11
1028.1482418636269
 21
175.5853845661745
 31
0.0
  0
LINE
  5
1EF72
  8
SU
 10
1027.9482418636269
 20
166.26411103269379
 30
0.0
 11
1027.9482418636269
 21
175.70538456617459
 31
0.0
  0
LINE
  5
1EF73
  8
SU
 10
1027.7482418636271
 20
166.1441110326937
 30
0.0
 11
1027.7482418636271
 21
175.82538456617451
 31
0.0
  0
LINE
  5
1EF74
  8
SU
 10
1027.548241863627
 20
166.02411103269381
 30
0.0
 11
1027.548241863627
 21
175.9453845661746
 31
0.0
  0
LINE
  5
1EF75
  8
SU
 10
1027.348241863627
 20
165.90411103269361
 30
0.0
 11
1027.348241863627
 21
176.06538456617449
 31
0.0
  0
LINE
  5
1EF76
  8
SU
 10
1027.1482418636269
 20
165.78411103269369
 30
0.0
 11
1027.1482418636269
 21
176.18538456617469
 31
0.0
  0
LINE
  5
1EF77
  8
SU
 10
1026.9482418636269
 20
165.6641110326936
 30
0.0
 11
1026.9482418636269
 21
176.3053845661745
 31
0.0
  0
LINE
  5
1EF78
  8
SU
 10
1026.7482418636271
 20
165.54411103269371
 30
0.0
 11
1026.7482418636271
 21
176.42538456617461
 31
0.0
  0
LINE
  5
1EF79
  8
SU
 10
1026.548241863627
 20
165.42411103269379
 30
0.0
 11
1026.548241863627
 21
176.5453845661745
 31
0.0
  0
LINE
  5
1EF7A
  8
SU
 10
1026.348241863627
 20
165.3041110326937
 30
0.0
 11
1026.348241863627
 21
176.66538456617471
 31
0.0
  0
LINE
  5
1EF7B
  8
SU
 10
1026.1482418636269
 20
165.18411103269361
 30
0.0
 11
1026.1482418636269
 21
176.78538456617451
 31
0.0
  0
LINE
  5
1EF7C
  8
SU
 10
1025.9482418636269
 20
165.06411103269369
 30
0.0
 11
1025.9482418636269
 21
176.90538456617469
 31
0.0
  0
LINE
  5
1EF7D
  8
SU
 10
578.81596980819324
 20
164.9847477994343
 30
0.0
 11
568.81596980819324
 21
170.9847477994343
 31
0.0
  0
LINE
  5
1EF7E
  8
SU
 10
578.81596980819324
 20
176.9847477994343
 30
0.0
 11
568.81596980819324
 21
170.9847477994343
 31
0.0
  0
LINE
  5
1EF7F
  8
SU
 10
578.81596980819324
 20
164.9847477994343
 30
0.0
 11
578.81596980819324
 21
176.9847477994343
 31
0.0
  0
LINE
  5
1EF80
  8
SU
 10
568.88369775276044
 20
170.94411103269371
 30
0.0
 11
568.88369775276044
 21
171.02538456617469
 31
0.0
  0
LINE
  5
1EF81
  8
SU
 10
569.08369775276014
 20
170.82411103269379
 30
0.0
 11
569.08369775276014
 21
171.14538456617461
 31
0.0
  0
LINE
  5
1EF82
  8
SU
 10
569.28369775276053
 20
170.7041110326937
 30
0.0
 11
569.28369775276053
 21
171.2653845661747
 31
0.0
  0
LINE
  5
1EF83
  8
SU
 10
569.48369775276035
 20
170.58411103269381
 30
0.0
 11
569.48369775276035
 21
171.38538456617479
 31
0.0
  0
LINE
  5
1EF84
  8
SU
 10
569.68369775276062
 20
170.46411103269389
 30
0.0
 11
569.68369775276062
 21
171.50538456617471
 31
0.0
  0
LINE
  5
1EF85
  8
SU
 10
569.88369775276044
 20
170.3441110326938
 30
0.0
 11
569.88369775276044
 21
171.6253845661746
 31
0.0
  0
LINE
  5
1EF86
  8
SU
 10
570.08369775276014
 20
170.22411103269371
 30
0.0
 11
570.08369775276014
 21
171.74538456617469
 31
0.0
  0
LINE
  5
1EF87
  8
SU
 10
570.28369775276053
 20
170.10411103269379
 30
0.0
 11
570.28369775276053
 21
171.86538456617481
 31
0.0
  0
LINE
  5
1EF88
  8
SU
 10
570.48369775276035
 20
169.9841110326939
 30
0.0
 11
570.48369775276035
 21
171.9853845661747
 31
0.0
  0
LINE
  5
1EF89
  8
SU
 10
570.68369775276062
 20
169.86411103269401
 30
0.0
 11
570.68369775276062
 21
172.10538456617459
 31
0.0
  0
LINE
  5
1EF8A
  8
SU
 10
570.88369775276044
 20
169.7441110326937
 30
0.0
 11
570.88369775276044
 21
172.22538456617471
 31
0.0
  0
LINE
  5
1EF8B
  8
SU
 10
571.08369775276014
 20
169.6241110326938
 30
0.0
 11
571.08369775276014
 21
172.3453845661748
 31
0.0
  0
LINE
  5
1EF8C
  8
SU
 10
571.28369775276053
 20
169.50411103269391
 30
0.0
 11
571.28369775276053
 21
172.46538456617469
 31
0.0
  0
LINE
  5
1EF8D
  8
SU
 10
571.48369775276035
 20
169.3841110326938
 30
0.0
 11
571.48369775276035
 21
172.58538456617461
 31
0.0
  0
LINE
  5
1EF8E
  8
SU
 10
571.68369775276062
 20
169.2641110326939
 30
0.0
 11
571.68369775276062
 21
172.7053845661747
 31
0.0
  0
LINE
  5
1EF8F
  8
SU
 10
571.88369775276044
 20
169.14411103269379
 30
0.0
 11
571.88369775276044
 21
172.82538456617459
 31
0.0
  0
LINE
  5
1EF90
  8
SU
 10
572.08369775276026
 20
169.0241110326939
 30
0.0
 11
572.08369775276026
 21
172.94538456617471
 31
0.0
  0
LINE
  5
1EF91
  8
SU
 10
572.28369775276053
 20
168.90411103269381
 30
0.0
 11
572.28369775276053
 21
173.0653845661746
 31
0.0
  0
LINE
  5
1EF92
  8
SU
 10
572.48369775276035
 20
168.78411103269389
 30
0.0
 11
572.48369775276035
 21
173.1853845661748
 31
0.0
  0
LINE
  5
1EF93
  8
SU
 10
572.68369775276062
 20
168.66411103269371
 30
0.0
 11
572.68369775276062
 21
173.30538456617461
 31
0.0
  0
LINE
  5
1EF94
  8
SU
 10
572.88369775276044
 20
168.54411103269391
 30
0.0
 11
572.88369775276044
 21
173.42538456617481
 31
0.0
  0
LINE
  5
1EF95
  8
SU
 10
573.08369775276014
 20
168.42411103269399
 30
0.0
 11
573.08369775276014
 21
173.54538456617459
 31
0.0
  0
LINE
  5
1EF96
  8
SU
 10
573.28369775276053
 20
168.30411103269381
 30
0.0
 11
573.28369775276053
 21
173.66538456617479
 31
0.0
  0
LINE
  5
1EF97
  8
SU
 10
573.48369775276035
 20
168.18411103269369
 30
0.0
 11
573.48369775276035
 21
173.78538456617471
 31
0.0
  0
LINE
  5
1EF98
  8
SU
 10
573.68369775276062
 20
168.0641110326938
 30
0.0
 11
573.68369775276062
 21
173.9053845661748
 31
0.0
  0
LINE
  5
1EF99
  8
SU
 10
573.88369775276044
 20
167.94411103269371
 30
0.0
 11
573.88369775276044
 21
174.02538456617469
 31
0.0
  0
LINE
  5
1EF9A
  8
SU
 10
574.08369775276014
 20
167.82411103269379
 30
0.0
 11
574.08369775276014
 21
174.14538456617461
 31
0.0
  0
LINE
  5
1EF9B
  8
SU
 10
574.28369775276053
 20
167.7041110326937
 30
0.0
 11
574.28369775276053
 21
174.2653845661747
 31
0.0
  0
LINE
  5
1EF9C
  8
SU
 10
574.48369775276035
 20
167.58411103269381
 30
0.0
 11
574.48369775276035
 21
174.38538456617479
 31
0.0
  0
LINE
  5
1EF9D
  8
SU
 10
574.68369775276062
 20
167.46411103269389
 30
0.0
 11
574.68369775276062
 21
174.50538456617471
 31
0.0
  0
LINE
  5
1EF9E
  8
SU
 10
574.88369775276044
 20
167.3441110326938
 30
0.0
 11
574.88369775276044
 21
174.6253845661746
 31
0.0
  0
LINE
  5
1EF9F
  8
SU
 10
575.08369775276014
 20
167.22411103269371
 30
0.0
 11
575.08369775276014
 21
174.74538456617469
 31
0.0
  0
LINE
  5
1EFA0
  8
SU
 10
575.28369775276053
 20
167.10411103269379
 30
0.0
 11
575.28369775276053
 21
174.86538456617481
 31
0.0
  0
LINE
  5
1EFA1
  8
SU
 10
575.48369775276035
 20
166.9841110326939
 30
0.0
 11
575.48369775276035
 21
174.9853845661747
 31
0.0
  0
LINE
  5
1EFA2
  8
SU
 10
575.68369775276062
 20
166.86411103269401
 30
0.0
 11
575.68369775276062
 21
175.10538456617459
 31
0.0
  0
LINE
  5
1EFA3
  8
SU
 10
575.88369775276044
 20
166.7441110326937
 30
0.0
 11
575.88369775276044
 21
175.22538456617471
 31
0.0
  0
LINE
  5
1EFA4
  8
SU
 10
576.08369775276014
 20
166.6241110326938
 30
0.0
 11
576.08369775276014
 21
175.3453845661748
 31
0.0
  0
LINE
  5
1EFA5
  8
SU
 10
576.28369775276053
 20
166.50411103269391
 30
0.0
 11
576.28369775276053
 21
175.46538456617469
 31
0.0
  0
LINE
  5
1EFA6
  8
SU
 10
576.48369775276035
 20
166.3841110326938
 30
0.0
 11
576.48369775276035
 21
175.58538456617461
 31
0.0
  0
LINE
  5
1EFA7
  8
SU
 10
576.68369775276062
 20
166.2641110326939
 30
0.0
 11
576.68369775276062
 21
175.7053845661747
 31
0.0
  0
LINE
  5
1EFA8
  8
SU
 10
576.88369775276044
 20
166.14411103269379
 30
0.0
 11
576.88369775276044
 21
175.82538456617459
 31
0.0
  0
LINE
  5
1EFA9
  8
SU
 10
577.08369775276014
 20
166.0241110326939
 30
0.0
 11
577.08369775276014
 21
175.94538456617471
 31
0.0
  0
LINE
  5
1EFAA
  8
SU
 10
577.28369775276053
 20
165.90411103269381
 30
0.0
 11
577.28369775276053
 21
176.0653845661746
 31
0.0
  0
LINE
  5
1EFAB
  8
SU
 10
577.48369775276035
 20
165.78411103269389
 30
0.0
 11
577.48369775276035
 21
176.1853845661748
 31
0.0
  0
LINE
  5
1EFAC
  8
SU
 10
577.68369775276062
 20
165.66411103269371
 30
0.0
 11
577.68369775276062
 21
176.30538456617461
 31
0.0
  0
LINE
  5
1EFAD
  8
SU
 10
577.88369775276044
 20
165.54411103269391
 30
0.0
 11
577.88369775276044
 21
176.4253845661747
 31
0.0
  0
LINE
  5
1EFAE
  8
SU
 10
578.08369775276014
 20
165.42411103269399
 30
0.0
 11
578.08369775276014
 21
176.54538456617459
 31
0.0
  0
LINE
  5
1EFAF
  8
SU
 10
578.28369775276053
 20
165.30411103269381
 30
0.0
 11
578.28369775276053
 21
176.66538456617479
 31
0.0
  0
LINE
  5
1EFB0
  8
SU
 10
578.48369775276035
 20
165.18411103269369
 30
0.0
 11
578.48369775276035
 21
176.78538456617471
 31
0.0
  0
LINE
  5
1EFB1
  8
SU
 10
578.68369775276062
 20
165.0641110326938
 30
0.0
 11
578.68369775276062
 21
176.9053845661748
 31
0.0
  0
LINE
  5
1EFB2
  8
SU
 10
1035.815969808194
 20
236.9847477994343
 30
0.0
 11
1035.815969808194
 21
167.9847477994343
 31
0.0
  0
LINE
  5
1EFB3
  8
SU
 10
568.81596980819324
 20
236.9847477994343
 30
0.0
 11
568.81596980819324
 21
167.9847477994343
 31
0.0
  0
LINE
  5
1EFB4
  8
SU
 10
1035.815969808194
 20
170.9847477994343
 30
0.0
 11
568.81596980819324
 21
170.9847477994343
 31
0.0
  0
LINE
  5
1EFB6
  8
SU
 10
888.8159698081937
 20
297.4847477994316
 30
0.0
 11
888.8159698081937
 21
207.9847477994343
 31
0.0
  0
LINE
  5
1EFB7
  8
SU
 10
853.8159698081937
 20
210.9847477994343
 30
0.0
 11
888.8159698081937
 21
210.9847477994343
 31
0.0
  0
LINE
  5
1EFBB
  8
SU
 10
1026.815969808194
 20
261.4847487511625
 30
0.0
 11
1026.815969808194
 21
187.9847477994343
 31
0.0
  0
LINE
  5
1EFBC
  8
SU
 10
853.8159698081937
 20
261.4847487511625
 30
0.0
 11
853.8159698081937
 21
187.9847477994343
 31
0.0
  0
LINE
  5
1EFBD
  8
SU
 10
1026.815969808194
 20
190.9847477994343
 30
0.0
 11
853.8159698081937
 21
190.9847477994343
 31
0.0
  0
LINE
  5
1EFC1
  8
SU
 10
202.94704608540891
 20
570.62041032103377
 30
-0.0000000000000027
 11
235.9470536520156
 21
570.62041032103377
 31
-0.0000000000000027
  0
LINE
  5
1EFC3
  8
SU
 10
238.9470536520156
 20
570.62041032103377
 30
-0.0000000000000027
 11
271.94704608540923
 21
570.62041032103377
 31
-0.0000000000000027
  0
LINE
  5
1EFC5
  8
SU
 10
405.44711063485789
 20
654.10574394563093
 30
0.0
 11
399.44711063485789
 21
664.10574394563093
 31
0.0
  0
LINE
  5
1EFC6
  8
SU
 10
393.44711063485789
 20
654.10574394563093
 30
0.0
 11
399.44711063485789
 21
664.10574394563093
 31
0.0
  0
LINE
  5
1EFC7
  8
SU
 10
405.44711063485789
 20
654.10574394563093
 30
0.0
 11
393.44711063485789
 21
654.10574394563093
 31
0.0
  0
LINE
  5
1EFC8
  8
SU
 10
399.48774740159848
 20
664.03801600106374
 30
0.0
 11
399.40647386811747
 21
664.03801600106374
 31
0.0
  0
LINE
  5
1EFC9
  8
SU
 10
399.60774740159837
 20
663.83801600106392
 30
0.0
 11
399.2864738681177
 21
663.83801600106392
 31
0.0
  0
LINE
  5
1EFCA
  8
SU
 10
399.72774740159849
 20
663.63801600106365
 30
0.0
 11
399.16647386811752
 21
663.63801600106365
 31
0.0
  0
LINE
  5
1EFCB
  8
SU
 10
399.84774740159838
 20
663.43801600106383
 30
0.0
 11
399.0464738681174
 21
663.43801600106383
 31
0.0
  0
LINE
  5
1EFCC
  8
SU
 10
399.96774740159827
 20
663.23801600106356
 30
0.0
 11
398.92647386811751
 21
663.23801600106356
 31
0.0
  0
LINE
  5
1EFCD
  8
SU
 10
400.08774740159828
 20
663.03801600106374
 30
0.0
 11
398.80647386811762
 21
663.03801600106374
 31
0.0
  0
LINE
  5
1EFCE
  8
SU
 10
400.20774740159851
 20
662.83801600106392
 30
0.0
 11
398.6864738681175
 21
662.83801600106392
 31
0.0
  0
LINE
  5
1EFCF
  8
SU
 10
400.3277474015984
 20
662.63801600106365
 30
0.0
 11
398.56647386811738
 21
662.63801600106365
 31
0.0
  0
LINE
  5
1EFD0
  8
SU
 10
400.44774740159829
 20
662.43801600106383
 30
0.0
 11
398.44647386811749
 21
662.43801600106383
 31
0.0
  0
LINE
  5
1EFD1
  8
SU
 10
400.56774740159813
 20
662.23801600106356
 30
0.0
 11
398.3264738681176
 21
662.23801600106356
 31
0.0
  0
LINE
  5
1EFD2
  8
SU
 10
400.68774740159841
 20
662.03801600106374
 30
0.0
 11
398.20647386811748
 21
662.03801600106374
 31
0.0
  0
LINE
  5
1EFD3
  8
SU
 10
400.80774740159831
 20
661.83801600106392
 30
0.0
 11
398.08647386811742
 21
661.83801600106392
 31
0.0
  0
LINE
  5
1EFD4
  8
SU
 10
400.9277474015982
 20
661.63801600106365
 30
0.0
 11
397.96647386811748
 21
661.63801600106365
 31
0.0
  0
LINE
  5
1EFD5
  8
SU
 10
401.04774740159837
 20
661.43801600106383
 30
0.0
 11
397.84647386811758
 21
661.43801600106383
 31
0.0
  0
LINE
  5
1EFD6
  8
SU
 10
401.16774740159832
 20
661.23801600106356
 30
0.0
 11
397.72647386811752
 21
661.23801600106356
 31
0.0
  0
LINE
  5
1EFD7
  8
SU
 10
401.28774740159838
 20
661.03801600106374
 30
0.0
 11
397.60647386811758
 21
661.03801600106374
 31
0.0
  0
LINE
  5
1EFD8
  8
SU
 10
401.40774740159827
 20
660.83801600106392
 30
0.0
 11
397.48647386811751
 21
660.83801600106392
 31
0.0
  0
LINE
  5
1EFD9
  8
SU
 10
401.52774740159839
 20
660.63801600106365
 30
0.0
 11
397.36647386811762
 21
660.63801600106365
 31
0.0
  0
LINE
  5
1EFDA
  8
SU
 10
401.64774740159828
 20
660.43801600106383
 30
0.0
 11
397.24647386811739
 21
660.43801600106383
 31
0.0
  0
LINE
  5
1EFDB
  8
SU
 10
401.7677474015984
 20
660.23801600106356
 30
0.0
 11
397.1264738681175
 21
660.23801600106356
 31
0.0
  0
LINE
  5
1EFDC
  8
SU
 10
401.88774740159829
 20
660.03801600106374
 30
0.0
 11
397.00647386811738
 21
660.03801600106374
 31
0.0
  0
LINE
  5
1EFDD
  8
SU
 10
402.00774740159818
 20
659.83801600106392
 30
0.0
 11
396.8864738681176
 21
659.83801600106392
 31
0.0
  0
LINE
  5
1EFDE
  8
SU
 10
402.1277474015983
 20
659.63801600106365
 30
0.0
 11
396.76647386811737
 21
659.63801600106365
 31
0.0
  0
LINE
  5
1EFDF
  8
SU
 10
402.24774740159842
 20
659.43801600106383
 30
0.0
 11
396.64647386811748
 21
659.43801600106383
 31
0.0
  0
LINE
  5
1EFE0
  8
SU
 10
402.36774740159831
 20
659.23801600106356
 30
0.0
 11
396.52647386811742
 21
659.23801600106356
 31
0.0
  0
LINE
  5
1EFE1
  8
SU
 10
402.48774740159843
 20
659.03801600106374
 30
0.0
 11
396.40647386811747
 21
659.03801600106374
 31
0.0
  0
LINE
  5
1EFE2
  8
SU
 10
402.60774740159832
 20
658.83801600106392
 30
0.0
 11
396.28647386811758
 21
658.83801600106392
 31
0.0
  0
LINE
  5
1EFE3
  8
SU
 10
402.72774740159849
 20
658.63801600106365
 30
0.0
 11
396.16647386811752
 21
658.63801600106365
 31
0.0
  0
LINE
  5
1EFE4
  8
SU
 10
402.84774740159838
 20
658.43801600106383
 30
0.0
 11
396.0464738681174
 21
658.43801600106383
 31
0.0
  0
LINE
  5
1EFE5
  8
SU
 10
402.96774740159822
 20
658.23801600106356
 30
0.0
 11
395.92647386811751
 21
658.23801600106356
 31
0.0
  0
LINE
  5
1EFE6
  8
SU
 10
403.08774740159839
 20
658.03801600106374
 30
0.0
 11
395.80647386811762
 21
658.03801600106374
 31
0.0
  0
LINE
  5
1EFE7
  8
SU
 10
403.2077474015984
 20
657.83801600106392
 30
0.0
 11
395.6864738681175
 21
657.83801600106392
 31
0.0
  0
LINE
  5
1EFE8
  8
SU
 10
403.32774740159829
 20
657.63801600106365
 30
0.0
 11
395.56647386811738
 21
657.63801600106365
 31
0.0
  0
LINE
  5
1EFE9
  8
SU
 10
403.44774740159818
 20
657.43801600106383
 30
0.0
 11
395.44647386811749
 21
657.43801600106383
 31
0.0
  0
LINE
  5
1EFEA
  8
SU
 10
403.56774740159813
 20
657.23801600106356
 30
0.0
 11
395.3264738681176
 21
657.23801600106356
 31
0.0
  0
LINE
  5
1EFEB
  8
SU
 10
403.68774740159847
 20
657.03801600106374
 30
0.0
 11
395.20647386811748
 21
657.03801600106374
 31
0.0
  0
LINE
  5
1EFEC
  8
SU
 10
403.80774740159842
 20
656.83801600106392
 30
0.0
 11
395.08647386811742
 21
656.83801600106392
 31
0.0
  0
LINE
  5
1EFED
  8
SU
 10
403.92774740159831
 20
656.63801600106365
 30
0.0
 11
394.96647386811748
 21
656.63801600106365
 31
0.0
  0
LINE
  5
1EFEE
  8
SU
 10
404.04774740159837
 20
656.43801600106383
 30
0.0
 11
394.84647386811758
 21
656.43801600106383
 31
0.0
  0
LINE
  5
1EFEF
  8
SU
 10
404.16774740159821
 20
656.23801600106356
 30
0.0
 11
394.72647386811752
 21
656.23801600106356
 31
0.0
  0
LINE
  5
1EFF0
  8
SU
 10
404.28774740159838
 20
656.03801600106374
 30
0.0
 11
394.60647386811758
 21
656.03801600106374
 31
0.0
  0
LINE
  5
1EFF1
  8
SU
 10
404.40774740159827
 20
655.83801600106392
 30
0.0
 11
394.48647386811751
 21
655.83801600106392
 31
0.0
  0
LINE
  5
1EFF2
  8
SU
 10
404.52774740159839
 20
655.63801600106365
 30
0.0
 11
394.36647386811762
 21
655.63801600106365
 31
0.0
  0
LINE
  5
1EFF3
  8
SU
 10
404.64774740159828
 20
655.43801600106383
 30
0.0
 11
394.2464738681175
 21
655.43801600106383
 31
0.0
  0
LINE
  5
1EFF4
  8
SU
 10
404.7677474015984
 20
655.23801600106356
 30
0.0
 11
394.12647386811761
 21
655.23801600106356
 31
0.0
  0
LINE
  5
1EFF5
  8
SU
 10
404.88774740159829
 20
655.03801600106374
 30
0.0
 11
394.00647386811738
 21
655.03801600106374
 31
0.0
  0
LINE
  5
1EFF6
  8
SU
 10
405.00774740159818
 20
654.83801600106392
 30
0.0
 11
393.88647386811749
 21
654.83801600106392
 31
0.0
  0
LINE
  5
1EFF7
  8
SU
 10
405.1277474015983
 20
654.63801600106365
 30
0.0
 11
393.76647386811737
 21
654.63801600106365
 31
0.0
  0
LINE
  5
1EFF8
  8
SU
 10
405.24774740159847
 20
654.43801600106383
 30
0.0
 11
393.64647386811748
 21
654.43801600106383
 31
0.0
  0
LINE
  5
1EFF9
  8
SU
 10
405.36774740159831
 20
654.23801600106356
 30
0.0
 11
393.52647386811742
 21
654.23801600106356
 31
0.0
  0
LINE
  5
1EFFA
  8
SU
 10
405.65061932503539
 20
338.1057439467258
 30
-0.0000000000000014
 11
399.65061932503551
 21
328.1057439467258
 31
-0.0000000000000014
  0
LINE
  5
1EFFB
  8
SU
 10
393.65061932503551
 20
338.1057439467258
 30
-0.0000000000000014
 11
399.65061932503551
 21
328.1057439467258
 31
-0.0000000000000014
  0
LINE
  5
1EFFC
  8
SU
 10
405.65061932503539
 20
338.1057439467258
 30
-0.0000000000000014
 11
393.65061932503551
 21
338.1057439467258
 31
-0.0000000000000014
  0
LINE
  5
1EFFD
  8
SU
 10
399.6912560917761
 20
328.17347189129299
 30
-0.0000000000000014
 11
399.60998255829509
 21
328.17347189129299
 31
-0.0000000000000014
  0
LINE
  5
1EFFE
  8
SU
 10
399.81125609177599
 20
328.37347189129281
 30
-0.0000000000000014
 11
399.4899825582952
 21
328.37347189129281
 31
-0.0000000000000014
  0
LINE
  5
1EFFF
  8
SU
 10
399.93125609177611
 20
328.57347189129308
 30
-0.0000000000000014
 11
399.36998255829508
 21
328.57347189129308
 31
-0.0000000000000014
  0
LINE
  5
1F000
  8
SU
 10
400.05125609177588
 20
328.7734718912929
 30
-0.0000000000000014
 11
399.24998255829502
 21
328.7734718912929
 31
-0.0000000000000014
  0
LINE
  5
1F001
  8
SU
 10
400.17125609177577
 20
328.97347189129317
 30
-0.0000000000000014
 11
399.12998255829513
 21
328.97347189129317
 31
-0.0000000000000014
  0
LINE
  5
1F002
  8
SU
 10
400.29125609177601
 20
329.17347189129299
 30
-0.0000000000000014
 11
399.00998255829518
 21
329.17347189129299
 31
-0.0000000000000014
  0
LINE
  5
1F003
  8
SU
 10
400.41125609177612
 20
329.37347189129281
 30
-0.0000000000000014
 11
398.88998255829512
 21
329.37347189129281
 31
-0.0000000000000014
  0
LINE
  5
1F004
  8
SU
 10
400.53125609177602
 20
329.57347189129308
 30
-0.0000000000000014
 11
398.769982558295
 21
329.57347189129308
 31
-0.0000000000000014
  0
LINE
  5
1F005
  8
SU
 10
400.65125609177591
 20
329.7734718912929
 30
-0.0000000000000014
 11
398.64998255829511
 21
329.7734718912929
 31
-0.0000000000000014
  0
LINE
  5
1F006
  8
SU
 10
400.7712560917758
 20
329.97347189129317
 30
-0.0000000000000014
 11
398.52998255829522
 21
329.97347189129317
 31
-0.0000000000000014
  0
LINE
  5
1F007
  8
SU
 10
400.89125609177609
 20
330.17347189129299
 30
-0.0000000000000014
 11
398.4099825582951
 21
330.17347189129299
 31
-0.0000000000000014
  0
LINE
  5
1F008
  8
SU
 10
401.01125609177598
 20
330.37347189129281
 30
-0.0000000000000014
 11
398.28998255829498
 21
330.37347189129281
 31
-0.0000000000000014
  0
LINE
  5
1F009
  8
SU
 10
401.13125609177592
 20
330.57347189129308
 30
-0.0000000000000014
 11
398.16998255829509
 21
330.57347189129308
 31
-0.0000000000000014
  0
LINE
  5
1F00A
  8
SU
 10
401.25125609177599
 20
330.7734718912929
 30
-0.0000000000000014
 11
398.0499825582952
 21
330.7734718912929
 31
-0.0000000000000014
  0
LINE
  5
1F00B
  8
SU
 10
401.37125609177588
 20
330.97347189129317
 30
-0.0000000000000014
 11
397.92998255829508
 21
330.97347189129317
 31
-0.0000000000000014
  0
LINE
  5
1F00C
  8
SU
 10
401.49125609177599
 20
331.17347189129299
 30
-0.0000000000000014
 11
397.80998255829519
 21
331.17347189129299
 31
-0.0000000000000014
  0
LINE
  5
1F00D
  8
SU
 10
401.61125609177589
 20
331.37347189129281
 30
-0.0000000000000014
 11
397.68998255829513
 21
331.37347189129281
 31
-0.0000000000000014
  0
LINE
  5
1F00E
  8
SU
 10
401.731256091776
 20
331.57347189129308
 30
-0.0000000000000014
 11
397.56998255829518
 21
331.57347189129308
 31
-0.0000000000000014
  0
LINE
  5
1F00F
  8
SU
 10
401.85125609177589
 20
331.7734718912929
 30
-0.0000000000000014
 11
397.44998255829512
 21
331.7734718912929
 31
-0.0000000000000014
  0
LINE
  5
1F010
  8
SU
 10
401.97125609177601
 20
331.97347189129317
 30
-0.0000000000000014
 11
397.32998255829523
 21
331.97347189129317
 31
-0.0000000000000014
  0
LINE
  5
1F011
  8
SU
 10
402.0912560917759
 20
332.17347189129299
 30
-0.0000000000000014
 11
397.20998255829511
 21
332.17347189129299
 31
-0.0000000000000014
  0
LINE
  5
1F012
  8
SU
 10
402.21125609177579
 20
332.37347189129281
 30
-0.0000000000000014
 11
397.08998255829522
 21
332.37347189129281
 31
-0.0000000000000014
  0
LINE
  5
1F013
  8
SU
 10
402.33125609177603
 20
332.57347189129308
 30
-0.0000000000000014
 11
396.96998255829499
 21
332.57347189129308
 31
-0.0000000000000014
  0
LINE
  5
1F014
  8
SU
 10
402.45125609177597
 20
332.7734718912929
 30
-0.0000000000000014
 11
396.84998255829521
 21
332.7734718912929
 31
-0.0000000000000014
  0
LINE
  5
1F015
  8
SU
 10
402.57125609177592
 20
332.97347189129317
 30
-0.0000000000000014
 11
396.72998255829509
 21
332.97347189129317
 31
-0.0000000000000014
  0
LINE
  5
1F016
  8
SU
 10
402.6912560917761
 20
333.17347189129299
 30
-0.0000000000000014
 11
396.6099825582952
 21
333.17347189129299
 31
-0.0000000000000014
  0
LINE
  5
1F017
  8
SU
 10
402.81125609177599
 20
333.37347189129281
 30
-0.0000000000000014
 11
396.48998255829531
 21
333.37347189129281
 31
-0.0000000000000014
  0
LINE
  5
1F018
  8
SU
 10
402.93125609177611
 20
333.57347189129308
 30
-0.0000000000000014
 11
396.36998255829508
 21
333.57347189129308
 31
-0.0000000000000014
  0
LINE
  5
1F019
  8
SU
 10
403.051256091776
 20
333.7734718912929
 30
-0.0000000000000014
 11
396.24998255829502
 21
333.7734718912929
 31
-0.0000000000000014
  0
LINE
  5
1F01A
  8
SU
 10
403.17125609177589
 20
333.97347189129317
 30
-0.0000000000000014
 11
396.12998255829513
 21
333.97347189129317
 31
-0.0000000000000014
  0
LINE
  5
1F01B
  8
SU
 10
403.29125609177589
 20
334.17347189129299
 30
-0.0000000000000014
 11
396.00998255829518
 21
334.17347189129299
 31
-0.0000000000000014
  0
LINE
  5
1F01C
  8
SU
 10
403.41125609177612
 20
334.37347189129281
 30
-0.0000000000000014
 11
395.88998255829512
 21
334.37347189129281
 31
-0.0000000000000014
  0
LINE
  5
1F01D
  8
SU
 10
403.53125609177602
 20
334.57347189129308
 30
-0.0000000000000014
 11
395.769982558295
 21
334.57347189129308
 31
-0.0000000000000014
  0
LINE
  5
1F01E
  8
SU
 10
403.65125609177591
 20
334.7734718912929
 30
-0.0000000000000014
 11
395.64998255829511
 21
334.7734718912929
 31
-0.0000000000000014
  0
LINE
  5
1F01F
  8
SU
 10
403.7712560917758
 20
334.97347189129317
 30
-0.0000000000000014
 11
395.52998255829522
 21
334.97347189129317
 31
-0.0000000000000014
  0
LINE
  5
1F020
  8
SU
 10
403.89125609177609
 20
335.17347189129299
 30
-0.0000000000000014
 11
395.4099825582951
 21
335.17347189129299
 31
-0.0000000000000014
  0
LINE
  5
1F021
  8
SU
 10
404.01125609177598
 20
335.37347189129281
 30
-0.0000000000000014
 11
395.28998255829498
 21
335.37347189129281
 31
-0.0000000000000014
  0
LINE
  5
1F022
  8
SU
 10
404.13125609177581
 20
335.57347189129308
 30
-0.0000000000000014
 11
395.16998255829509
 21
335.57347189129308
 31
-0.0000000000000014
  0
LINE
  5
1F023
  8
SU
 10
404.25125609177599
 20
335.7734718912929
 30
-0.0000000000000014
 11
395.0499825582952
 21
335.7734718912929
 31
-0.0000000000000014
  0
LINE
  5
1F024
  8
SU
 10
404.37125609177588
 20
335.97347189129317
 30
-0.0000000000000014
 11
394.92998255829508
 21
335.97347189129317
 31
-0.0000000000000014
  0
LINE
  5
1F025
  8
SU
 10
404.49125609177599
 20
336.17347189129299
 30
-0.0000000000000014
 11
394.80998255829519
 21
336.17347189129299
 31
-0.0000000000000014
  0
LINE
  5
1F026
  8
SU
 10
404.61125609177589
 20
336.37347189129281
 30
-0.0000000000000014
 11
394.68998255829513
 21
336.37347189129281
 31
-0.0000000000000014
  0
LINE
  5
1F027
  8
SU
 10
404.731256091776
 20
336.57347189129308
 30
-0.0000000000000014
 11
394.56998255829518
 21
336.57347189129308
 31
-0.0000000000000014
  0
LINE
  5
1F028
  8
SU
 10
404.85125609177589
 20
336.7734718912929
 30
-0.0000000000000014
 11
394.44998255829512
 21
336.7734718912929
 31
-0.0000000000000014
  0
LINE
  5
1F029
  8
SU
 10
404.97125609177601
 20
336.97347189129317
 30
-0.0000000000000014
 11
394.32998255829523
 21
336.97347189129317
 31
-0.0000000000000014
  0
LINE
  5
1F02A
  8
SU
 10
405.0912560917759
 20
337.17347189129299
 30
-0.0000000000000014
 11
394.20998255829511
 21
337.17347189129299
 31
-0.0000000000000014
  0
LINE
  5
1F02B
  8
SU
 10
405.21125609177579
 20
337.37347189129281
 30
-0.0000000000000014
 11
394.08998255829522
 21
337.37347189129281
 31
-0.0000000000000014
  0
LINE
  5
1F02C
  8
SU
 10
405.33125609177591
 20
337.57347189129308
 30
-0.0000000000000014
 11
393.96998255829499
 21
337.57347189129308
 31
-0.0000000000000014
  0
LINE
  5
1F02D
  8
SU
 10
405.45125609177609
 20
337.7734718912929
 30
-0.0000000000000014
 11
393.8499825582951
 21
337.7734718912929
 31
-0.0000000000000014
  0
LINE
  5
1F02E
  8
SU
 10
405.57125609177598
 20
337.97347189129317
 30
-0.0000000000000014
 11
393.72998255829498
 21
337.97347189129317
 31
-0.0000000000000014
  0
LINE
  5
1F02F
  8
SU
 10
405.44711063485647
 20
134.28300748772079
 30
0.0
 11
399.44711063485659
 21
124.28300748772079
 31
0.0
  0
LINE
  5
1F030
  8
SU
 10
393.44711063485659
 20
134.28300748772079
 30
0.0
 11
399.44711063485659
 21
124.28300748772079
 31
0.0
  0
LINE
  5
1F031
  8
SU
 10
405.44711063485647
 20
134.28300748772079
 30
0.0
 11
393.44711063485659
 21
134.28300748772079
 31
0.0
  0
LINE
  5
1F032
  8
SU
 10
399.48774740159718
 20
124.350735432288
 30
0.0
 11
399.40647386811622
 21
124.350735432288
 31
0.0
  0
LINE
  5
1F033
  8
SU
 10
399.60774740159712
 20
124.55073543228779
 30
0.0
 11
399.28647386811627
 21
124.55073543228779
 31
0.0
  0
LINE
  5
1F034
  8
SU
 10
399.72774740159718
 20
124.7507354322881
 30
0.0
 11
399.16647386811621
 21
124.7507354322881
 31
0.0
  0
LINE
  5
1F035
  8
SU
 10
399.84774740159708
 20
124.9507354322879
 30
0.0
 11
399.0464738681161
 21
124.9507354322879
 31
0.0
  0
LINE
  5
1F036
  8
SU
 10
399.96774740159702
 20
125.1507354322882
 30
0.0
 11
398.9264738681162
 21
125.1507354322882
 31
0.0
  0
LINE
  5
1F037
  8
SU
 10
400.08774740159703
 20
125.350735432288
 30
0.0
 11
398.80647386811631
 21
125.350735432288
 31
0.0
  0
LINE
  5
1F038
  8
SU
 10
400.2077474015972
 20
125.55073543228779
 30
0.0
 11
398.6864738681162
 21
125.55073543228779
 31
0.0
  0
LINE
  5
1F039
  8
SU
 10
400.32774740159709
 20
125.7507354322881
 30
0.0
 11
398.56647386811608
 21
125.7507354322881
 31
0.0
  0
LINE
  5
1F03A
  8
SU
 10
400.44774740159698
 20
125.9507354322879
 30
0.0
 11
398.44647386811619
 21
125.9507354322879
 31
0.0
  0
LINE
  5
1F03B
  8
SU
 10
400.56774740159688
 20
126.1507354322882
 30
0.0
 11
398.3264738681163
 21
126.1507354322882
 31
0.0
  0
LINE
  5
1F03C
  8
SU
 10
400.68774740159722
 20
126.350735432288
 30
0.0
 11
398.20647386811618
 21
126.350735432288
 31
0.0
  0
LINE
  5
1F03D
  8
SU
 10
400.80774740159711
 20
126.55073543228779
 30
0.0
 11
398.08647386811612
 21
126.55073543228779
 31
0.0
  0
LINE
  5
1F03E
  8
SU
 10
400.927747401597
 20
126.7507354322881
 30
0.0
 11
397.96647386811622
 21
126.7507354322881
 31
0.0
  0
LINE
  5
1F03F
  8
SU
 10
401.04774740159712
 20
126.9507354322879
 30
0.0
 11
397.84647386811628
 21
126.9507354322879
 31
0.0
  0
LINE
  5
1F040
  8
SU
 10
401.16774740159701
 20
127.1507354322882
 30
0.0
 11
397.72647386811622
 21
127.1507354322882
 31
0.0
  0
LINE
  5
1F041
  8
SU
 10
401.28774740159702
 20
127.350735432288
 30
0.0
 11
397.60647386811632
 21
127.350735432288
 31
0.0
  0
LINE
  5
1F042
  8
SU
 10
401.40774740159691
 20
127.55073543228779
 30
0.0
 11
397.48647386811621
 21
127.55073543228779
 31
0.0
  0
LINE
  5
1F043
  8
SU
 10
401.52774740159708
 20
127.7507354322881
 30
0.0
 11
397.36647386811632
 21
127.7507354322881
 31
0.0
  0
LINE
  5
1F044
  8
SU
 10
401.64774740159697
 20
127.9507354322879
 30
0.0
 11
397.2464738681162
 21
127.9507354322879
 31
0.0
  0
LINE
  5
1F045
  8
SU
 10
401.76774740159709
 20
128.1507354322882
 30
0.0
 11
397.12647386811631
 21
128.1507354322882
 31
0.0
  0
LINE
  5
1F046
  8
SU
 10
401.88774740159698
 20
128.35073543228799
 30
0.0
 11
397.00647386811607
 21
128.35073543228799
 31
0.0
  0
LINE
  5
1F047
  8
SU
 10
402.00774740159687
 20
128.55073543228781
 30
0.0
 11
396.88647386811618
 21
128.55073543228781
 31
0.0
  0
LINE
  5
1F048
  8
SU
 10
402.12774740159699
 20
128.75073543228811
 30
0.0
 11
396.76647386811612
 21
128.75073543228811
 31
0.0
  0
LINE
  5
1F049
  8
SU
 10
402.24774740159711
 20
128.9507354322879
 30
0.0
 11
396.64647386811617
 21
128.9507354322879
 31
0.0
  0
LINE
  5
1F04A
  8
SU
 10
402.367747401597
 20
129.1507354322882
 30
0.0
 11
396.52647386811611
 21
129.1507354322882
 31
0.0
  0
LINE
  5
1F04B
  8
SU
 10
402.48774740159712
 20
129.35073543228799
 30
0.0
 11
396.40647386811622
 21
129.35073543228799
 31
0.0
  0
LINE
  5
1F04C
  8
SU
 10
402.60774740159701
 20
129.55073543228789
 30
0.0
 11
396.28647386811627
 21
129.55073543228789
 31
0.0
  0
LINE
  5
1F04D
  8
SU
 10
402.72774740159718
 20
129.75073543228811
 30
0.0
 11
396.16647386811621
 21
129.75073543228811
 31
0.0
  0
LINE
  5
1F04E
  8
SU
 10
402.84774740159708
 20
129.9507354322879
 30
0.0
 11
396.0464738681161
 21
129.9507354322879
 31
0.0
  0
LINE
  5
1F04F
  8
SU
 10
402.96774740159691
 20
130.1507354322882
 30
0.0
 11
395.9264738681162
 21
130.1507354322882
 31
0.0
  0
LINE
  5
1F050
  8
SU
 10
403.08774740159703
 20
130.35073543228799
 30
0.0
 11
395.80647386811631
 21
130.35073543228799
 31
0.0
  0
LINE
  5
1F051
  8
SU
 10
403.2077474015972
 20
130.55073543228789
 30
0.0
 11
395.6864738681162
 21
130.55073543228789
 31
0.0
  0
LINE
  5
1F052
  8
SU
 10
403.32774740159709
 20
130.75073543228811
 30
0.0
 11
395.56647386811608
 21
130.75073543228811
 31
0.0
  0
LINE
  5
1F053
  8
SU
 10
403.44774740159698
 20
130.9507354322879
 30
0.0
 11
395.44647386811619
 21
130.9507354322879
 31
0.0
  0
LINE
  5
1F054
  8
SU
 10
403.56774740159682
 20
131.1507354322882
 30
0.0
 11
395.3264738681163
 21
131.1507354322882
 31
0.0
  0
LINE
  5
1F055
  8
SU
 10
403.68774740159711
 20
131.35073543228799
 30
0.0
 11
395.20647386811618
 21
131.35073543228799
 31
0.0
  0
LINE
  5
1F056
  8
SU
 10
403.807747401597
 20
131.55073543228781
 30
0.0
 11
395.08647386811612
 21
131.55073543228781
 31
0.0
  0
LINE
  5
1F057
  8
SU
 10
403.92774740159689
 20
131.75073543228811
 30
0.0
 11
394.96647386811622
 21
131.75073543228811
 31
0.0
  0
LINE
  5
1F058
  8
SU
 10
404.04774740159712
 20
131.9507354322879
 30
0.0
 11
394.84647386811628
 21
131.9507354322879
 31
0.0
  0
LINE
  5
1F059
  8
SU
 10
404.16774740159701
 20
132.1507354322882
 30
0.0
 11
394.72647386811622
 21
132.1507354322882
 31
0.0
  0
LINE
  5
1F05A
  8
SU
 10
404.28774740159707
 20
132.35073543228799
 30
0.0
 11
394.60647386811632
 21
132.35073543228799
 31
0.0
  0
LINE
  5
1F05B
  8
SU
 10
404.40774740159702
 20
132.55073543228781
 30
0.0
 11
394.48647386811609
 21
132.55073543228781
 31
0.0
  0
LINE
  5
1F05C
  8
SU
 10
404.52774740159708
 20
132.75073543228811
 30
0.0
 11
394.3664738681162
 21
132.75073543228811
 31
0.0
  0
LINE
  5
1F05D
  8
SU
 10
404.64774740159697
 20
132.9507354322879
 30
0.0
 11
394.24647386811608
 21
132.9507354322879
 31
0.0
  0
LINE
  5
1F05E
  8
SU
 10
404.76774740159709
 20
133.1507354322882
 30
0.0
 11
394.12647386811631
 21
133.1507354322882
 31
0.0
  0
LINE
  5
1F05F
  8
SU
 10
404.88774740159698
 20
133.35073543228799
 30
0.0
 11
394.00647386811619
 21
133.35073543228799
 31
0.0
  0
LINE
  5
1F060
  8
SU
 10
405.00774740159687
 20
133.55073543228781
 30
0.0
 11
393.8864738681163
 21
133.55073543228781
 31
0.0
  0
LINE
  5
1F061
  8
SU
 10
405.12774740159699
 20
133.75073543228811
 30
0.0
 11
393.76647386811612
 21
133.75073543228811
 31
0.0
  0
LINE
  5
1F062
  8
SU
 10
405.24774740159711
 20
133.9507354322879
 30
0.0
 11
393.64647386811617
 21
133.9507354322879
 31
0.0
  0
LINE
  5
1F063
  8
SU
 10
405.367747401597
 20
134.1507354322882
 30
0.0
 11
393.52647386811611
 21
134.1507354322882
 31
0.0
  0
LINE
  5
1F064
  8
SU
 10
270.69704608540923
 20
674.60574394563082
 30
-0.0000000000000027
 11
270.69704608540923
 21
706.6057410073613
 31
-0.0000000000000027
  0
LINE
  5
1F065
  8
SU
 10
276.29704608540931
 20
638.10574394563071
 30
-0.0000000000000027
 11
276.29704608540931
 21
706.6057410073613
 31
-0.0000000000000027
  0
LINE
  5
1F066
  8
SU
 10
270.69704608540923
 20
703.60574100736142
 30
-0.0000000000000027
 11
276.29704608540931
 21
703.60574100736142
 31
-0.0000000000000027
  0
LINE
  5
1F067
  8
SU
 10
276.29704608540931
 20
703.60574100736142
 30
-0.0000000000000027
 11
300.67037941874258
 21
703.60574100736142
 31
-0.0000000000000027
  0
LINE
  5
1F06B
  8
SU
 10
168.19704608540911
 20
674.60574394563082
 30
-0.0000000000000027
 11
168.19704608540911
 21
706.6057410073613
 31
-0.0000000000000027
  0
LINE
  5
1F06C
  8
SU
 10
162.597046085409
 20
638.10574394563071
 30
-0.0000000000000027
 11
162.597046085409
 21
706.6057410073613
 31
-0.0000000000000027
  0
LINE
  5
1F06D
  8
SU
 10
168.19704608540911
 20
703.60574100736142
 30
-0.0000000000000027
 11
162.597046085409
 21
703.60574100736142
 31
-0.0000000000000027
  0
LINE
  5
1F06E
  8
SU
 10
162.597046085409
 20
703.60574100736142
 30
-0.0000000000000027
 11
138.01037941874239
 21
703.60574100736142
 31
-0.0000000000000027
  0
LINE
  5
1F072
  8
SU
 10
166.9470536520156
 20
626.10574473009865
 30
-0.0000000000000027
 11
166.9470536520156
 21
567.37649349545154
 31
-0.0000000000000027
  0
LINE
  5
1F073
  8
SU
 10
162.597046085409
 20
623.10574424387733
 30
-0.0000000000000027
 11
162.597046085409
 21
567.37649349545154
 31
-0.0000000000000027
  0
LINE
  5
1F074
  8
SU
 10
166.9470536520156
 20
570.37649349545154
 30
-0.0000000000000027
 11
162.597046085409
 21
570.37649349545154
 31
-0.0000000000000027
  0
LINE
  5
1F075
  8
SU
 10
162.597046085409
 20
570.37649349545154
 30
-0.0000000000000027
 11
131.0303794187424
 21
570.37649349545154
 31
-0.0000000000000027
  0
LINE
  5
1F079
  8
SU
 10
162.597046085409
 20
590.62041032103377
 30
-0.0000000000000027
 11
276.29698270684952
 21
590.62041032103377
 31
-0.0000000000000027
  0
LINE
  5
1F07D
  8
SU
 10
271.9470448703338
 20
626.10574473009865
 30
-0.0000000000000027
 11
271.9470448703338
 21
567.62041032103389
 31
-0.0000000000000027
  0
LINE
  5
1F07E
  8
SU
 10
276.29698270684952
 20
623.10574424387733
 30
-0.0000000000000027
 11
276.29698270684952
 21
567.62041032103389
 31
-0.0000000000000027
  0
LINE
  5
1F07F
  8
SU
 10
271.9470448703338
 20
570.62041032103377
 30
-0.0000000000000027
 11
276.29698270684952
 21
570.62041032103377
 31
-0.0000000000000027
  0
LINE
  5
1F080
  8
SU
 10
276.29698270684952
 20
570.62041032103377
 30
-0.0000000000000027
 11
307.86364937351613
 21
570.62041032103377
 31
-0.0000000000000027
  0
LINE
  5
1F084
  8
OS
 10
168.19704608540911
 20
673.60574394563082
 30
0.0
 11
270.69704608540923
 21
673.60574394563082
 31
0.0
1001
GENIUS_GENREC_14
1002
{
1000
PYDIR
1011
168.19704608540911
1021
0.0
1031
0.0
1021
664.10574394563082
1031
-0.0000000000000014
1002
}
1002
{
1000
PXDIR
1011
270.69704608540923
1021
0.0
1031
0.0
1021
673.60574394563082
1031
-0.0000000000000014
1002
}
1002
{
1000
PORI
1011
168.19704608540911
1021
0.0
1031
0.0
1021
673.60574394563082
1031
-0.0000000000000014
1002
}
1002
{
1000
PINS
1011
168.19704608540911
1021
0.0
1031
0.0
1021
673.60574394563082
1031
-0.0000000000000014
1002
}
1002
{
1000
PINS2
1011
270.69704608540923
1021
0.0
1031
0.0
1021
664.10574394563082
1031
-0.0000000000000014
1002
}
1002
{
1000
C
1070
     1
1002
}
1001
GENIUS_GENODEF_13
1002
{
1000
HIER
1070
     0
1002
}
1002
{
1000
MANEDIT
1070
     0
1002
}
1002
{
1000
NOSEL
1070
     0
1002
}
1002
{
1000
BEHIND
1070
     0
1002
}
1002
{
1000
OTHER
1070
     0
1002
}
1002
{
1000
REACTOR
1002
}
1001
GENIUS_GENOBJ-N-REC_13
1002
{
1000
OWNER
1000
GEN
1002
}
  0
LINE
  5
1F085
  8
OS
 10
270.69704608540923
 20
673.60574394563082
 30
0.0
 11
270.69704608540923
 21
664.10574394563082
 31
0.0
1001
GENIUS_GENREC_14
1002
{
1000
PYDIR
1011
168.19704608540911
1021
0.0
1031
0.0
1021
664.10574394563082
1031
-0.0000000000000014
1002
}
1002
{
1000
PXDIR
1011
270.69704608540923
1021
0.0
1031
0.0
1021
673.60574394563082
1031
-0.0000000000000014
1002
}
1002
{
1000
PORI
1011
168.19704608540911
1021
0.0
1031
0.0
1021
673.60574394563082
1031
-0.0000000000000014
1002
}
1002
{
1000
PINS
1011
168.19704608540911
1021
0.0
1031
0.0
1021
673.60574394563082
1031
-0.0000000000000014
1002
}
1002
{
1000
PINS2
1011
270.69704608540923
1021
0.0
1031
0.0
1021
664.10574394563082
1031
-0.0000000000000014
1002
}
1002
{
1000
C
1070
     1
1002
}
1001
GENIUS_GENODEF_13
1002
{
1000
HIER
1070
     0
1002
}
1002
{
1000
MANEDIT
1070
     0
1002
}
1002
{
1000
NOSEL
1070
     0
1002
}
1002
{
1000
BEHIND
1070
     0
1002
}
1002
{
1000
OTHER
1070
     0
1002
}
1002
{
1000
REACTOR
1002
}
1001
GENIUS_GENOBJ-N-REC_13
1002
{
1000
OWNER
1000
GEN
1002
}
  0
LINE
  5
1F086
  8
OS
 10
270.69704608540923
 20
664.10574394563082
 30
0.0
 11
168.19704608540911
 21
664.10574394563082
 31
0.0
1001
GENIUS_GENREC_14
1002
{
1000
PYDIR
1011
168.19704608540911
1021
0.0
1031
0.0
1021
664.10574394563082
1031
-0.0000000000000014
1002
}
1002
{
1000
PXDIR
1011
270.69704608540923
1021
0.0
1031
0.0
1021
673.60574394563082
1031
-0.0000000000000014
1002
}
1002
{
1000
PORI
1011
168.19704608540911
1021
0.0
1031
0.0
1021
673.60574394563082
1031
-0.0000000000000014
1002
}
1002
{
1000
PINS
1011
168.19704608540911
1021
0.0
1031
0.0
1021
673.60574394563082
1031
-0.0000000000000014
1002
}
1002
{
1000
PINS2
1011
270.69704608540923
1021
0.0
1031
0.0
1021
664.10574394563082
1031
-0.0000000000000014
1002
}
1002
{
1000
C
1070
     1
1002
}
1001
GENIUS_GENODEF_13
1002
{
1000
HIER
1070
     0
1002
}
1002
{
1000
MANEDIT
1070
     0
1002
}
1002
{
1000
NOSEL
1070
     0
1002
}
1002
{
1000
BEHIND
1070
     0
1002
}
1002
{
1000
OTHER
1070
     0
1002
}
1002
{
1000
REACTOR
1002
}
1001
GENIUS_GENOBJ-N-REC_13
1002
{
1000
OWNER
1000
GEN
1002
}
  0
LINE
  5
1F087
  8
OS
 10
168.19704608540911
 20
664.10574394563082
 30
0.0
 11
168.19704608540911
 21
673.60574394563082
 31
0.0
1001
GENIUS_GENREC_14
1002
{
1000
PYDIR
1011
168.19704608540911
1021
0.0
1031
0.0
1021
664.10574394563082
1031
-0.0000000000000014
1002
}
1002
{
1000
PXDIR
1011
270.69704608540923
1021
0.0
1031
0.0
1021
673.60574394563082
1031
-0.0000000000000014
1002
}
1002
{
1000
PORI
1011
168.19704608540911
1021
0.0
1031
0.0
1021
673.60574394563082
1031
-0.0000000000000014
1002
}
1002
{
1000
PINS
1011
168.19704608540911
1021
0.0
1031
0.0
1021
673.60574394563082
1031
-0.0000000000000014
1002
}
1002
{
1000
PINS2
1011
270.69704608540923
1021
0.0
1031
0.0
1021
664.10574394563082
1031
-0.0000000000000014
1002
}
1002
{
1000
C
1070
     1
1002
}
1001
GENIUS_GENODEF_13
1002
{
1000
HIER
1070
     0
1002
}
1002
{
1000
MANEDIT
1070
     0
1002
}
1002
{
1000
NOSEL
1070
     0
1002
}
1002
{
1000
BEHIND
1070
     0
1002
}
1002
{
1000
OTHER
1070
     0
1002
}
1002
{
1000
REACTOR
1002
}
1001
GENIUS_GENOBJ-N-REC_13
1002
{
1000
OWNER
1000
GEN
1002
}
  0
LINE
  5
1F088
  8
SU
 10
270.69704608540923
 20
703.60574100736142
 30
-0.0000000000000027
 11
168.19704608540911
 21
703.60574100736142
 31
-0.0000000000000027
  0
LINE
  5
1F08A
  8
SU
 10
165.44709365201589
 20
126.183031098744
 30
-0.0000000000000027
 11
165.44709365201589
 21
161.17861459537539
 31
-0.0000000000000027
  0
LINE
  5
1F08B
  8
SU
 10
273.44709365201601
 20
126.183031098744
 30
-0.0000000000000027
 11
273.44709365201601
 21
161.17861459537539
 31
-0.0000000000000027
  0
LINE
  5
1F08C
  8
SU
 10
165.44709365201589
 20
158.17861459537539
 30
-0.0000000000000027
 11
273.44709365201601
 21
158.17861459537539
 31
-0.0000000000000027
  0
LINE
  5
1F090
  8
SU
 10
340.44711063485801
 20
112.28300748772079
 30
-0.0000000000000027
 11
402.44711063485681
 21
112.28300748772079
 31
-0.0000000000000027
  0
LINE
  5
1F091
  8
SU
 10
399.44711063485681
 20
124.28300748772079
 30
-0.0000000000000027
 11
399.44711063485681
 21
112.28300748772079
 31
-0.0000000000000027
  0
LINE
  5
1F094
  8
SU
 10
235.9470536520156
 20
586.62041032103377
 30
-0.0000000000000027
 11
235.9470536520156
 21
567.62041032103389
 31
-0.0000000000000027
  0
LINE
  5
1F095
  8
SU
 10
238.9470536520156
 20
586.62041032103377
 30
-0.0000000000000027
 11
238.9470536520156
 21
567.62041032103389
 31
-0.0000000000000027
  0
LINE
  5
1F096
  8
SU
 10
235.9470536520156
 20
570.62041032103377
 30
-0.0000000000000027
 11
238.9470536520156
 21
570.62041032103377
 31
-0.0000000000000027
  0
LINE
  5
1F09A
  8
SU
 10
174.9470536520156
 20
111.28300748772079
 30
-0.0000000000000027
 11
174.9470536520156
 21
68.129030084138321
 31
-0.0000000000000027
  0
LINE
  5
1F09B
  8
SU
 10
263.9470536520156
 20
111.28300748772079
 30
-0.0000000000000027
 11
263.9470536520156
 21
68.129030084138321
 31
-0.0000000000000027
  0
LINE
  5
1F09C
  8
SU
 10
174.9470536520156
 20
71.129030084138321
 30
-0.0000000000000027
 11
263.9470536520156
 21
71.129030084138321
 31
-0.0000000000000027
  0
LINE
  5
1F0A0
  8
SU
 10
199.9470536520156
 20
586.62041032103377
 30
-0.0000000000000027
 11
199.9470536520156
 21
567.62041032103389
 31
-0.0000000000000027
  0
LINE
  5
1F0A1
  8
SU
 10
202.9470536520156
 20
586.62041032103377
 30
-0.0000000000000027
 11
202.9470536520156
 21
567.62041032103389
 31
-0.0000000000000027
  0
LINE
  5
1F0A2
  8
SU
 10
199.9470536520156
 20
570.62041032103377
 30
-0.0000000000000027
 11
202.9470536520156
 21
570.62041032103377
 31
-0.0000000000000027
  0
LINE
  5
1F0A6
  8
SU
 10
166.9470536520156
 20
570.62041032103377
 30
-0.0000000000000027
 11
199.9470536520156
 21
570.62041032103377
 31
-0.0000000000000027
  0
LINE
  5
1F0A8
  8
SU
 10
177.24709365201591
 20
112.1354458223509
 30
-0.0000000000000027
 11
177.24709365201591
 21
88.283007487720838
 31
-0.0000000000000027
  0
LINE
  5
1F0A9
  8
SU
 10
261.64709365201531
 20
111.98303109874369
 30
-0.0000000000000027
 11
261.64709365201531
 21
88.283007487720838
 31
-0.0000000000000027
  0
LINE
  5
1F0AA
  8
SU
 10
177.24709365201591
 20
91.283007487720852
 30
-0.0000000000000027
 11
261.64709365201531
 21
91.283007487720852
 31
-0.0000000000000027
  0
LINE
  5
1F0AE
  8
SU
 10
270.44709365201641
 20
126.8830310987442
 30
-0.0000000000000027
 11
362.44711063485789
 21
126.8830310987442
 31
-0.0000000000000027
  0
LINE
  5
1F0AF
  8
SU
 10
359.44711063485801
 20
124.28300748772079
 30
-0.0000000000000027
 11
359.44711063485801
 21
126.8830310987442
 31
-0.0000000000000027
  0
LINE
  5
1F0B0
  8
SU
 10
359.44711063485801
 20
126.8830310987442
 30
-0.0000000000000027
 11
359.44711063485801
 21
151.25636443207759
 31
-0.0000000000000027
  0
LINE
  5
1F0B4
  8
SU
 10
379.44711063485693
 20
131.28300748772079
 30
-0.0000000000000027
 11
379.44711063485681
 21
124.28300748772079
 31
-0.0000000000000027
  0
LINE
  5
1F0B7
  8
SU
 10
340.44711063485801
 20
124.28300748772079
 30
-0.0000000000000027
 11
402.44711063485789
 21
124.28300748772079
 31
-0.0000000000000027
  0
LINE
  5
1F0B8
  8
SU
 10
399.44711063485801
 20
244.28300748772079
 30
-0.0000000000000027
 11
399.44711063485801
 21
124.28300748772079
 31
-0.0000000000000027
  0
LINE
  5
1F0BA
  8
SU
 10
272.9470536520156
 20
131.28300748772079
 30
-0.0000000000000027
 11
382.44711063485693
 21
131.28300748772079
 31
-0.0000000000000027
  0
LINE
  5
1F0BB
  8
SU
 10
379.44711063485693
 20
131.28300748772079
 30
-0.0000000000000027
 11
379.44711063485693
 21
244.28300748772079
 31
-0.0000000000000027
  0
LINE
  5
1F0BE
  8
SU
 10
276.79704608540931
 20
623.60574394563082
 30
-0.0000000000000027
 11
362.44711063485789
 21
623.60574394563082
 31
-0.0000000000000027
  0
LINE
  5
1F0BF
  8
SU
 10
359.44711063485801
 20
627.10574442541451
 30
-0.0000000000000027
 11
359.44711063485801
 21
623.60574394563082
 31
-0.0000000000000027
  0
LINE
  5
1F0C0
  8
SU
 10
359.44711063485801
 20
623.60574394563082
 30
-0.0000000000000027
 11
359.44711063485801
 21
599.23241061229749
 31
-0.0000000000000027
  0
LINE
  5
1F0C4
  8
SU
 10
275.99704608540918
 20
636.60574394563082
 30
-0.0000000000000027
 11
382.44711063485801
 21
636.60574394563082
 31
-0.0000000000000027
  0
LINE
  5
1F0C5
  8
SU
 10
379.44711063485801
 20
664.10574394563093
 30
-0.0000000000000027
 11
379.44711063485789
 21
636.60574394563082
 31
-0.0000000000000027
  0
LINE
  5
1F0C9
  8
SU
 10
379.44711063485789
 20
636.60574394563082
 30
-0.0000000000000027
 11
379.44711063485789
 21
627.10574442541451
 31
-0.0000000000000027
  0
LINE
  5
1F0CA
  8
SU
 10
379.44711063485789
 20
627.10574442541451
 30
-0.0000000000000027
 11
379.44711063485789
 21
602.73241109208118
 31
-0.0000000000000027
  0
LINE
  5
1F0CC
  8
SU
 10
173.4470536520154
 20
327.10574394672602
 30
-0.0000000000000027
 11
173.4470536520154
 21
292.1057439467258
 31
-0.0000000000000027
  0
LINE
  5
1F0CD
  8
SU
 10
265.4470536520156
 20
327.1057439467258
 30
-0.0000000000000027
 11
265.4470536520156
 21
292.1057439467258
 31
-0.0000000000000027
  0
LINE
  5
1F0CE
  8
SU
 10
173.4470536520154
 20
295.10574394672591
 30
-0.0000000000000027
 11
265.4470536520156
 21
295.10574394672591
 31
-0.0000000000000027
  0
LINE
  5
1F0D2
  8
SU
 10
261.74707624857399
 20
333.10573902738793
 30
-0.0000000000000027
 11
362.44711063485789
 21
333.10573902738793
 31
-0.0000000000000027
  0
LINE
  5
1F0D3
  8
SU
 10
359.44711063485801
 20
333.10573902738793
 30
-0.0000000000000027
 11
359.44711063485801
 21
328.10574394672591
 31
-0.0000000000000027
  0
LINE
  5
1F0D4
  8
SU
 10
359.44711063485801
 20
328.10574394672591
 30
-0.0000000000000027
 11
359.44711063485801
 21
312.03241061339253
 31
-0.0000000000000027
  0
LINE
  5
1F0D8
  8
SU
 10
379.4471106348567
 20
337.1057439467258
 30
-0.0000000000000027
 11
379.4471106348567
 21
328.10574394672591
 31
-0.0000000000000027
  0
LINE
  5
1F0DB
  8
SU
 10
340.44711063485801
 20
664.10574394563093
 30
-0.0000000000000027
 11
402.44711063485801
 21
664.10574394563093
 31
-0.0000000000000027
  0
LINE
  5
1F0DC
  8
SU
 10
330.44704608540923
 20
328.10574394672591
 30
-0.0000000000000027
 11
402.44711063485789
 21
328.1057439467258
 31
-0.0000000000000027
  0
LINE
  5
1F0DD
  8
SU
 10
399.44711063485812
 20
664.10574394563093
 30
-0.0000000000000027
 11
399.44711063485801
 21
328.1057439467258
 31
-0.0000000000000027
  0
LINE
  5
1F0DF
  8
SU
 10
272.947053652085
 20
337.1057439467258
 30
-0.0000000000000027
 11
382.44711063485778
 21
337.1057439467258
 31
-0.0000000000000027
  0
LINE
  5
1F0E0
  8
SU
 10
272.9470536520156
 20
627.10574442541451
 30
-0.0000000000000027
 11
382.44711063485789
 21
627.10574442541451
 31
-0.0000000000000027
  0
LINE
  5
1F0E1
  8
SU
 10
379.44711063485778
 20
337.1057439467258
 30
-0.0000000000000027
 11
379.44711063485789
 21
627.10574442541451
 31
-0.0000000000000027
  0
TEXT
  5
1F0E5
  8
SU
 10
1028.6876364748609
 20
192.28474779943431
 30
0.0
 40
7.0
  1
9
 41
0.8299999999999999
  0
TEXT
  5
1F0E7
  8
SU
 10
831.92114432989001
 20
336.95474779943169
 30
0.0
 40
7.0
  1
3
 50
90.0
 41
0.8299999999999999
  0
TEXT
  5
1F0E8
  8
SU
 10
752.68763847356195
 20
431.28474779943429
 30
0.0
 40
7.0
  1
9
 41
0.8299999999999999
  0
TEXT
  5
1F0E9
  8
SU
 10
570.68763647485991
 20
431.28474779943451
 30
0.0
 40
7.0
  1
9
 41
0.8299999999999999
  0
TEXT
  5
1F0EB
  8
SU
 10
657.81430314152647
 20
431.28474779943429
 30
0.0
 40
7.0
  1
DW
 41
0.8299999999999999
  0
TEXT
  5
1F0EE
  8
SU
 10
881.84030514022925
 20
431.28474779943451
 30
0.0
 40
7.0
  1
有効開口
 41
0.8299999999999999
  0
TEXT
  5
1F0F1
  8
SU
 10
822.12114432988994
 20
345.45141399023572
 30
0.0
 40
7.0
  1
33
 50
90.0
 41
0.8299999999999999
  0
TEXT
  5
1F0F4
  8
SU
 10
822.12114432988994
 20
273.45141494196662
 30
0.0
 40
7.0
  1
33
 50
90.0
 41
0.8299999999999999
  0
TEXT
  5
1F0F7
  8
SU
 10
821.92114432989013
 20
289.48141446610953
 30
0.0
 40
7.0
  1
3
 50
90.0
 41
0.8299999999999999
  0
TEXT
  5
1F0F8
  8
SU
 10
822.12114432988994
 20
309.45141399023572
 30
0.0
 40
7.0
  1
33
 50
90.0
 41
0.8299999999999999
  0
TEXT
  5
1F0FB
  8
SU
 10
723.90930314152661
 20
223.951414466101
 30
0.0
 40
7.0
  1
(25)
 41
0.8299999999999999
  0
TEXT
  5
1F0FC
  8
SU
 10
727.78263647485983
 20
212.28474779943431
 30
0.0
 40
7.0
  1
35
 41
0.8299999999999999
  0
TEXT
  5
1F0FF
  8
SU
 10
797.57311266533657
 20
172.28474779943431
 30
0.0
 40
10.0
  1
W
 41
0.8299999999999999
  0
TEXT
  5
1F100
  8
SU
 10
861.90930314152706
 20
223.951414466101
 30
0.0
 40
7.0
  1
(25)
 41
0.8299999999999999
  0
TEXT
  5
1F101
  8
SU
 10
865.78263647486017
 20
212.28474779943431
 30
0.0
 40
7.0
  1
35
 41
0.8299999999999999
  0
TEXT
  5
1F104
  8
SU
 10
933.81430314152738
 20
192.28474779943431
 30
0.0
 40
7.0
  1
DW
 41
0.8299999999999999
  0
TEXT
  5
1F107
  8
SU
 10
213.913716535379
 20
571.92041032103384
 30
-0.0000000000000027
 40
7.0
  1
33
 41
0.8299999999999999
  0
TEXT
  5
1F108
  8
SU
 10
249.913716535379
 20
571.92041032103384
 30
-0.0000000000000027
 40
7.0
  1
33
 41
0.8299999999999999
  0
TEXT
  5
1F109
  8
SU
 10
286.3670460854093
 20
704.90574100736126
 30
-0.0000000000000027
 40
7.0
  1
5.6
 41
0.8299999999999999
  0
TEXT
  5
1F10C
  8
SU
 10
138.48037941874239
 20
704.90574100736126
 30
-0.0000000000000027
 40
7.0
  1
5.6
 41
0.8299999999999999
  0
TEXT
  5
1F10F
  8
SU
 10
131.2237127520757
 20
574.00982682878475
 30
-0.0000000000000027
 40
7.0
  1
(4.4)
 41
0.8299999999999999
  0
TEXT
  5
1F112
  8
SU
 10
206.58201439612921
 20
591.92041032103384
 30
-0.0000000000000027
 40
7.0
  1
113.7
 41
0.8299999999999999
  0
TEXT
  5
1F115
  8
SU
 10
286.09031604018281
 20
574.2537436543671
 30
-0.0000000000000027
 40
7.0
  1
(4.4)
 41
0.8299999999999999
  0
TEXT
  5
1F118
  8
SU
 10
206.58204608540919
 20
704.90574100736126
 30
-0.0000000000000027
 40
7.0
  1
102.5
 41
0.8299999999999999
  0
TEXT
  5
1F119
  8
SU
 10
210.732093652016
 20
159.4786145953754
 30
-0.0000000000000027
 40
7.0
  1
108
 41
0.8299999999999999
  0
TEXT
  5
1F11C
  8
SU
 10
398.1471106348568
 20
112.3346741543875
 30
-0.0000000000000027
 40
7.0
  1
12
 50
90.0
 41
0.8299999999999999
  0
TEXT
  5
1F120
  8
SU
 10
241.41704608540891
 20
562.12041032103377
 30
-0.0000000000000027
 40
7.0
  1
3
 41
0.8299999999999999
  0
TEXT
  5
1F121
  8
SU
 10
214.0782393270928
 20
72.429030084138319
 30
-0.0000000000000027
 40
7.0
  1
89
 41
0.8299999999999999
  0
TEXT
  5
1F126
  8
SU
 10
205.417046085409
 20
562.12041032103377
 30
-0.0000000000000027
 40
7.0
  1
3
 41
0.8299999999999999
  0
TEXT
  5
1F127
  8
SU
 10
177.91372031868221
 20
571.92041032103384
 30
-0.0000000000000027
 40
7.0
  1
33
 41
0.8299999999999999
  0
TEXT
  5
1F128
  8
SU
 10
209.62538698534871
 20
92.583007487720835
 30
-0.0000000000000027
 40
7.0
  1
84.4
 41
0.8299999999999999
  0
TEXT
  5
1F12B
  8
SU
 10
358.14711063485788
 20
136.9530310987443
 30
-0.0000000000000027
 40
7.0
  1
2.6
 50
90.0
 41
0.8299999999999999
  0
TEXT
  5
1F12E
  8
SU
 10
378.1471106348568
 20
125.0163408210541
 30
-0.0000000000000027
 40
7.0
  1
7
 50
90.0
 41
0.8299999999999999
  0
TEXT
  5
1F130
  8
SU
 10
398.14711063485788
 20
207.2852445010121
 30
-0.0000000000000027
 40
10.0
  1
H
 50
90.0
 41
0.8299999999999999
  0
TEXT
  5
1F131
  8
SU
 10
378.1471106348568
 20
205.50812727548191
 30
-0.0000000000000027
 40
7.0
  1
DH
 50
90.0
 41
0.8299999999999999
  0
TEXT
  5
1F133
  8
SU
 10
358.14711063485788
 20
599.7024106122974
 30
-0.0000000000000027
 40
7.0
  1
3.5
 50
90.0
 41
0.8299999999999999
  0
TEXT
  5
1F136
  8
SU
 10
378.14711063485788
 20
640.67241061229743
 30
-0.0000000000000027
 40
7.0
  1
27.5
 50
90.0
 41
0.8299999999999999
  0
TEXT
  5
1F139
  8
SU
 10
378.14711063485788
 20
603.20241109208109
 30
-0.0000000000000027
 40
7.0
  1
9.5
 50
90.0
 41
0.8299999999999999
  0
TEXT
  5
1F13A
  8
SU
 10
213.9137203186821
 20
296.40574394672592
 30
-0.0000000000000027
 40
7.0
  1
92
 41
0.8299999999999999
  0
TEXT
  5
1F13D
  8
SU
 10
358.14711063485788
 20
312.50241061339261
 30
-0.0000000000000027
 40
7.0
  1
5
 50
90.0
 41
0.8299999999999999
  0
TEXT
  5
1F140
  8
SU
 10
378.14711063485669
 20
329.97741061339252
 30
-0.0000000000000027
 40
7.0
  1
9
 50
90.0
 41
0.8299999999999999
  0
TEXT
  5
1F142
  8
SU
 10
398.14711063485788
 20
478.83397502151178
 30
-0.0000000000000027
 40
10.0
  1
H
 50
90.0
 41
0.8299999999999999
  0
TEXT
  5
1F143
  8
SU
 10
378.14711063485782
 20
476.15741085273692
 30
-0.0000000000000027
 40
7.0
  1
DH
 50
90.0
 41
0.8299999999999999
  0
ARC
  5
1F146
  8
SU
 10
1035.815969808194
 20
190.9847477994343
 30
0.0
 40
0.5999999999999091
 50
180.0
 51
0.0
  0
ARC
  5
1F147
  8
SU
 10
1035.815969808194
 20
190.9847477994343
 30
0.0
 40
0.5999999999999091
 50
0.0
 51
180.0
  0
ARC
  5
1F148
  8
SU
 10
568.81596980819324
 20
429.98474779943461
 30
0.0
 40
0.6000000000000229
 50
0.0
 51
180.0
  0
ARC
  5
1F149
  8
SU
 10
568.81596980819324
 20
429.98474779943461
 30
0.0
 40
0.6000000000000229
 50
180.0
 51
0.0
  0
ARC
  5
1F14A
  8
SU
 10
750.81596980819324
 20
429.98474779943427
 30
0.0
 40
0.6000000000000229
 50
180.0
 51
0.0
  0
ARC
  5
1F14B
  8
SU
 10
750.81596980819324
 20
429.98474779943427
 30
0.0
 40
0.6000000000000229
 50
0.0
 51
180.0
  0
ARC
  5
1F14C
  8
SU
 10
577.81596980819324
 20
429.98474779943427
 30
0.0
 40
0.6000000000000229
 50
0.0
 51
180.0
  0
ARC
  5
1F14D
  8
SU
 10
577.81596980819324
 20
429.98474779943427
 30
0.0
 40
0.6000000000000229
 50
180.0
 51
0.0
  0
ARC
  5
1F14E
  8
SU
 10
759.81597380559754
 20
429.98474779943461
 30
0.0
 40
0.6000000000000229
 50
0.0
 51
180.0
  0
ARC
  5
1F14F
  8
SU
 10
759.81597380559754
 20
429.98474779943461
 30
0.0
 40
0.6000000000000229
 50
180.0
 51
0.0
  0
ARC
  5
1F150
  8
SU
 10
1029.815969808194
 20
429.98474779943461
 30
0.0
 40
0.5999999999999091
 50
180.0
 51
0.0
  0
ARC
  5
1F151
  8
SU
 10
1029.815969808194
 20
429.98474779943461
 30
0.0
 40
0.5999999999999091
 50
0.0
 51
180.0
  0
ARC
  5
1F152
  8
SU
 10
823.42114432989013
 20
334.48474779943149
 30
0.0
 40
0.6000000000000229
 50
90.0
 51
270.0
  0
ARC
  5
1F153
  8
SU
 10
823.42114432989013
 20
334.48474779943149
 30
0.0
 40
0.6000000000000229
 50
270.0
 51
90.0
  0
ARC
  5
1F154
  8
SU
 10
823.42114432989013
 20
367.48474684770622
 30
0.0
 40
0.6000000000000229
 50
270.0
 51
90.0
  0
ARC
  5
1F155
  8
SU
 10
823.42114432989013
 20
367.48474684770622
 30
0.0
 40
0.6000000000000229
 50
90.0
 51
270.0
  0
ARC
  5
1F156
  8
SU
 10
823.42114432989013
 20
262.4847487511625
 30
0.0
 40
0.6000000000000229
 50
90.0
 51
270.0
  0
ARC
  5
1F157
  8
SU
 10
823.42114432989013
 20
262.4847487511625
 30
0.0
 40
0.6000000000000229
 50
270.0
 51
90.0
  0
ARC
  5
1F158
  8
SU
 10
823.42114432989013
 20
295.48474779943712
 30
0.0
 40
0.6000000000000229
 50
270.0
 51
90.0
  0
ARC
  5
1F159
  8
SU
 10
823.42114432989013
 20
295.48474779943712
 30
0.0
 40
0.6000000000000229
 50
90.0
 51
270.0
  0
ARC
  5
1F15A
  8
SU
 10
823.42114432989013
 20
331.48474684770622
 30
0.0
 40
0.6000000000000229
 50
270.0
 51
90.0
  0
ARC
  5
1F15B
  8
SU
 10
823.42114432989013
 20
331.48474684770622
 30
0.0
 40
0.6000000000000229
 50
90.0
 51
270.0
  0
ARC
  5
1F15C
  8
SU
 10
823.42114432989013
 20
298.4847477994316
 30
0.0
 40
0.6000000000000229
 50
90.0
 51
270.0
  0
ARC
  5
1F15D
  8
SU
 10
823.42114432989013
 20
298.4847477994316
 30
0.0
 40
0.6000000000000229
 50
270.0
 51
90.0
  0
ARC
  5
1F15E
  8
SU
 10
750.81596980819324
 20
210.9847477994343
 30
0.0
 40
0.6000000000000229
 50
180.0
 51
0.0
  0
ARC
  5
1F15F
  8
SU
 10
750.81596980819324
 20
210.9847477994343
 30
0.0
 40
0.6000000000000229
 50
0.0
 51
180.0
  0
ARC
  5
1F160
  8
SU
 10
715.81596980819324
 20
210.9847477994343
 30
0.0
 40
0.6000000000000229
 50
0.0
 51
180.0
  0
ARC
  5
1F161
  8
SU
 10
715.81596980819324
 20
210.9847477994343
 30
0.0
 40
0.6000000000000229
 50
180.0
 51
0.0
  0
ARC
  5
1F162
  8
SU
 10
888.8159698081937
 20
210.9847477994343
 30
0.0
 40
0.6000000000000229
 50
180.0
 51
0.0
  0
ARC
  5
1F163
  8
SU
 10
888.8159698081937
 20
210.9847477994343
 30
0.0
 40
0.6000000000000229
 50
0.0
 51
180.0
  0
ARC
  5
1F164
  8
SU
 10
853.8159698081937
 20
210.9847477994343
 30
0.0
 40
0.6000000000000229
 50
0.0
 51
180.0
  0
ARC
  5
1F165
  8
SU
 10
853.8159698081937
 20
210.9847477994343
 30
0.0
 40
0.6000000000000229
 50
180.0
 51
0.0
  0
ARC
  5
1F166
  8
SU
 10
853.8159698081937
 20
190.9847477994343
 30
0.0
 40
0.6000000000000229
 50
0.0
 51
180.0
  0
ARC
  5
1F167
  8
SU
 10
853.8159698081937
 20
190.9847477994343
 30
0.0
 40
0.6000000000000229
 50
180.0
 51
0.0
  0
ARC
  5
1F168
  8
SU
 10
1026.815969808194
 20
190.9847477994343
 30
0.0
 40
0.5999999999999091
 50
180.0
 51
0.0
  0
ARC
  5
1F169
  8
SU
 10
1026.815969808194
 20
190.9847477994343
 30
0.0
 40
0.5999999999999091
 50
0.0
 51
180.0
  0
ARC
  5
1F16A
  8
SU
 10
276.29704608540931
 20
703.60574100736142
 30
0.0
 40
0.6000000000000229
 50
180.0
 51
0.0
  0
ARC
  5
1F16B
  8
SU
 10
276.29704608540931
 20
703.60574100736142
 30
0.0
 40
0.6000000000000229
 50
0.0
 51
180.0
  0
ARC
  5
1F16C
  8
SU
 10
270.69704608540923
 20
703.60574100736142
 30
0.0
 40
0.6000000000000229
 50
0.0
 51
180.0
  0
ARC
  5
1F16D
  8
SU
 10
270.69704608540923
 20
703.60574100736142
 30
0.0
 40
0.6000000000000229
 50
180.0
 51
0.0
  0
ARC
  5
1F16E
  8
SU
 10
162.597046085409
 20
703.60574100736142
 30
0.0
 40
0.5999999999999944
 50
0.0
 51
180.0
  0
ARC
  5
1F16F
  8
SU
 10
162.597046085409
 20
703.60574100736142
 30
0.0
 40
0.5999999999999944
 50
180.0
 51
0.0
  0
ARC
  5
1F170
  8
SU
 10
168.19704608540911
 20
703.60574100736142
 30
0.0
 40
0.5999999999999944
 50
180.0
 51
0.0
  0
ARC
  5
1F171
  8
SU
 10
168.19704608540911
 20
703.60574100736142
 30
0.0
 40
0.5999999999999944
 50
0.0
 51
180.0
  0
ARC
  5
1F172
  8
SU
 10
162.597046085409
 20
570.37649349545154
 30
0.0
 40
0.5999999999999944
 50
0.0
 51
180.0
  0
ARC
  5
1F173
  8
SU
 10
162.597046085409
 20
570.37649349545154
 30
0.0
 40
0.5999999999999944
 50
180.0
 51
0.0
  0
ARC
  5
1F174
  8
SU
 10
166.9470536520156
 20
570.37649349545154
 30
0.0
 40
0.5999999999999944
 50
180.0
 51
0.0
  0
ARC
  5
1F175
  8
SU
 10
166.9470536520156
 20
570.37649349545154
 30
0.0
 40
0.5999999999999944
 50
0.0
 51
180.0
  0
ARC
  5
1F176
  8
SU
 10
276.29698270684952
 20
590.62041032103377
 30
0.0
 40
0.6000000000000229
 50
180.0
 51
0.0
  0
ARC
  5
1F177
  8
SU
 10
276.29698270684952
 20
590.62041032103377
 30
0.0
 40
0.6000000000000229
 50
0.0
 51
180.0
  0
ARC
  5
1F178
  8
SU
 10
162.597046085409
 20
590.62041032103377
 30
0.0
 40
0.5999999999999944
 50
0.0
 51
180.0
  0
ARC
  5
1F179
  8
SU
 10
162.597046085409
 20
590.62041032103377
 30
0.0
 40
0.5999999999999944
 50
180.0
 51
0.0
  0
ARC
  5
1F17A
  8
SU
 10
276.29698270684952
 20
570.62041032103377
 30
0.0
 40
0.6000000000000229
 50
180.0
 51
0.0
  0
ARC
  5
1F17B
  8
SU
 10
276.29698270684952
 20
570.62041032103377
 30
0.0
 40
0.6000000000000229
 50
0.0
 51
180.0
  0
ARC
  5
1F17C
  8
SU
 10
271.9470448703338
 20
570.62041032103377
 30
0.0
 40
0.6000000000000229
 50
0.0
 51
180.0
  0
ARC
  5
1F17D
  8
SU
 10
271.9470448703338
 20
570.62041032103377
 30
0.0
 40
0.6000000000000229
 50
180.0
 51
0.0
  0
ARC
  5
1F17E
  8
SU
 10
273.44709365201601
 20
158.17861459537539
 30
0.0
 40
0.6000000000000229
 50
180.0
 51
0.0
  0
ARC
  5
1F17F
  8
SU
 10
273.44709365201601
 20
158.17861459537539
 30
0.0
 40
0.6000000000000229
 50
0.0
 51
180.0
  0
ARC
  5
1F180
  8
SU
 10
165.44709365201589
 20
158.17861459537539
 30
0.0
 40
0.5999999999999944
 50
0.0
 51
180.0
  0
ARC
  5
1F181
  8
SU
 10
165.44709365201589
 20
158.17861459537539
 30
0.0
 40
0.5999999999999944
 50
180.0
 51
0.0
  0
ARC
  5
1F182
  8
SU
 10
399.44711063485681
 20
112.28300748772079
 30
0.0
 40
0.5999999999999944
 50
90.0
 51
270.0
  0
ARC
  5
1F183
  8
SU
 10
399.44711063485681
 20
112.28300748772079
 30
0.0
 40
0.5999999999999944
 50
270.0
 51
90.0
  0
ARC
  5
1F184
  8
SU
 10
238.9470536520156
 20
570.62041032103377
 30
0.0
 40
0.5999999999999944
 50
180.0
 51
0.0
  0
ARC
  5
1F185
  8
SU
 10
238.9470536520156
 20
570.62041032103377
 30
0.0
 40
0.5999999999999944
 50
0.0
 51
180.0
  0
ARC
  5
1F186
  8
SU
 10
235.9470536520156
 20
570.62041032103377
 30
0.0
 40
0.5999999999999944
 50
0.0
 51
180.0
  0
ARC
  5
1F187
  8
SU
 10
235.9470536520156
 20
570.62041032103377
 30
0.0
 40
0.5999999999999944
 50
180.0
 51
0.0
  0
ARC
  5
1F188
  8
SU
 10
263.9470536520156
 20
71.129030084138321
 30
0.0
 40
0.6000000000000229
 50
180.0
 51
0.0
  0
ARC
  5
1F189
  8
SU
 10
263.9470536520156
 20
71.129030084138321
 30
0.0
 40
0.6000000000000229
 50
0.0
 51
180.0
  0
ARC
  5
1F18A
  8
SU
 10
174.9470536520156
 20
71.129030084138321
 30
0.0
 40
0.5999999999999944
 50
0.0
 51
180.0
  0
ARC
  5
1F18B
  8
SU
 10
174.9470536520156
 20
71.129030084138321
 30
0.0
 40
0.5999999999999944
 50
180.0
 51
0.0
  0
ARC
  5
1F18C
  8
SU
 10
202.9470536520156
 20
570.62041032103377
 30
0.0
 40
0.5999999999999944
 50
180.0
 51
0.0
  0
ARC
  5
1F18D
  8
SU
 10
202.9470536520156
 20
570.62041032103377
 30
0.0
 40
0.5999999999999944
 50
0.0
 51
180.0
  0
ARC
  5
1F18E
  8
SU
 10
199.9470536520156
 20
570.62041032103377
 30
0.0
 40
0.5999999999999944
 50
0.0
 51
180.0
  0
ARC
  5
1F18F
  8
SU
 10
199.9470536520156
 20
570.62041032103377
 30
0.0
 40
0.5999999999999944
 50
180.0
 51
0.0
  0
ARC
  5
1F190
  8
SU
 10
261.64709365201531
 20
91.283007487720852
 30
0.0
 40
0.6000000000000229
 50
180.0
 51
0.0
  0
ARC
  5
1F191
  8
SU
 10
261.64709365201531
 20
91.283007487720852
 30
0.0
 40
0.6000000000000229
 50
0.0
 51
180.0
  0
ARC
  5
1F192
  8
SU
 10
177.24709365201591
 20
91.283007487720852
 30
0.0
 40
0.5999999999999944
 50
0.0
 51
180.0
  0
ARC
  5
1F193
  8
SU
 10
177.24709365201591
 20
91.283007487720852
 30
0.0
 40
0.5999999999999944
 50
180.0
 51
0.0
  0
ARC
  5
1F194
  8
SU
 10
359.44711063485801
 20
126.8830310987442
 30
0.0
 40
0.5999999999999944
 50
270.0
 51
90.0
  0
ARC
  5
1F195
  8
SU
 10
359.44711063485801
 20
126.8830310987442
 30
0.0
 40
0.5999999999999944
 50
90.0
 51
270.0
  0
ARC
  5
1F196
  8
SU
 10
359.44711063485801
 20
124.28300748772079
 30
0.0
 40
0.5999999999999944
 50
90.0
 51
270.0
  0
ARC
  5
1F197
  8
SU
 10
359.44711063485801
 20
124.28300748772079
 30
0.0
 40
0.5999999999999944
 50
270.0
 51
90.0
  0
ARC
  5
1F198
  8
SU
 10
379.44711063485681
 20
124.28300748772079
 30
0.0
 40
0.5999999999999944
 50
90.0
 51
270.0
  0
ARC
  5
1F199
  8
SU
 10
379.44711063485681
 20
124.28300748772079
 30
0.0
 40
0.5999999999999944
 50
270.0
 51
90.0
  0
ARC
  5
1F19A
  8
SU
 10
379.44711063485693
 20
131.28300748772079
 30
0.0
 40
0.5999999999999944
 50
90.0
 51
270.0
  0
ARC
  5
1F19B
  8
SU
 10
379.44711063485693
 20
131.28300748772079
 30
0.0
 40
0.5999999999999944
 50
270.0
 51
90.0
  0
ARC
  5
1F19C
  8
SU
 10
359.44711063485801
 20
623.60574394563082
 30
0.0
 40
0.6000000000000229
 50
90.0
 51
270.0
  0
ARC
  5
1F19D
  8
SU
 10
359.44711063485801
 20
623.60574394563082
 30
0.0
 40
0.6000000000000229
 50
270.0
 51
90.0
  0
ARC
  5
1F19E
  8
SU
 10
359.44711063485801
 20
627.10574442541451
 30
0.0
 40
0.6000000000000229
 50
270.0
 51
90.0
  0
ARC
  5
1F19F
  8
SU
 10
359.44711063485801
 20
627.10574442541451
 30
0.0
 40
0.6000000000000229
 50
90.0
 51
270.0
  0
ARC
  5
1F1A0
  8
SU
 10
379.44711063485789
 20
636.60574394563082
 30
0.0
 40
0.6000000000000229
 50
90.0
 51
270.0
  0
ARC
  5
1F1A1
  8
SU
 10
379.44711063485789
 20
636.60574394563082
 30
0.0
 40
0.6000000000000229
 50
270.0
 51
90.0
  0
ARC
  5
1F1A2
  8
SU
 10
379.44711063485801
 20
664.10574394563093
 30
0.0
 40
0.6000000000000229
 50
270.0
 51
90.0
  0
ARC
  5
1F1A3
  8
SU
 10
379.44711063485801
 20
664.10574394563093
 30
0.0
 40
0.6000000000000229
 50
90.0
 51
270.0
  0
ARC
  5
1F1A4
  8
SU
 10
265.4470536520156
 20
295.10574394672591
 30
0.0
 40
0.6000000000000229
 50
180.0
 51
0.0
  0
ARC
  5
1F1A5
  8
SU
 10
265.4470536520156
 20
295.10574394672591
 30
0.0
 40
0.6000000000000229
 50
0.0
 51
180.0
  0
ARC
  5
1F1A6
  8
SU
 10
173.4470536520154
 20
295.10574394672591
 30
0.0
 40
0.5999999999999944
 50
0.0
 51
180.0
  0
ARC
  5
1F1A7
  8
SU
 10
173.4470536520154
 20
295.10574394672591
 30
0.0
 40
0.5999999999999944
 50
180.0
 51
0.0
  0
ARC
  5
1F1A8
  8
SU
 10
359.44711063485801
 20
328.10574394672591
 30
0.0
 40
0.6000000000000229
 50
90.0
 51
270.0
  0
ARC
  5
1F1A9
  8
SU
 10
359.44711063485801
 20
328.10574394672591
 30
0.0
 40
0.6000000000000229
 50
270.0
 51
90.0
  0
ARC
  5
1F1AA
  8
SU
 10
359.44711063485801
 20
333.10573902738793
 30
0.0
 40
0.6000000000000229
 50
270.0
 51
90.0
  0
ARC
  5
1F1AB
  8
SU
 10
359.44711063485801
 20
333.10573902738793
 30
0.0
 40
0.6000000000000229
 50
90.0
 51
270.0
  0
ARC
  5
1F1AC
  8
SU
 10
379.4471106348567
 20
328.10574394672591
 30
0.0
 40
0.6000000000000229
 50
90.0
 51
270.0
  0
ARC
  5
1F1AD
  8
SU
 10
379.4471106348567
 20
328.10574394672591
 30
0.0
 40
0.6000000000000229
 50
270.0
 51
90.0
  0
ARC
  5
1F1AE
  8
SU
 10
379.44711063485789
 20
627.10574442541451
 30
0.0
 40
0.6000000000000229
 50
270.0
 51
90.0
  0
ARC
  5
1F1AF
  8
SU
 10
379.44711063485789
 20
627.10574442541451
 30
0.0
 40
0.6000000000000229
 50
90.0
 51
270.0
  0
ARC
  5
1F1B0
  8
SU
 10
379.44711063485778
 20
337.1057439467258
 30
0.0
 40
0.6000000000000229
 50
90.0
 51
270.0
  0
ARC
  5
1F1B1
  8
SU
 10
379.44711063485778
 20
337.1057439467258
 30
0.0
 40
0.6000000000000229
 50
270.0
 51
90.0
  0
ENDSEC
  0
EOF
