  0
SECTION
  2
HEADER
  9
$ACADVER
  1
AC1009
  9
$INSBASE
 10
0.0
 20
0.0
 30
0.0
  9
$EXTMIN
 10
19.300000000000001
 20
16.25
 30
0.0
  9
$EXTMAX
 10
1165.5
 20
830.74999999999989
 30
0.0
  9
$LIMMIN
 10
0.0
 20
0.0
  9
$LIMMAX
 10
1189.0
 20
841.0
  9
$ORTHOMODE
 70
     1
  9
$REGENMODE
 70
     1
  9
$FILLMODE
 70
     1
  9
$QTEXTMODE
 70
     0
  9
$MIRRTEXT
 70
     0
  9
$DRAGMODE
 70
     2
  9
$LTSCALE
 40
1.0
  9
$OSMODE
 70
  3071
  9
$ATTMODE
 70
     1
  9
$TEXTSIZE
 40
12.5
  9
$TRACEWID
 40
1.0
  9
$TEXTSTYLE
  7
STANDARD
  9
$CLAYER
  8
0
  9
$CELTYPE
  6
BYLAYER
  9
$CECOLOR
 62
   256
  9
$DIMSCALE
 40
1.0
  9
$DIMASZ
 40
7.0
  9
$DIMEXO
 40
1.0
  9
$DIMDLI
 40
7.0
  9
$DIMRND
 40
0.0
  9
$DIMDLE
 40
0.0
  9
$DIMEXE
 40
3.0
  9
$DIMTP
 40
0.1
  9
$DIMTM
 40
0.1
  9
$DIMTXT
 40
7.0
  9
$DIMCEN
 40
0.0
  9
$DIMTSZ
 40
0.0
  9
$DIMTOL
 70
     0
  9
$DIMLIM
 70
     0
  9
$DIMTIH
 70
     0
  9
$DIMTOH
 70
     0
  9
$DIMSE1
 70
     0
  9
$DIMSE2
 70
     0
  9
$DIMTAD
 70
     1
  9
$DIMZIN
 70
     8
  9
$DIMBLK
  1
DOTSMALL
  9
$DIMASO
 70
     1
  9
$DIMSHO
 70
     1
  9
$DIMPOST
  1

  9
$DIMAPOST
  1
"
  9
$DIMALT
 70
     0
  9
$DIMALTD
 70
     2
  9
$DIMALTF
 40
0.0393701
  9
$DIMLFAC
 40
1.0
  9
$DIMTOFL
 70
     1
  9
$DIMTVP
 40
0.0
  9
$DIMTIX
 70
     0
  9
$DIMSOXD
 70
     0
  9
$DIMSAH
 70
     0
  9
$DIMBLK1
  1

  9
$DIMBLK2
  1

  9
$DIMSTYLE
  2
SANKYO
  9
$DIMCLRD
 70
   256
  9
$DIMCLRE
 70
   256
  9
$DIMCLRT
 70
   256
  9
$DIMTFAC
 40
0.71
  9
$DIMGAP
 40
1.3
  9
$LUNITS
 70
     2
  9
$LUPREC
 70
     4
  9
$SKETCHINC
 40
1.0
  9
$FILLETRAD
 40
0.4
  9
$AUNITS
 70
     0
  9
$AUPREC
 70
     0
  9
$MENU
  1
.
  9
$ELEVATION
 40
0.0
  9
$PELEVATION
 40
0.0
  9
$THICKNESS
 40
0.0
  9
$LIMCHECK
 70
     0
  9
$BLIPMODE
 70
     0
  9
$CHAMFERA
 40
10.0
  9
$CHAMFERB
 40
10.0
  9
$SKPOLY
 70
     0
  9
$TDCREATE
 40
2455110.561913426
  9
$TDUPDATE
 40
2459033.4863270139
  9
$TDINDWG
 40
1.8804203934999999
  9
$TDUSRTIMER
 40
1.8802247454000001
  9
$USRTIMER
 70
     1
  9
$ANGBASE
 50
0.0
  9
$ANGDIR
 70
     0
  9
$PDMODE
 70
     0
  9
$PDSIZE
 40
0.0
  9
$PLINEWID
 40
0.0
  9
$COORDS
 70
     2
  9
$SPLFRAME
 70
     0
  9
$SPLINETYPE
 70
     6
  9
$SPLINESEGS
 70
     8
  9
$ATTDIA
 70
     1
  9
$ATTREQ
 70
     1
  9
$HANDLING
 70
     1
  9
$HANDSEED
  5
1DC9C
  9
$SURFTAB1
 70
     6
  9
$SURFTAB2
 70
     6
  9
$SURFTYPE
 70
     6
  9
$SURFU
 70
     6
  9
$SURFV
 70
     6
  9
$UCSNAME
  2

  9
$UCSORG
 10
0.0
 20
0.0
 30
0.0
  9
$UCSXDIR
 10
1.0
 20
0.0
 30
0.0
  9
$UCSYDIR
 10
0.0
 20
1.0
 30
0.0
  9
$PUCSNAME
  2

  9
$PUCSORG
 10
0.0
 20
0.0
 30
0.0
  9
$PUCSXDIR
 10
1.0
 20
0.0
 30
0.0
  9
$PUCSYDIR
 10
0.0
 20
1.0
 30
0.0
  9
$USERI1
 70
     0
  9
$USERI2
 70
     0
  9
$USERI3
 70
     0
  9
$USERI4
 70
     0
  9
$USERI5
 70
     0
  9
$USERR1
 40
0.0
  9
$USERR2
 40
0.0
  9
$USERR3
 40
0.0
  9
$USERR4
 40
0.0
  9
$USERR5
 40
0.0
  9
$WORLDVIEW
 70
     1
  9
$SHADEDGE
 70
     3
  9
$SHADEDIF
 70
    70
  9
$TILEMODE
 70
     1
  9
$MAXACTVP
 70
    48
  9
$PLIMCHECK
 70
     0
  9
$PEXTMIN
 10
1.0000000000000000E+020
 20
1.0000000000000000E+020
 30
1.0000000000000000E+020
  9
$PEXTMAX
 10
-1.0000000000000000E+020
 20
-1.0000000000000000E+020
 30
-1.0000000000000000E+020
  9
$PLIMMIN
 10
0.0
 20
0.0
  9
$PLIMMAX
 10
420.0
 20
297.0
  9
$UNITMODE
 70
     0
  9
$VISRETAIN
 70
     1
  9
$PLINEGEN
 70
     0
  9
$PSLTSCALE
 70
     1
  0
ENDSEC
  0
SECTION
  2
TABLES
  0
TABLE
  2
VPORT
 70
     1
  0
VPORT
  2
*ACTIVE
 70
     0
 10
0.0
 20
0.0
 11
1.0
 21
1.0
 12
592.41359224346638
 22
423.48359113394218
 13
0.0
 23
0.0
 14
2.5
 24
2.5
 15
10.0
 25
10.0
 16
0.0
 26
0.0
 36
1.0
 17
0.0
 27
0.0
 37
0.0
 40
820.92390940123255
 41
2.050913838120104
 42
50.0
 43
0.0
 44
0.0
 50
0.0
 51
0.0
 71
     0
 72
   100
 73
     1
 74
     1
 75
     0
 76
     0
 77
     0
 78
     0
  0
ENDTAB
  0
TABLE
  2
LTYPE
 70
    26
  0
LTYPE
  2
CONTINUOUS
 70
     0
  3
Solid line
 72
    65
 73
     0
 40
0.0
  0
LTYPE
  2
CENTER
 70
     0
  3
Center ____ _ ____ _ ____ _ ____ _ ____ _ ____
 72
    65
 73
     4
 40
50.799999999999997
 49
31.75
 49
-6.3499999999999988
 49
6.3499999999999988
 49
-6.3499999999999988
  0
LTYPE
  2
CENTER2
 70
     0
  3
Center (.5x) ___ _ ___ _ ___ _ ___ _ ___ _ ___
 72
    65
 73
     4
 40
28.574999999999999
 49
19.050000000000001
 49
-3.1749999999999989
 49
3.1749999999999989
 49
-3.1749999999999989
  0
LTYPE
  2
PHANTOM
 70
     0
  3
Phantom ______  __  __  ______  __  __  ______
 72
    65
 73
     6
 40
63.5
 49
31.75
 49
-6.3499999999999988
 49
6.3499999999999988
 49
-6.3499999999999988
 49
6.3499999999999988
 49
-6.3499999999999988
  0
LTYPE
  2
PHANTOM2
 70
     0
  3
Phantom (.5x) ___ _ _ ___ _ _ ___ _ _ ___ _ _
 72
    65
 73
     6
 40
31.75
 49
15.875
 49
-3.1749999999999989
 49
3.1749999999999989
 49
-3.1749999999999989
 49
3.1749999999999989
 49
-3.1749999999999989
  0
LTYPE
  2
DASHED
 70
     0
  3
Dashed __ __ __ __ __ __ __ __ __ __ __ __ __ _
 72
    65
 73
     2
 40
19.050000000000001
 49
12.699999999999999
 49
-6.3499999999999988
  0
LTYPE
  2
DASHED2
 70
     0
  3
Dashed (.5x) _ _ _ _ _ _ _ _ _ _ _ _ _ _ _ _ _
 72
    65
 73
     2
 40
9.5249999999999986
 49
6.3499999999999988
 49
-3.1749999999999989
  0
LTYPE
  2
ZIGZAG
 70
     0
  3
Zig zag /\/\/\/\/\/\/\/\/\/\/\/\/\/\/\/\/\/\/\/
 72
    65
 73
     4
 40
20.32254
 49
0.00254
 49
-5.0800000000000001
 49
-10.16
 49
-5.0800000000000001
  0
LTYPE
  2
AM_ISO02W050
 70
     0
  3
__ __ __ __ __ __ __ __ __ __ __ __ __ __ __
 72
    65
 73
     2
 40
7.5
 49
6.0
 49
-1.5
  0
LTYPE
  2
AMCONSTR
 70
     0
  3
_______________________
 72
    65
 73
     2
 40
9999.0
 49
9999.0
 49
0.0
  0
LTYPE
  2
AMZIGZAG
 70
     0
  3
/\/-/\/-/\/-/\/-/\/-/\/
 72
    65
 73
     2
 40
11.0001
 49
0.0001
 49
-11.0
  0
LTYPE
  2
ACJISTGB
 70
     0
  3
__ . . __ . .
 72
    65
 73
     6
 40
9.0
 49
4.0
 49
-1.0
 49
1.0
 49
-1.0
 49
1.0
 49
-1.0
  0
LTYPE
  2
ACJISTGL
 70
     0
  3
_ _ _ _ _
 72
    65
 73
     2
 40
3.0
 49
2.0
 49
-1.0
  0
LTYPE
  2
ACISOWELD
 70
     0
  3
_ _ _ _ _
 72
    65
 73
     2
 40
2.0
 49
2.0
 49
-1.0
  0
LTYPE
  2
ACISOTGB
 70
     0
  3
__ . . __ . .
 72
    65
 73
     6
 40
9.0
 49
4.0
 49
-1.0
 49
1.0
 49
-1.0
 49
1.0
 49
-1.0
  0
LTYPE
  2
ACISOTGL
 70
     0
  3
_ _ _ _ _
 72
    65
 73
     2
 40
3.0
 49
2.0
 49
-1.0
  0
LTYPE
  2
HIDDEN
 70
     0
  3
Hidden __ __ __ __ __ __ __ __ __ __ __ __ __ _
 72
    65
 73
     2
 40
9.5249999999999986
 49
6.3499999999999988
 49
-3.1749999999999989
  0
LTYPE
  2
AM_ISO08W050
 70
     0
  3
____ . ____ . ____ . ____ . ____ . ____ . ____
 72
    65
 73
     4
 40
18.0
 49
12.0
 49
-1.5
 49
3.0
 49
-1.5
  0
LTYPE
  2
AM_ISO09W050
 70
     0
  3
_____ . . _____ . . _____ . . ____ .. ____
 72
    65
 73
     6
 40
22.5
 49
12.0
 49
-1.5
 49
3.0
 49
-1.5
 49
3.0
 49
-1.5
  0
LTYPE
  2
AM_ISO08W050X2
 70
     0
  3
__ . __ . __ . __ . __ . __
 72
    65
 73
     4
 40
9.0
 49
6.0
 49
-0.75
 49
1.5
 49
-0.75
  0
LTYPE
  2
AM_ISO02W050X2
 70
     0
  3
 _ _ _ _ _ _ _ _ _ _ _ _
 72
    65
 73
     2
 40
3.75
 49
3.0
 49
-0.75
  0
LTYPE
  2
DDM
 70
     0
  3
中点線
 72
    65
 73
     2
 40
3.0
 49
2.0
 49
-1.0
  0
LTYPE
  2
DD2
 70
     0
  3
二点鎖線
 72
    65
 73
     6
 40
12.0
 49
6.0
 49
-1.1999999999999991
 49
1.1999999999999991
 49
-1.1999999999999991
 49
1.1999999999999991
 49
-1.1999999999999991
  0
LTYPE
  2
HIDDEN2
 70
     0
  3
Hidden (.5x) _ _ _ _ _ _ _ _ _ _ _ _ _ _ _ _ _
 72
    65
 73
     2
 40
0.1875
 49
0.125
 49
-0.0625
  0
LTYPE
  2
ACANSTGB
 70
     0
  3
__ . . __ . .
 72
    65
 73
     6
 40
0.35433070866
 49
0.15748031496
 49
-0.03937007874
 49
0.03937007874
 49
-0.03937007874
 49
0.03937007874
 49
-0.03937007874
  0
LTYPE
  2
ACANSTGL
 70
     0
  3
_ _ _ _ _
 72
    65
 73
     2
 40
0.11811023622
 49
0.07874015748
 49
-0.03937007874
  0
ENDTAB
  0
TABLE
  2
LAYER
 70
    11
  0
LAYER
  2
0
 70
     0
 62
     7
  6
CONTINUOUS
  0
LAYER
  2
KI1
 70
     0
 62
     7
  6
CONTINUOUS
  0
LAYER
  2
SU
 70
     0
 62
     3
  6
CONTINUOUS
  0
LAYER
  2
MJ
 70
     0
 62
     2
  6
CONTINUOUS
  0
LAYER
  2
OS
 70
     0
 62
     2
  6
CONTINUOUS
  0
LAYER
  2
KI2
 70
     0
 62
     4
  6
CONTINUOUS
  0
LAYER
  2
PH
 70
     0
 62
     6
  6
PHANTOM2
  0
LAYER
  2
WK
 70
     4
 62
     7
  6
CONTINUOUS
  0
LAYER
  2
DEFPOINTS
 70
     1
 62
    -7
  6
CONTINUOUS
  0
LAYER
  2
TS
 70
     0
 62
     6
  6
DASHED2
  0
LAYER
  2
CL
 70
     0
 62
     4
  6
CENTER2
  0
ENDTAB
  0
TABLE
  2
STYLE
 70
     4
  0
STYLE
  2
STANDARD
 70
     0
 40
0.0
 41
0.8299999999999999
 50
0.0
 71
     0
 42
12.5
  3
romans.shx
  4
extfont.shx
  0
STYLE
  2

 70
     1
 40
0.0
 41
1.0
 50
0.0
 71
     0
 42
2.5
  3
ltypeshp.shx
  4

  0
STYLE
  2
ACISOGDT
 70
     0
 40
0.0
 41
1.0
 50
0.0
 71
     0
 42
2.5
  3
amgdt.shx
  4

  0
STYLE
  2
ACANSGDT
 70
     0
 40
0.0
 41
1.0
 50
0.0
 71
     0
 42
12.5
  3
amgdt.shx
  4

  0
ENDTAB
  0
TABLE
  2
VIEW
 70
     6
  0
VIEW
  2
AM_VIEW1
 70
     0
 40
297.5
 10
-194.33547008547001
 20
148.25
 41
457.32905982905982
 11
0.0
 21
0.0
 31
1.0
 12
0.0
 22
0.0
 32
0.0
 42
50.0
 43
0.0
 44
0.0
 50
0.0
 71
     0
  0
VIEW
  2
AM_VIEW2
 70
     0
 40
297.5
 10
189.33547008547001
 20
148.25
 41
457.32905982905982
 11
0.0
 21
0.0
 31
1.0
 12
0.0
 22
0.0
 32
0.0
 42
50.0
 43
0.0
 44
0.0
 50
0.0
 71
     0
  0
VIEW
  2
AM_VIEW3
 70
     0
 40
297.5
 10
-194.33547008547001
 20
-149.25
 41
457.32905982905982
 11
0.0
 21
0.0
 31
1.0
 12
0.0
 22
0.0
 32
0.0
 42
50.0
 43
0.0
 44
0.0
 50
0.0
 71
     0
  0
VIEW
  2
AM_VIEW4
 70
     0
 40
297.5
 10
189.33547008547001
 20
-149.25
 41
457.32905982905982
 11
0.0
 21
0.0
 31
1.0
 12
0.0
 22
0.0
 32
0.0
 42
50.0
 43
0.0
 44
0.0
 50
0.0
 71
     0
  0
VIEW
  2
AM_VIEW5
 70
     0
 40
297.5
 10
-2.5
 20
-0.5
 41
457.32905982905982
 11
0.0
 21
0.0
 31
1.0
 12
0.0
 22
0.0
 32
0.0
 42
50.0
 43
0.0
 44
0.0
 50
0.0
 71
     0
  0
VIEW
  2
AM_VIEW6
 70
     0
 40
594.99405000000002
 10
-2.5
 20
-0.5
 41
914.6489730769232
 11
0.0
 21
0.0
 31
1.0
 12
0.0
 22
0.0
 32
0.0
 42
50.0
 43
0.0
 44
0.0
 50
0.0
 71
     0
  0
ENDTAB
  0
TABLE
  2
UCS
 70
     0
  0
ENDTAB
  0
TABLE
  2
APPID
 70
    46
  0
APPID
  2
ACAD
 70
     0
  0
APPID
  2
MCAD_NO_VIS
 70
     0
  0
APPID
  2
ACAD_TEMP_GRAPHIC
 70
     0
  0
APPID
  2
ACATTRIBSERVICES
 70
     0
  0
APPID
  2
GENIUS_GENDIMSH_14
 70
     0
  0
APPID
  2
GENIUS_GENODEF_13
 70
     0
  0
APPID
  2
GENIUS_GENOENT_13
 70
     0
  0
APPID
  2
GENIUS_GENOBJ-N-TIT_13
 70
     0
  0
APPID
  2
GENIUS_GENOLIS_13
 70
     0
  0
APPID
  2
GENIUS_GENTITLE_13
 70
     0
  0
APPID
  2
GENIUS_GENOREF_13
 70
     0
  0
APPID
  2
GENIUS_GENSCREG_15
 70
     0
  0
APPID
  2
GENIUS_GENOBJ-N-SDF_13
 70
     0
  0
APPID
  2
GENIUS_GENOBJ-N-REV_13
 70
     0
  0
APPID
  2
GENIUS_GENOBJ-N-RSSYM_13
 70
     0
  0
APPID
  2
GENIUS_GENSYMENT_13
 70
     0
  0
APPID
  2
GENIUS_GENSCSYM_13
 70
     0
  0
APPID
  2
GENIUS_GENOBJ-N-CEN_13
 70
     0
  0
APPID
  2
GENIUS_GENOBJ-N-FIL_13
 70
     0
  0
APPID
  2
GENIUS_GENBH_13
 70
     0
  0
APPID
  2
GENIUS_GENOBJ-NBEHI-BHF_13
 70
     0
  0
APPID
  2
GENIUS_GENFIL_13
 70
     0
  0
APPID
  2
GENIUS_GENOBJ-N-CHA_13
 70
     0
  0
APPID
  2
GENIUS_GENOBJ-NBEHI-BHB_13
 70
     0
  0
APPID
  2
GENIUS_GENOBJ-N-CRS_13
 70
     0
  0
APPID
  2
GENIUS_GENDTOL_13
 70
     0
  0
APPID
  2
AD_DRAW
 70
     0
  0
APPID
  2
DESIGNERASSEMBLIES
 70
     0
  0
APPID
  2
ACADM_DIM_EDIT
 70
     0
  0
APPID
  2
AMDT_DM_ADJ
 70
     0
  0
APPID
  2
ACAD_PSEXT
 70
     0
  0
APPID
  2
ACAECLAYERSTANDARD
 70
     0
  0
APPID
  2
DCO15
 70
     0
  0
APPID
  2
GENIUS_GENOBJ-N-HTC_13
 70
     0
  0
APPID
  2
GENIUS_GENHATCH_13
 70
     0
  0
APPID
  2
ACAD_NAV_VCDISPLAY
 70
     0
  0
APPID
  2
ACAD_DSTYLE_DIMARC_LENGTH_
 70
     0
  0
APPID
  2
GENIUS_GENREC_14
 70
     0
  0
APPID
  2
GENIUS_GENOBJ-N-REC_13
 70
     0
  0
APPID
  2
GENIUS_GENCEN_19
 70
     0
  0
APPID
  2
ACAD_DSTYLE_DIMBREAK
 70
     0
  0
APPID
  2
ACAD_DSTYLE_DIMJAG
 70
     0
  0
APPID
  2
ACAD_DSTYLE_DIMINSPECT
 70
     0
  0
APPID
  2
ACAD_EXEMPT_FROM_CAD_STANDARDS
 70
     0
  0
APPID
  2
CONTENTBLOCKICON
 70
     0
  0
APPID
  2
ACAD_MLEADERVER
 70
     0
  0
ENDTAB
  0
TABLE
  2
DIMSTYLE
 70
    17
  0
DIMSTYLE
  2
SANKYO
 70
     0
  3

  4
"
  5
DOTSMALL
  6

  7

 40
1.0
 41
7.0
 42
1.0
 43
7.0
 44
3.0
 45
0.0
 46
0.0
 47
0.1
 48
0.1
140
7.0
141
0.0
142
0.0
143
0.0393701
144
1.0
145
0.0
146
0.71
147
1.3
 71
     0
 72
     0
 73
     0
 74
     0
 75
     0
 76
     0
 77
     1
 78
     8
170
     0
171
     2
172
     1
173
     0
174
     0
175
     0
176
   256
177
   256
178
   256
  0
DIMSTYLE
  2
AM_ISO
 70
     0
  3

  4
"
  5

  6

  7

 40
1.0
 41
1.6000000000000001
 42
1.0
 43
7.0
 44
1.0
 45
0.0
 46
0.0
 47
0.1
 48
0.1
140
2.5
141
0.0
142
0.0
143
0.0393701
144
1.0
145
0.0
146
0.71
147
0.625
 71
     0
 72
     0
 73
     0
 74
     0
 75
     0
 76
     0
 77
     1
 78
     8
170
     0
171
     2
172
     1
173
     0
174
     0
175
     0
176
   256
177
   256
178
   256
  0
DIMSTYLE
  2
AM_ISO$3
 70
     0
  3

  4
"
  5

  6

  7

 40
1.0
 41
1.6000000000000001
 42
1.0
 43
7.0
 44
1.0
 45
0.0
 46
0.0
 47
0.1
 48
0.1
140
2.5
141
0.0
142
0.0
143
0.0393701
144
1.0
145
0.0
146
0.71
147
0.625
 71
     0
 72
     0
 73
     0
 74
     0
 75
     0
 76
     0
 77
     1
 78
     8
170
     0
171
     2
172
     1
173
     0
174
     0
175
     0
176
   256
177
   256
178
   256
  0
DIMSTYLE
  2
AM_ISO$4
 70
     0
  3

  4
"
  5

  6

  7

 40
1.0
 41
1.6000000000000001
 42
1.0
 43
7.0
 44
1.0
 45
0.0
 46
0.0
 47
0.1
 48
0.1
140
2.5
141
0.0
142
0.0
143
0.0393701
144
1.0
145
0.0
146
0.71
147
0.625
 71
     0
 72
     0
 73
     0
 74
     0
 75
     0
 76
     0
 77
     1
 78
     8
170
     0
171
     2
172
     1
173
     0
174
     0
175
     0
176
   256
177
   256
178
   256
  0
DIMSTYLE
  2
AM_ISO$6
 70
     0
  3

  4
"
  5

  6

  7

 40
1.0
 41
1.6000000000000001
 42
1.0
 43
7.0
 44
1.0
 45
0.0
 46
0.0
 47
0.1
 48
0.1
140
2.5
141
0.0
142
0.0
143
0.0393701
144
1.0
145
0.0
146
0.71
147
0.625
 71
     0
 72
     0
 73
     0
 74
     0
 75
     0
 76
     0
 77
     0
 78
     8
170
     0
171
     2
172
     1
173
     0
174
     0
175
     0
176
   256
177
   256
178
   256
  0
DIMSTYLE
  2
AM_ISO$7
 70
     0
  3

  4
"
  5

  6

  7

 40
1.0
 41
1.6000000000000001
 42
1.0
 43
7.0
 44
1.0
 45
0.0
 46
0.0
 47
0.1
 48
0.1
140
2.5
141
0.0
142
0.0
143
0.0393701
144
1.0
145
0.0
146
0.71
147
0.625
 71
     0
 72
     0
 73
     0
 74
     0
 75
     0
 76
     0
 77
     1
 78
     8
170
     0
171
     2
172
     1
173
     0
174
     0
175
     0
176
   256
177
   256
178
   256
  0
DIMSTYLE
  2
AM_ISO$SF
 70
     0
  3

  4
"
  5

  6

  7

 40
1.0
 41
2.5
 42
1.0
 43
10.0
 44
1.0
 45
0.0
 46
0.0
 47
0.1
 48
0.1
140
3.5
141
0.0
142
0.0
143
0.0393701
144
1.0
145
0.0
146
0.71
147
1.5
 71
     0
 72
     0
 73
     0
 74
     0
 75
     1
 76
     1
 77
     1
 78
     8
170
     0
171
     2
172
     1
173
     0
174
     0
175
     0
176
   256
177
   256
178
     2
  0
DIMSTYLE
  2
AM_ISO$SH
 70
     0
  3

  4
"
  5

  6
GENAXEH
  7

 40
1.0
 41
2.5
 42
1.0
 43
10.0
 44
1.0
 45
0.0
 46
0.0
 47
0.1
 48
0.1
140
3.5
141
0.0
142
0.0
143
0.0393701
144
2.0
145
0.0
146
0.71
147
1.5
 71
     0
 72
     0
 73
     0
 74
     0
 75
     1
 76
     1
 77
     1
 78
     8
170
     0
171
     2
172
     1
173
     1
174
     0
175
     0
176
   256
177
   256
178
     2
  0
DIMSTYLE
  2
AM_ISO$2
 70
     0
  3

  4
"
  5

  6

  7

 40
1.0
 41
1.6000000000000001
 42
1.0
 43
7.0
 44
1.0
 45
0.0
 46
0.0
 47
0.1
 48
0.1
140
2.5
141
0.0
142
0.0
143
0.0393701
144
1.0
145
0.0
146
0.71
147
0.625
 71
     0
 72
     0
 73
     0
 74
     0
 75
     0
 76
     0
 77
     1
 78
     8
170
     0
171
     2
172
     1
173
     0
174
     0
175
     0
176
   256
177
   256
178
   256
  0
DIMSTYLE
  2
AM_ISO$0
 70
     0
  3

  4
"
  5

  6

  7

 40
1.0
 41
1.6000000000000001
 42
1.0
 43
7.0
 44
1.0
 45
0.0
 46
0.0
 47
0.1
 48
0.1
140
2.5
141
0.0
142
0.0
143
0.0393701
144
1.0
145
0.0
146
0.71
147
0.625
 71
     0
 72
     0
 73
     0
 74
     0
 75
     0
 76
     0
 77
     1
 78
     8
170
     0
171
     2
172
     1
173
     0
174
     0
175
     0
176
   256
177
   256
178
   256
  0
DIMSTYLE
  2
SANKYO$0
 70
     0
  3

  4
"
  5
DOTSMALL
  6

  7

 40
1.0
 41
7.0
 42
1.0
 43
7.0
 44
3.0
 45
0.0
 46
0.0
 47
0.1
 48
0.1
140
7.0
141
0.0
142
0.0
143
0.0393701
144
1.0
145
0.0
146
0.71
147
1.3
 71
     0
 72
     0
 73
     0
 74
     0
 75
     0
 76
     0
 77
     1
 78
     8
170
     0
171
     2
172
     1
173
     0
174
     0
175
     0
176
   256
177
   256
178
   256
  0
DIMSTYLE
  2
AM_ANSI
 70
     0
  3

  4
mm
  5

  6

  7

 40
1.0
 41
0.12
 42
0.05
 43
0.5
 44
0.1
 45
0.0
 46
0.0
 47
0.1
 48
0.1
140
0.12
141
0.0
142
0.0
143
25.399999999999999
144
1.0
145
0.0
146
0.71
147
0.06
 71
     0
 72
     0
 73
     1
 74
     1
 75
     0
 76
     0
 77
     0
 78
     7
170
     0
171
     2
172
     0
173
     0
174
     0
175
     0
176
   256
177
   256
178
     2
  0
DIMSTYLE
  2
AM_ANSI$3
 70
     0
  3

  4
mm
  5

  6

  7

 40
1.0
 41
0.12
 42
0.05
 43
0.5
 44
0.1
 45
0.0
 46
0.0
 47
0.1
 48
0.1
140
0.12
141
0.0
142
0.0
143
25.399999999999999
144
1.0
145
0.0
146
0.71
147
0.06
 71
     0
 72
     0
 73
     1
 74
     1
 75
     0
 76
     0
 77
     0
 78
     7
170
     0
171
     2
172
     0
173
     0
174
     0
175
     0
176
   256
177
   256
178
     2
  0
DIMSTYLE
  2
AM_ANSI$4
 70
     0
  3

  4
mm
  5

  6

  7

 40
1.0
 41
0.12
 42
0.05
 43
0.5
 44
0.1
 45
0.0
 46
0.0
 47
0.1
 48
0.1
140
0.12
141
0.0
142
0.0
143
25.399999999999999
144
1.0
145
0.0
146
0.71
147
0.06
 71
     0
 72
     0
 73
     1
 74
     1
 75
     0
 76
     0
 77
     0
 78
     7
170
     0
171
     2
172
     0
173
     0
174
     0
175
     0
176
   256
177
   256
178
     2
  0
DIMSTYLE
  2
AM_ANSI$7
 70
     0
  3

  4
mm
  5

  6

  7

 40
1.0
 41
0.12
 42
0.05
 43
0.5
 44
0.1
 45
0.0
 46
0.0
 47
0.1
 48
0.1
140
0.12
141
0.0
142
0.0
143
25.399999999999999
144
1.0
145
0.0
146
0.71
147
0.06
 71
     0
 72
     0
 73
     1
 74
     1
 75
     0
 76
     0
 77
     0
 78
     7
170
     0
171
     2
172
     0
173
     0
174
     0
175
     0
176
   256
177
   256
178
     2
  0
DIMSTYLE
  2
AM_ANSI$SF
 70
     0
  3

  4
mm
  5

  6

  7

 40
1.0
 41
0.12
 42
0.05
 43
0.5
 44
0.1
 45
0.0
 46
0.0
 47
0.1
 48
0.1
140
0.12
141
0.0
142
0.0
143
25.399999999999999
144
1.0
145
0.0
146
0.71
147
0.06
 71
     0
 72
     0
 73
     1
 74
     1
 75
     1
 76
     1
 77
     0
 78
     7
170
     0
171
     2
172
     0
173
     0
174
     0
175
     0
176
   256
177
   256
178
     2
  0
DIMSTYLE
  2
AM_ANSI$SH
 70
     0
  3

  4
mm
  5

  6
GENAXEH
  7

 40
1.0
 41
0.12
 42
0.05
 43
0.5
 44
0.1
 45
0.0
 46
0.0
 47
0.1
 48
0.1
140
0.12
141
0.0
142
0.0
143
25.399999999999999
144
1.0
145
0.0
146
0.71
147
0.06
 71
     0
 72
     0
 73
     1
 74
     1
 75
     1
 76
     1
 77
     0
 78
     7
170
     0
171
     2
172
     0
173
     1
174
     0
175
     0
176
   256
177
   256
178
     2
  0
ENDTAB
  0
ENDSEC
  0
SECTION
  2
BLOCKS
  0
BLOCK
  8
0
  2
$MODEL_SPACE
 70
     0
 10
0.0
 20
0.0
 30
0.0
  3
$MODEL_SPACE
  1

  0
ENDBLK
  5
1A
  8
0
  0
BLOCK
 67
     1
  8
0
  2
$PAPER_SPACE
 70
     0
 10
0.0
 20
0.0
 30
0.0
  3
$PAPER_SPACE
  1

  0
ENDBLK
  5
17
 67
     1
  8
0
  0
BLOCK
  8
0
  2
GENAXEH
 70
     0
 10
0.0
 20
0.0
 30
0.0
  3
GENAXEH
  1

  0
LINE
  5
102
  8
0
 10
-1.0
 20
0.0
 30
0.0
 11
1.0
 21
0.0
 31
0.0
  0
ENDBLK
  5
104
  8
0
  0
BLOCK
  8
0
  2
_OPEN
 70
     0
 10
0.0
 20
0.0
 30
0.0
  3
_OPEN
  1

  0
LINE
  5
30B
  8
0
  6
BYBLOCK
 62
     0
 10
-1.0
 20
0.1666666666666666
 30
0.0
 11
0.0
 21
0.0
 31
0.0
  0
LINE
  5
30C
  8
0
  6
BYBLOCK
 62
     0
 10
-1.0
 20
-0.1666666666666666
 30
0.0
 11
0.0
 21
0.0
 31
0.0
  0
LINE
  5
30D
  8
0
  6
BYBLOCK
 62
     0
 10
0.0
 20
0.0
 30
0.0
 11
-1.0
 21
0.0
 31
0.0
  0
ENDBLK
  5
30F
  8
0
  0
BLOCK
  8
0
  2
_DOTSMALL
 70
     0
 10
0.0
 20
0.0
 30
0.0
  3
_DOTSMALL
  1

  0
POLYLINE
  5
A331
  8
0
  6
BYBLOCK
 62
     0
 66
     1
 10
0.0
 20
0.0
 30
0.0
 70
     1
 40
0.5
 41
0.5
  0
VERTEX
  5
1DC82
  8
0
  6
BYBLOCK
 62
     0
 10
-0.0625
 20
0.0
 30
0.0
 42
1.0
  0
VERTEX
  5
1DC83
  8
0
  6
BYBLOCK
 62
     0
 10
0.0625
 20
0.0
 30
0.0
 42
1.0
  0
SEQEND
  5
1DC84
  8
0
  6
BYBLOCK
 62
     0
  0
ENDBLK
  5
A333
  8
0
  0
ENDSEC
  0
SECTION
  2
ENTITIES
  0
LINE
  5
9B1A
  8
WK
 10
23.5
 20
16.25
 30
0.0
 11
1165.5
 21
16.25
 31
0.0
  0
LINE
  5
9B1C
  8
WK
 10
23.5
 20
824.75
 30
0.0
 11
23.5
 21
16.25
 31
0.0
  0
TEXT
  5
9BE2
  8
WK
 10
22.5
 20
16.25
 30
0.0
 40
3.2000000000000002
  1
A0
 50
90.0
 41
0.8299999999999999
  0
LINE
  5
9C31
  8
WK
 10
1085.5
 20
34.25
 30
0.0
 11
1085.5
 21
16.25
 31
0.0
  0
LINE
  5
9C32
  8
WK
 10
890.49999999999989
 20
34.25
 30
0.0
 11
890.49999999999989
 21
16.25
 31
0.0
  0
LINE
  5
9C34
  8
WK
 10
1045.5
 20
34.25
 30
0.0
 11
1045.5
 21
16.25
 31
0.0
  0
LINE
  5
9C35
  8
WK
 10
1065.5
 20
34.25
 30
0.0
 11
1065.5
 21
16.25
 31
0.0
  0
LINE
  5
9C37
  8
WK
 10
1005.5
 20
34.25
 30
0.0
 11
1005.5
 21
16.25
 31
0.0
  0
LINE
  5
9C38
  8
WK
 10
985.5
 20
34.25
 30
0.0
 11
985.5
 21
16.25
 31
0.0
  0
LINE
  5
9C3A
  8
WK
 10
890.49999999999989
 20
34.25
 30
0.0
 11
1165.5
 21
34.25
 31
0.0
  0
LINE
  5
9C3B
  8
WK
 10
899.5
 20
26.25
 30
0.0
 11
972.49999999999989
 21
26.25
 31
0.0
  0
LINE
  5
9C3E
  8
WK
 10
1005.5
 20
22.25
 30
0.0
 11
1045.5
 21
22.25
 31
0.0
  0
LINE
  5
9C3F
  8
WK
 10
1005.5
 20
28.25
 30
0.0
 11
1045.5
 21
28.25
 31
0.0
  0
LINE
  5
9C46
  8
WK
 10
1151.8094750193111
 20
25.25
 30
0.0
 11
1163.8094750193111
 21
25.25
 31
0.0
  0
CIRCLE
  5
9C47
  8
WK
 10
1157.8094750193111
 20
25.25
 30
0.0
 40
6.0
  0
TEXT
  5
9C56
  8
WK
 10
992.52780952380954
 20
20.649999643948512
 30
0.0
 40
3.2000000000000002
  1
1:1
 41
0.8299999999999999
 72
     4
 11
995.5
 21
22.249999643948509
 31
0.0
  0
TEXT
  5
9C57
  8
WK
 10
1087.8031333333331
 20
30.150000000000009
 30
0.0
 40
3.2000000000000002
  1
図番
 41
0.8299999999999999
  0
TEXT
  5
9C58
  8
WK
 10
1067.9290000000001
 20
30.150000000000009
 30
0.0
 40
3.2000000000000002
  1
検図
 41
0.8299999999999999
  0
TEXT
  5
9C59
  8
WK
 10
1047.9290000000001
 20
30.150000000000009
 30
0.0
 40
3.2000000000000002
  1
作図
 41
0.8299999999999999
  0
TEXT
  5
9C5A
  8
WK
 10
1006.5535725057121
 20
29.149999999999999
 30
0.0
 40
3.2000000000000002
  1
作成
 41
0.8299999999999999
  0
TEXT
  5
9C5B
  8
WK
 10
1006.5535725057121
 20
23.149999999999999
 30
0.0
 40
3.2000000000000002
  1
制定
 41
0.8299999999999999
  0
TEXT
  5
9C5C
  8
WK
 10
1006.5535725057121
 20
17.149999999999999
 30
0.0
 40
3.2000000000000002
  1
廃止
 41
0.8299999999999999
  0
TEXT
  5
9C5D
  8
WK
 10
986.42899999999997
 20
30.149999999999999
 30
0.0
 40
3.2000000000000002
  1
尺度
 41
0.8299999999999999
  0
TEXT
  5
9C5E
  8
WK
 10
973.49999999999989
 20
18.25
 30
0.0
 40
4.0
  1
基準図
 41
0.8
  0
TEXT
  5
9C77
  8
WK
 10
892.30313333333345
 20
30.150000000000009
 30
0.0
 40
3.2000000000000002
  1
図名
 41
0.8299999999999999
  0
LINE
  5
9E0D
  8
WK
 10
23.5
 20
824.75
 30
0.0
 11
1165.5
 21
824.75
 31
0.0
  0
LINE
  5
9E18
  8
WK
 10
1165.5
 20
824.75
 30
0.0
 11
1165.5
 21
16.25
 31
0.0
  0
TEXT
  5
12887
  8
WK
 10
1130.0726417273511
 20
826.75
 30
0.0
 40
4.0
  1
大栄建材株式会社
 41
0.9
 72
     2
 11
1163.672641727351
 21
826.75
 31
0.0
  0
TEXT
  5
13021
  8
MJ
 10
1005.5
 20
42.25
 30
0.0
 40
7.0
  1
cl11a006
 41
0.8299999999999999
  0
TEXT
  5
13022
  8
MJ
 10
1005.5
 20
69.25
 30
0.0
 40
7.0
  1
クレーヴァ25・35　Ｙレール引戸
 41
0.8299999999999999
  0
TEXT
  5
13023
  8
MJ
 10
1005.5
 20
60.25
 30
0.0
 40
7.0
  1
引違い戸2・4枚建
 41
0.8299999999999999
  0
TEXT
  5
13024
  8
MJ
 10
1005.5
 20
78.25
 30
0.0
 40
7.0
  1
スーパースクリーン　クレーヴァ
 41
0.8299999999999999
  0
TEXT
  5
13025
  8
MJ
 10
1005.5
 20
51.25
 30
0.0
 40
7.0
  1
たて横断面
 41
0.8299999999999999
  0
LINE
  5
162B7
  8
OS
 10
147.94704169456821
 20
388.10574394672591
 30
0.0
 11
184.44710624401699
 21
388.10574394672591
 31
0.0
  0
LINE
  5
162BC
  8
KI1
 10
220.44710624401711
 20
627.10574473009865
 30
0.0
 11
253.44709746233519
 21
627.10574473009865
 31
0.0
  0
LINE
  5
162BF
  8
KI2
 10
233.44710624408549
 20
333.11057788732762
 30
0.0
 11
235.94710624408549
 21
331.61057788732751
 31
0.0
  0
LINE
  5
162C0
  8
KI2
 10
233.44710624408549
 20
335.60574394672591
 30
0.0
 11
233.44710624408549
 21
333.11057788732762
 31
0.0
  0
LINE
  5
162C1
  8
KI2
 10
237.94710624408549
 20
330.11057788732762
 30
0.0
 11
236.94710624408549
 21
330.11057788732762
 31
0.0
  0
LINE
  5
162C2
  8
KI2
 10
235.94710624408549
 20
330.11057788732762
 30
0.0
 11
236.94710624408549
 21
330.11057788732762
 31
0.0
  0
LINE
  5
162C3
  8
KI2
 10
240.44710624408549
 20
333.11057788732762
 30
0.0
 11
237.94710624408549
 21
331.61057788732751
 31
0.0
  0
LINE
  5
162C4
  8
KI2
 10
240.44710624408549
 20
335.60574394672591
 30
0.0
 11
240.44710624408549
 21
333.11057788732762
 31
0.0
  0
LINE
  5
162C5
  8
KI2
 10
237.94710624408549
 20
335.60574394672591
 30
0.0
 11
237.94710624408549
 21
330.11057788732762
 31
0.0
  0
LINE
  5
162C6
  8
KI2
 10
235.94710624408549
 20
335.60574394672591
 30
0.0
 11
235.94710624408549
 21
330.11057788732762
 31
0.0
  0
LINE
  5
162C7
  8
KI2
 10
221.9471062440864
 20
335.6057439467258
 30
0.0
 11
251.9471062440864
 21
335.60574394672602
 31
0.0
  0
LINE
  5
162C8
  8
KI1
 10
220.4471062440864
 20
337.1057439467258
 30
0.0
 11
253.44710624401711
 21
337.1057439467258
 31
0.0
  0
ARC
  5
162C9
  8
KI2
 10
221.9471062440864
 20
337.1057439467258
 30
0.0
 40
1.5
 50
180.0
 51
270.0
  0
ARC
  5
162CA
  8
KI2
 10
251.9471062440864
 20
337.1057439467258
 30
0.0
 40
1.5
 50
270.0
 51
0.0
  0
LINE
  5
162CC
  8
OS
 10
596.81596980819393
 20
367.98474779943427
 30
0.0
 11
596.81596980819393
 21
237.9847477994343
 31
0.0
  0
LINE
  5
162CD
  8
OS
 10
598.81596980819393
 20
367.98474779943427
 30
0.0
 11
598.81596980819393
 21
237.9847477994343
 31
0.0
  0
LINE
  5
162CE
  8
OS
 10
609.31596980819393
 20
367.98474779943427
 30
0.0
 11
609.31596980819393
 21
237.9847477994343
 31
0.0
  0
LINE
  5
162CF
  8
OS
 10
615.31596980819393
 20
373.98474779943427
 30
0.0
 11
615.31596980819393
 21
231.9847477994343
 31
0.0
  0
LINE
  5
162D0
  8
OS
 10
607.31596980819393
 20
367.98474779943427
 30
0.0
 11
607.31596980819393
 21
237.9847477994343
 31
0.0
  0
LINE
  5
162D1
  8
OS
 10
596.81596980819393
 20
355.48474779943427
 30
0.0
 11
550.81596735966502
 21
309.48467815573667
 31
0.0
  0
LINE
  5
162D2
  8
OS
 10
550.81596735966502
 20
239.9847477994343
 30
0.0
 11
596.81596980819393
 21
239.9847477994343
 31
0.0
  0
LINE
  5
162D3
  8
OS
 10
550.81596735966502
 20
237.9847477994343
 30
0.0
 11
609.31596980819393
 21
237.9847477994343
 31
0.0
  0
LINE
  5
162D4
  8
OS
 10
550.81596735966502
 20
231.9847477994343
 30
0.0
 11
615.31596980819393
 21
231.9847477994343
 31
0.0
  0
LINE
  5
162D5
  8
OS
 10
550.81596735966502
 20
296.48492125943528
 30
0.0
 11
596.81596980819393
 21
250.4847477994343
 31
0.0
  0
LINE
  5
162D6
  8
OS
 10
550.81596735966502
 20
248.4847477994343
 30
0.0
 11
596.81596980819393
 21
248.4847477994343
 31
0.0
  0
LINE
  5
162D7
  8
OS
 10
550.81596735966502
 20
250.4847477994343
 30
0.0
 11
596.81596980819393
 21
250.4847477994343
 31
0.0
  0
LINE
  5
162D8
  8
OS
 10
550.81596735966502
 20
365.98474779943427
 30
0.0
 11
596.81596980819393
 21
365.98474779943427
 31
0.0
  0
LINE
  5
162D9
  8
OS
 10
550.81596735966502
 20
367.98474779943427
 30
0.0
 11
609.31596980819393
 21
367.98474779943427
 31
0.0
  0
LINE
  5
162DA
  8
OS
 10
550.81596735966502
 20
373.98474779943427
 30
0.0
 11
615.31596980819393
 21
373.98474779943427
 31
0.0
  0
LINE
  5
162DB
  8
OS
 10
550.81596735966502
 20
357.48474779943427
 30
0.0
 11
596.81596980819393
 21
357.48474779943427
 31
0.0
  0
LINE
  5
162DC
  8
OS
 10
550.81596735966502
 20
355.48474779943427
 30
0.0
 11
596.81596980819393
 21
355.48474779943427
 31
0.0
  0
LINE
  5
162DD
  8
KI1
 10
786.31596980819302
 20
301.48474779943712
 30
0.0
 11
989.31596980819393
 21
301.48474779943712
 31
0.0
  0
LINE
  5
162DF
  8
KI1
 10
786.31596980819302
 20
301.48474779943712
 30
0.0
 11
786.31596980819302
 21
268.48474875116239
 31
0.0
  0
LINE
  5
162E0
  8
KI1
 10
989.31596980819393
 20
268.48474875116239
 30
0.0
 11
786.31596980819302
 21
268.48474875116239
 31
0.0
  0
LINE
  5
162E5
  8
KI1
 10
220.44710624401711
 20
627.10574473009865
 30
0.0
 11
220.44710624401711
 21
337.1057439467258
 31
0.0
  0
LINE
  5
162E6
  8
KI1
 10
253.44710624401711
 20
627.10574473009865
 30
0.0
 11
253.44710624401711
 21
337.1057439467258
 31
0.0
  0
LINE
  5
162E9
  8
OS
 10
108.94710624401699
 20
112.28300748772079
 30
0.0
 11
328.94710624401711
 21
112.28300748772079
 31
0.0
  0
LINE
  5
162ED
  8
OS
 10
108.94710624401699
 20
114.28300748772079
 30
0.0
 11
192.44710624401699
 21
114.28300748772079
 31
0.0
  0
LINE
  5
162EE
  8
OS
 10
245.44710624401711
 20
114.28300748772079
 30
0.0
 11
328.94710624401711
 21
114.28300748772079
 31
0.0
  0
LINE
  5
162EF
  8
OS
 10
108.94710624401699
 20
118.28300748772079
 30
0.0
 11
192.44710624401699
 21
118.28300748772079
 31
0.0
  0
LINE
  5
162F0
  8
OS
 10
245.44710624401711
 20
118.28300748772079
 30
0.0
 11
328.94710624401711
 21
118.28300748772079
 31
0.0
  0
LINE
  5
162F1
  8
OS
 10
108.94710624401699
 20
122.28300748772079
 30
0.0
 11
192.44710624401699
 21
122.28300748772079
 31
0.0
  0
LINE
  5
162F2
  8
OS
 10
245.44710624401711
 20
122.28300748772079
 30
0.0
 11
328.94710624401711
 21
122.28300748772079
 31
0.0
  0
LINE
  5
162F4
  8
OS
 10
108.94710624401699
 20
116.28300748772079
 30
0.0
 11
192.44710624401699
 21
116.2830074877206
 31
0.0
  0
LINE
  5
162F5
  8
OS
 10
245.44710624401711
 20
116.2830074877206
 30
0.0
 11
328.94710624401711
 21
116.2830074877204
 31
0.0
  0
LINE
  5
162F6
  8
OS
 10
108.94710624401699
 20
120.28300748772079
 30
0.0
 11
192.44710624401699
 21
120.28300748772089
 31
0.0
  0
LINE
  5
162F7
  8
OS
 10
245.44710624401711
 20
120.28300748772079
 30
0.0
 11
328.94710624401711
 21
120.28300748772079
 31
0.0
  0
LINE
  5
162F8
  8
OS
 10
108.94710624401699
 20
124.28300748772079
 30
0.0
 11
192.44710624401699
 21
124.28300748772079
 31
0.0
  0
LINE
  5
162F9
  8
OS
 10
245.44710624401711
 20
124.28300748772079
 30
0.0
 11
328.94710624401711
 21
124.28300748772079
 31
0.0
  0
LINE
  5
162FD
  8
KI2
 10
233.44710624408549
 20
126.0711938844105
 30
0.0
 11
235.94710624408549
 21
124.5711938844105
 31
0.0
  0
LINE
  5
162FE
  8
KI2
 10
233.44710624408549
 20
129.78300748772091
 30
0.0
 11
233.44710624408549
 21
126.0711938844105
 31
0.0
  0
LINE
  5
162FF
  8
KI2
 10
237.94710624408549
 20
123.0711938844105
 30
0.0
 11
236.94710624408549
 21
123.0711938844105
 31
0.0
  0
LINE
  5
16300
  8
KI2
 10
235.94710624408549
 20
123.0711938844105
 30
0.0
 11
236.94710624408549
 21
123.0711938844105
 31
0.0
  0
LINE
  5
16301
  8
KI2
 10
240.44710624408549
 20
126.0711938844105
 30
0.0
 11
237.94710624408549
 21
124.5711938844105
 31
0.0
  0
LINE
  5
16302
  8
KI2
 10
240.44710624408549
 20
129.78300748772091
 30
0.0
 11
240.44710624408549
 21
126.0711938844105
 31
0.0
  0
LINE
  5
16303
  8
KI2
 10
237.94710624408549
 20
129.78300748772091
 30
0.0
 11
237.94710624408549
 21
123.0711938844105
 31
0.0
  0
LINE
  5
16304
  8
KI2
 10
235.94710624408549
 20
129.78300748772091
 30
0.0
 11
235.94710624408549
 21
123.0711938844105
 31
0.0
  0
LINE
  5
16305
  8
KI2
 10
221.9471062440864
 20
129.78300748772079
 30
0.0
 11
251.9471062440864
 21
129.78300748772091
 31
0.0
  0
LINE
  5
16306
  8
KI1
 10
220.4471062440864
 20
131.28300748772079
 30
0.0
 11
253.44710624401711
 21
131.28300748772079
 31
0.0
  0
ARC
  5
16307
  8
KI2
 10
221.9471062440864
 20
131.28300748772079
 30
0.0
 40
1.5
 50
180.0
 51
270.0
  0
ARC
  5
16308
  8
KI2
 10
251.9471062440864
 20
131.28300748772079
 30
0.0
 40
1.5
 50
270.0
 51
0.0
  0
LINE
  5
16309
  8
KI1
 10
220.44710624401711
 20
244.28300748772091
 30
0.0
 11
220.44710624401711
 21
131.28300748772079
 31
0.0
  0
LINE
  5
1630A
  8
KI1
 10
253.44710624401711
 20
244.28300748772091
 30
0.0
 11
253.44710624401711
 21
131.28300748772079
 31
0.0
  0
LINE
  5
1630B
  8
OS
 10
245.44710624401711
 20
124.28300748772079
 30
0.0
 11
245.44710624401711
 21
112.28300748772079
 31
0.0
  0
LINE
  5
1630C
  8
KI1
 10
184.44710624401699
 20
627.10574473009865
 30
0.0
 11
217.44709746233531
 21
627.10574473009865
 31
0.0
  0
LINE
  5
1630E
  8
KI2
 10
197.44710624408549
 20
333.11057788732762
 30
0.0
 11
199.94710624408549
 21
331.61057788732751
 31
0.0
  0
LINE
  5
1630F
  8
KI2
 10
197.44710624408549
 20
335.60574394672591
 30
0.0
 11
197.44710624408549
 21
333.11057788732762
 31
0.0
  0
LINE
  5
16310
  8
KI2
 10
201.94710624408549
 20
330.11057788732762
 30
0.0
 11
200.94710624408549
 21
330.11057788732762
 31
0.0
  0
LINE
  5
16311
  8
KI2
 10
199.94710624408549
 20
330.11057788732762
 30
0.0
 11
200.94710624408549
 21
330.11057788732762
 31
0.0
  0
LINE
  5
16312
  8
KI2
 10
204.44710624408549
 20
333.11057788732762
 30
0.0
 11
201.94710624408549
 21
331.61057788732751
 31
0.0
  0
LINE
  5
16313
  8
KI2
 10
204.44710624408549
 20
335.60574394672591
 30
0.0
 11
204.44710624408549
 21
333.11057788732762
 31
0.0
  0
LINE
  5
16314
  8
KI2
 10
201.94710624408549
 20
335.60574394672591
 30
0.0
 11
201.94710624408549
 21
330.11057788732762
 31
0.0
  0
LINE
  5
16315
  8
KI2
 10
199.94710624408549
 20
335.60574394672591
 30
0.0
 11
199.94710624408549
 21
330.11057788732762
 31
0.0
  0
LINE
  5
16316
  8
KI2
 10
185.9471062440864
 20
335.6057439467258
 30
0.0
 11
215.9471062440864
 21
335.60574394672602
 31
0.0
  0
LINE
  5
16317
  8
KI1
 10
184.4471062440864
 20
337.1057439467258
 30
0.0
 11
217.44710624401699
 21
337.1057439467258
 31
0.0
  0
ARC
  5
16318
  8
KI2
 10
185.9471062440864
 20
337.1057439467258
 30
0.0
 40
1.5
 50
180.0
 51
270.0
  0
ARC
  5
16319
  8
KI2
 10
215.9471062440864
 20
337.1057439467258
 30
0.0
 40
1.5
 50
270.0
 51
0.0
  0
LINE
  5
1631A
  8
KI1
 10
184.44710624401699
 20
627.10574473009865
 30
0.0
 11
184.44710624401699
 21
337.1057439467258
 31
0.0
  0
LINE
  5
1631B
  8
KI1
 10
217.44710624401699
 20
627.10574473009865
 30
0.0
 11
217.44710624401699
 21
337.1057439467258
 31
0.0
  0
LINE
  5
16322
  8
KI2
 10
197.44710624408549
 20
126.0711938844105
 30
0.0
 11
199.94710624408549
 21
124.5711938844105
 31
0.0
  0
LINE
  5
16323
  8
KI2
 10
197.44710624408549
 20
129.78300748772091
 30
0.0
 11
197.44710624408549
 21
126.0711938844105
 31
0.0
  0
LINE
  5
16324
  8
KI2
 10
201.94710624408549
 20
123.0711938844105
 30
0.0
 11
200.94710624408549
 21
123.0711938844105
 31
0.0
  0
LINE
  5
16325
  8
KI2
 10
199.94710624408549
 20
123.0711938844105
 30
0.0
 11
200.94710624408549
 21
123.0711938844105
 31
0.0
  0
LINE
  5
16326
  8
KI2
 10
204.44710624408549
 20
126.0711938844105
 30
0.0
 11
201.94710624408549
 21
124.5711938844105
 31
0.0
  0
LINE
  5
16327
  8
KI2
 10
204.44710624408549
 20
129.78300748772091
 30
0.0
 11
204.44710624408549
 21
126.0711938844105
 31
0.0
  0
LINE
  5
16328
  8
KI2
 10
201.94710624408549
 20
129.78300748772091
 30
0.0
 11
201.94710624408549
 21
123.0711938844105
 31
0.0
  0
LINE
  5
16329
  8
KI2
 10
199.94710624408549
 20
129.78300748772091
 30
0.0
 11
199.94710624408549
 21
123.0711938844105
 31
0.0
  0
LINE
  5
1632A
  8
KI2
 10
185.9471062440864
 20
129.78300748772079
 30
0.0
 11
215.9471062440864
 21
129.78300748772091
 31
0.0
  0
LINE
  5
1632B
  8
KI1
 10
184.4471062440864
 20
131.28300748772079
 30
0.0
 11
217.44710624401699
 21
131.28300748772079
 31
0.0
  0
ARC
  5
1632C
  8
KI2
 10
185.9471062440864
 20
131.28300748772079
 30
0.0
 40
1.5
 50
180.0
 51
270.0
  0
ARC
  5
1632D
  8
KI2
 10
215.9471062440864
 20
131.28300748772079
 30
0.0
 40
1.5
 50
270.0
 51
0.0
  0
LINE
  5
1632E
  8
KI1
 10
184.44710624401699
 20
244.28300748772091
 30
0.0
 11
184.44710624401699
 21
131.28300748772079
 31
0.0
  0
LINE
  5
1632F
  8
KI1
 10
217.44710624401699
 20
244.28300748772091
 30
0.0
 11
217.44710624401699
 21
131.28300748772079
 31
0.0
  0
LINE
  5
16330
  8
OS
 10
192.44710624401699
 20
124.28300748772079
 30
0.0
 11
192.44710624401699
 21
112.28300748772079
 31
0.0
  0
LINE
  5
16332
  8
OS
 10
1010.815969808194
 20
367.98474779943427
 30
0.0
 11
1010.815969808194
 21
237.9847477994343
 31
0.0
  0
LINE
  5
16333
  8
OS
 10
1008.815969808194
 20
367.98474779943427
 30
0.0
 11
1008.815969808194
 21
237.9847477994343
 31
0.0
  0
LINE
  5
16334
  8
OS
 10
998.31596980819393
 20
367.98474779943427
 30
0.0
 11
998.31596980819393
 21
237.9847477994343
 31
0.0
  0
LINE
  5
16335
  8
OS
 10
992.31596980819381
 20
373.98474779943427
 30
0.0
 11
992.31596980819381
 21
231.9847477994343
 31
0.0
  0
LINE
  5
16336
  8
OS
 10
1000.315969808194
 20
367.98474779943427
 30
0.0
 11
1000.315969808194
 21
237.9847477994343
 31
0.0
  0
LINE
  5
16337
  8
OS
 10
1010.815969808194
 20
355.48474779943427
 30
0.0
 11
1056.8159722567229
 21
309.48467815573667
 31
0.0
  0
LINE
  5
16338
  8
OS
 10
1056.8159722567229
 20
239.9847477994343
 30
0.0
 11
1010.815969808194
 21
239.9847477994343
 31
0.0
  0
LINE
  5
16339
  8
OS
 10
1056.8159722567229
 20
237.9847477994343
 30
0.0
 11
998.31596980819393
 21
237.9847477994343
 31
0.0
  0
LINE
  5
1633A
  8
OS
 10
1056.8159722567229
 20
231.9847477994343
 30
0.0
 11
992.31596980819381
 21
231.9847477994343
 31
0.0
  0
LINE
  5
1633B
  8
OS
 10
1056.8159722567229
 20
296.48492125943528
 30
0.0
 11
1010.815969808194
 21
250.4847477994343
 31
0.0
  0
LINE
  5
1633C
  8
OS
 10
1056.8159722567229
 20
248.4847477994343
 30
0.0
 11
1010.815969808194
 21
248.4847477994343
 31
0.0
  0
LINE
  5
1633D
  8
OS
 10
1056.8159722567229
 20
250.4847477994343
 30
0.0
 11
1010.815969808194
 21
250.4847477994343
 31
0.0
  0
LINE
  5
1633E
  8
OS
 10
1056.8159722567229
 20
365.98474779943427
 30
0.0
 11
1010.815969808194
 21
365.98474779943427
 31
0.0
  0
LINE
  5
1633F
  8
OS
 10
1056.8159722567229
 20
367.98474779943427
 30
0.0
 11
998.31596980819393
 21
367.98474779943427
 31
0.0
  0
LINE
  5
16340
  8
OS
 10
1056.8159722567229
 20
373.98474779943427
 30
0.0
 11
992.31596980819381
 21
373.98474779943427
 31
0.0
  0
LINE
  5
16341
  8
OS
 10
1056.8159722567229
 20
357.48474779943427
 30
0.0
 11
1010.815969808194
 21
357.48474779943427
 31
0.0
  0
LINE
  5
16342
  8
OS
 10
1056.8159722567229
 20
355.48474779943427
 30
0.0
 11
1010.815969808194
 21
355.48474779943427
 31
0.0
  0
LINE
  5
16343
  8
KI1
 10
821.31596980819313
 20
304.48474779943149
 30
0.0
 11
618.31596980819245
 21
304.48474779943149
 31
0.0
  0
LINE
  5
16344
  8
KI1
 10
618.31596980819245
 20
304.48474779943149
 30
0.0
 11
618.31596980819245
 21
337.48474684770611
 31
0.0
  0
LINE
  5
16345
  8
KI1
 10
821.31596980819313
 20
304.48474779943149
 30
0.0
 11
821.31596980819313
 21
337.48474684770611
 31
0.0
  0
LINE
  5
16346
  8
KI1
 10
618.31596980819245
 20
337.48474684770611
 30
0.0
 11
821.31596980819313
 21
337.48474684770611
 31
0.0
  0
LINE
  5
1634B
  8
KI2
 10
992.31596980819381
 20
318.88474779943192
 30
0.0
 11
821.31596980819313
 21
318.88474779943192
 31
0.0
  0
LINE
  5
1634C
  8
KI2
 10
992.31596980819381
 20
330.98474779943177
 30
0.0
 11
821.31596980819313
 21
330.98474779943177
 31
0.0
  0
LINE
  5
1634D
  8
KI2
 10
992.31596980819381
 20
323.08474779943168
 30
0.0
 11
821.31596980819313
 21
323.08474779943168
 31
0.0
  0
LINE
  5
1634E
  8
KI2
 10
786.31596980819302
 20
282.88474779943192
 30
0.0
 11
615.31596980819393
 21
282.88474779943198
 31
0.0
  0
LINE
  5
1634F
  8
KI2
 10
786.31596980819302
 20
287.08474779943168
 30
0.0
 11
615.31596980819393
 21
287.08474779943168
 31
0.0
  0
LINE
  5
16351
  8
KI2
 10
786.31596980819302
 20
274.98474804866498
 30
0.0
 11
615.31596980819393
 21
274.98474804866493
 31
0.0
  0
LINE
  5
16356
  8
PH
 10
821.31596980819313
 20
268.48474875116239
 30
0.0
 11
618.31596980819279
 21
268.48474779943149
 31
0.0
  0
LINE
  5
16357
  8
PH
 10
821.31596980819313
 20
268.48474875116239
 30
0.0
 11
821.31596980819313
 21
301.48474779943712
 31
0.0
  0
LINE
  5
16358
  8
PH
 10
618.31596980819279
 20
301.48474684770611
 30
0.0
 11
821.31596980819313
 21
301.48474779943712
 31
0.0
  0
LINE
  5
1635E
  8
PH
 10
618.31596980819245
 20
268.48474779943149
 30
0.0
 11
618.31596980819245
 21
301.48474684770611
 31
0.0
  0
LINE
  5
16362
  8
OS
 10
185.69704169456821
 20
664.10574195290985
 30
0.0
 11
108.94710624401699
 21
664.10574195290985
 31
0.0
  0
LINE
  5
16363
  8
OS
 10
185.69704169456821
 20
673.60574195290997
 30
0.0
 11
108.94710624401699
 21
673.60574195290997
 31
0.0
  0
LINE
  5
16364
  8
OS
 10
271.44704169456833
 20
748.60574195290997
 30
0.0
 11
271.44704169456833
 21
673.60574195290997
 31
0.0
  0
LINE
  5
16365
  8
OS
 10
166.44704169456821
 20
748.60574195290997
 30
0.0
 11
166.44704169456821
 21
673.60574195290997
 31
0.0
  0
LINE
  5
16366
  8
OS
 10
328.94710624401711
 20
671.60574195290985
 30
0.0
 11
252.1970416945683
 21
671.60574195290985
 31
0.0
  0
LINE
  5
16367
  8
OS
 10
185.69704169456821
 20
671.60574195290985
 30
0.0
 11
108.94710624401699
 21
671.60574195290985
 31
0.0
  0
LINE
  5
16368
  8
OS
 10
328.94710624401711
 20
666.10574195290985
 30
0.0
 11
252.1970416945683
 21
666.10574195290985
 31
0.0
  0
LINE
  5
16369
  8
OS
 10
185.69704169456821
 20
666.10574195290985
 30
0.0
 11
108.94710624401699
 21
666.10574195290985
 31
0.0
  0
LINE
  5
1636A
  8
OS
 10
121.4471574509662
 20
718.60574195290985
 30
0.0
 11
121.4471574509662
 21
673.60574195290997
 31
0.0
  0
LINE
  5
1636B
  8
OS
 10
121.4471574509662
 20
718.60574195290985
 30
0.0
 11
166.44704169456821
 21
718.60574195290985
 31
0.0
  0
LINE
  5
1636C
  8
OS
 10
121.4471574509662
 20
673.60574195290997
 30
0.0
 11
166.44704169456821
 21
718.60574195290985
 31
0.0
  0
LINE
  5
1636D
  8
OS
 10
316.44544045182118
 20
718.60821768495293
 30
0.0
 11
316.44658310944942
 21
673.60821769946017
 31
0.0
  0
LINE
  5
1636E
  8
OS
 10
316.44544045182118
 20
718.60821768495293
 30
0.0
 11
271.44555622272668
 21
718.60707503026424
 31
0.0
  0
LINE
  5
1636F
  8
OS
 10
271.44704169456833
 20
673.60574195290997
 30
0.0
 11
316.44544045182118
 21
718.60821768495293
 31
0.0
  0
LINE
  5
16370
  8
OS
 10
328.94710624401711
 20
664.10574195291008
 30
0.0
 11
252.1970416945683
 21
664.10574195290985
 31
0.0
  0
LINE
  5
16371
  8
OS
 10
328.94710624401711
 20
673.60574195290997
 30
0.0
 11
252.1970416945683
 21
673.60574195290997
 31
0.0
  0
LINE
  5
16373
  8
OS
 10
185.69704169456821
 20
664.10574195290985
 30
0.0
 11
252.1970416945683
 21
673.60574195290997
 31
0.0
  0
TEXT
  5
16374
  8
SU
 10
1047.3538136399079
 20
391.86158451676653
 30
0.0
 40
7.9999999999999982
  1
巾木
 41
0.9
  0
TEXT
  5
16376
  8
SU
 10
544.43812597648014
 20
391.86158451676653
 30
0.0
 40
7.9999999999999982
  1
巾木
 41
0.9
  0
LINE
  5
16378
  8
OS
 10
153.94704169456821
 20
664.10574195290985
 30
0.0
 11
153.94704169456821
 21
592.92616117876696
 31
0.0
  0
LINE
  5
16379
  8
OS
 10
153.94704169456821
 20
574.92616117876696
 30
0.0
 11
153.94704169456821
 21
388.10574394672591
 31
0.0
  0
LINE
  5
1637A
  8
TS
 10
153.94704169456821
 20
388.10574394672591
 30
0.0
 11
153.94704169456821
 21
328.10574394672591
 31
0.0
  0
LINE
  5
1637B
  8
OS
 10
147.94704169456821
 20
388.10574394672591
 30
0.0
 11
147.94704169456821
 21
328.10574394672591
 31
0.0
  0
LINE
  5
1637C
  8
OS
 10
283.94704169456833
 20
664.10574195290985
 30
0.0
 11
283.94704169456833
 21
592.92616117876696
 31
0.0
  0
LINE
  5
1637D
  8
OS
 10
283.94704169456833
 20
574.92616117876696
 30
0.0
 11
283.94704169456833
 21
388.10574394672591
 31
0.0
  0
LINE
  5
16381
  8
OS
 10
289.94704169456833
 20
388.10574394672591
 30
0.0
 11
253.44697714511949
 21
388.10574394672591
 31
0.0
  0
LINE
  5
16382
  8
TS
 10
283.94704169456833
 20
388.10574394672591
 30
0.0
 11
283.94704169456833
 21
328.10574394672591
 31
0.0
  0
LINE
  5
16383
  8
OS
 10
289.94704169456833
 20
388.10574394672591
 30
0.0
 11
289.94704169456833
 21
328.10574394672591
 31
0.0
  0
TEXT
  5
16385
  8
SU
 10
116.9881392253735
 20
386.48318990815261
 30
0.0
 40
7.9999999999999956
  1
巾木
 41
0.9
  0
LINE
  5
16386
  8
OS
 10
147.94704169456821
 20
184.28300748772079
 30
0.0
 11
184.44710624401699
 21
184.28300748772079
 31
0.0
  0
LINE
  5
16387
  8
OS
 10
153.94704169456821
 20
244.28300748772091
 30
0.0
 11
153.94704169456821
 21
184.28300748772079
 31
0.0
  0
LINE
  5
16388
  8
TS
 10
153.94704169456821
 20
184.28300748772079
 30
0.0
 11
153.94704169456821
 21
124.28300748772079
 31
0.0
  0
LINE
  5
16389
  8
OS
 10
147.94704169456821
 20
184.28300748772079
 30
0.0
 11
147.94704169456821
 21
124.28300748772079
 31
0.0
  0
LINE
  5
1638A
  8
OS
 10
283.94704169456833
 20
244.28300748772091
 30
0.0
 11
283.94704169456833
 21
184.28300748772079
 31
0.0
  0
LINE
  5
1638B
  8
OS
 10
289.94704169456833
 20
184.28300748772079
 30
0.0
 11
253.44697714511949
 21
184.28300748772079
 31
0.0
  0
LINE
  5
1638C
  8
TS
 10
283.94704169456833
 20
184.28300748772079
 30
0.0
 11
283.94704169456833
 21
124.28300748772079
 31
0.0
  0
LINE
  5
1638D
  8
OS
 10
289.94704169456833
 20
184.28300748772079
 30
0.0
 11
289.94704169456833
 21
124.28300748772079
 31
0.0
  0
TEXT
  5
1638F
  8
SU
 10
116.9881392253735
 20
182.6604534491475
 30
0.0
 40
7.9999999999999956
  1
巾木
 41
0.9
  0
LINE
  5
16390
  8
OS
 10
241.4467628725674
 20
748.60574195290997
 30
0.0
 11
166.44704169456821
 21
673.60574195290997
 31
0.0
  0
LINE
  5
16393
  8
KI1
 10
207.4971262440142
 20
126.88300739639089
 30
0.0
 11
230.3971262440152
 21
126.88300739639089
 31
0.0
  0
LINE
  5
16394
  8
KI1
 10
208.69712624401399
 20
125.5830073963907
 30
0.0
 11
229.19712624401541
 21
125.5830073963907
 31
0.0
  0
LINE
  5
16395
  8
KI1
 10
182.9471262440149
 20
125.18300739639059
 30
0.0
 11
186.94712624401541
 21
126.88300739639089
 31
0.0
  0
LINE
  5
16396
  8
KI1
 10
187.21191541527719
 20
125.5830073963907
 30
0.0
 11
184.1530918858673
 21
124.2830073963905
 31
0.0
  0
LINE
  5
16397
  8
KI1
 10
182.9471262440149
 20
124.2830073963905
 30
0.0
 11
182.9471262440149
 21
125.18300739639059
 31
0.0
  0
LINE
  5
16398
  8
KI1
 10
182.9471262440149
 20
124.2830073963905
 30
0.0
 11
184.1530918858673
 21
124.2830073963905
 31
0.0
  0
LINE
  5
16399
  8
KI1
 10
190.44712624401629
 20
125.5830073963907
 30
0.0
 11
193.19712624401541
 21
125.5830073963907
 31
0.0
  0
ARC
  5
1639A
  8
KI1
 10
189.94712624401629
 20
124.5830073963907
 30
0.0
 40
0.5000000000000142
 50
180.0
 51
0.0
  0
LINE
  5
1639B
  8
KI1
 10
189.44712624401629
 20
124.5830073963907
 30
0.0
 11
189.44712624401541
 21
125.5830073963907
 31
0.0
  0
LINE
  5
1639C
  8
KI1
 10
190.44712624401629
 20
125.5830073963907
 30
0.0
 11
190.44712624401629
 21
124.5830073963907
 31
0.0
  0
ARC
  5
1639D
  8
KI1
 10
195.44712624401541
 20
125.5830073963907
 30
0.0
 40
0.5000000000000142
 50
0.0
 51
90.0
  0
ARC
  5
1639E
  8
KI1
 10
193.69712624401541
 20
125.38300739639089
 30
0.0
 40
0.5000000000000142
 50
180.0
 51
270.0
  0
LINE
  5
1639F
  8
KI1
 10
193.19712624401541
 20
125.5830073963907
 30
0.0
 11
193.19712624401541
 21
125.38300739639089
 31
0.0
  0
LINE
  5
163A0
  8
KI1
 10
193.69712624401541
 20
124.8830073963904
 30
0.0
 11
194.74712624401511
 21
124.8830073963904
 31
0.0
  0
LINE
  5
163A1
  8
KI1
 10
194.3971262440152
 20
126.0830073963907
 30
0.0
 11
194.3971262440152
 21
126.88300739639089
 31
0.0
  0
LINE
  5
163A2
  8
KI1
 10
195.44712624401541
 20
126.0830073963907
 30
0.0
 11
194.3971262440152
 21
126.0830073963907
 31
0.0
  0
LINE
  5
163A3
  8
KI1
 10
186.94712624401541
 20
126.88300739639089
 30
0.0
 11
194.3971262440152
 21
126.88300739639089
 31
0.0
  0
LINE
  5
163A4
  8
KI1
 10
187.21191541527719
 20
125.5830073963907
 30
0.0
 11
189.44712624401541
 21
125.5830073963907
 31
0.0
  0
ARC
  5
163A5
  8
KI1
 10
206.44712624401541
 20
125.5830073963907
 30
0.0
 40
0.5000000000000993
 50
90.0
 51
180.0
  0
ARC
  5
163A6
  8
KI1
 10
208.1971262440145
 20
125.38300739639089
 30
0.0
 40
0.5000000000000993
 50
270.0
 51
0.0
  0
LINE
  5
163A7
  8
KI1
 10
207.1471262440152
 20
124.8830073963904
 30
0.0
 11
208.1971262440145
 21
124.8830073963904
 31
0.0
  0
LINE
  5
163A8
  8
KI1
 10
208.69712624401399
 20
125.38300739639089
 30
0.0
 11
208.69712624401399
 21
125.5830073963907
 31
0.0
  0
LINE
  5
163A9
  8
KI1
 10
207.4971262440142
 20
126.88300739639089
 30
0.0
 11
207.4971262440142
 21
126.0830073963907
 31
0.0
  0
LINE
  5
163AA
  8
KI1
 10
207.4971262440142
 20
126.0830073963907
 30
0.0
 11
206.44712624401541
 21
126.0830073963907
 31
0.0
  0
LINE
  5
163AB
  8
KI1
 10
250.68233707275229
 20
125.5830073963907
 30
0.0
 11
253.7411606021644
 21
124.2830073963905
 31
0.0
  0
ARC
  5
163AC
  8
KI1
 10
231.44712624401541
 20
125.5830073963907
 30
0.0
 40
0.5000000000000142
 50
0.0
 51
90.0
  0
ARC
  5
163AD
  8
KI1
 10
229.69712624401541
 20
125.38300739639089
 30
0.0
 40
0.5000000000000142
 50
180.0
 51
270.0
  0
LINE
  5
163AE
  8
KI1
 10
229.19712624401541
 20
125.5830073963907
 30
0.0
 11
229.19712624401541
 21
125.38300739639089
 31
0.0
  0
LINE
  5
163AF
  8
KI1
 10
229.69712624401541
 20
124.8830073963904
 30
0.0
 11
230.74712624401511
 21
124.8830073963904
 31
0.0
  0
LINE
  5
163B0
  8
KI1
 10
230.3971262440152
 20
126.0830073963907
 30
0.0
 11
230.3971262440152
 21
126.88300739639089
 31
0.0
  0
LINE
  5
163B1
  8
KI1
 10
231.44712624401541
 20
126.0830073963907
 30
0.0
 11
230.3971262440152
 21
126.0830073963907
 31
0.0
  0
LINE
  5
163B2
  8
KI1
 10
248.44712624401541
 20
125.5830073963907
 30
0.0
 11
250.68233707275229
 21
125.5830073963907
 31
0.0
  0
LINE
  5
163B3
  8
KI1
 10
248.44712624401541
 20
124.5830073963907
 30
0.0
 11
248.44712624401541
 21
125.5830073963907
 31
0.0
  0
LINE
  5
163B4
  8
KI1
 10
247.4471262440149
 20
125.5830073963907
 30
0.0
 11
247.4471262440149
 21
124.5830073963907
 31
0.0
  0
ARC
  5
163B5
  8
KI1
 10
247.94712624401541
 20
124.5830073963907
 30
0.0
 40
0.4999999999999716
 50
180.0
 51
0.0
  0
ARC
  5
163B7
  8
KI1
 10
242.44712624401541
 20
125.5830073963907
 30
0.0
 40
0.5000000000000993
 50
90.0
 51
180.0
  0
LINE
  5
163B8
  8
KI1
 10
243.1471262440152
 20
124.8830073963904
 30
0.0
 11
244.1971262440145
 21
124.8830073963904
 31
0.0
  0
ARC
  5
163B9
  8
KI1
 10
244.1971262440145
 20
125.38300739639089
 30
0.0
 40
0.5000000000000993
 50
270.0
 51
0.0
  0
LINE
  5
163BA
  8
KI1
 10
244.69712624401399
 20
125.38300739639089
 30
0.0
 11
244.69712624401399
 21
125.5830073963907
 31
0.0
  0
LINE
  5
163BB
  8
KI1
 10
243.4971262440142
 20
126.88300739639089
 30
0.0
 11
243.4971262440142
 21
126.0830073963907
 31
0.0
  0
LINE
  5
163BC
  8
KI1
 10
243.4971262440142
 20
126.0830073963907
 30
0.0
 11
242.44712624401541
 21
126.0830073963907
 31
0.0
  0
LINE
  5
163BD
  8
KI1
 10
243.4971262440142
 20
126.88300739639089
 30
0.0
 11
250.94712624401541
 21
126.88300739639089
 31
0.0
  0
LINE
  5
163BE
  8
KI1
 10
244.69712624401399
 20
125.5830073963907
 30
0.0
 11
247.4471262440149
 21
125.5830073963907
 31
0.0
  0
LINE
  5
163BF
  8
KI1
 10
241.94712624401541
 20
114.18300739639059
 30
0.0
 11
241.94712624401541
 21
119.98321446736141
 31
0.0
  0
LINE
  5
163C0
  8
KI1
 10
231.94712624401541
 20
114.18300739639059
 30
0.0
 11
231.94712624401541
 21
119.98321446736141
 31
0.0
  0
LINE
  5
163C1
  8
KI1
 10
230.74712624401511
 20
112.98300739639031
 30
0.0
 11
230.74712624401511
 21
124.8830073963904
 31
0.0
  0
LINE
  5
163C3
  8
KI1
 10
243.1471262440152
 20
112.98300739639031
 30
0.0
 11
243.1471262440152
 21
124.8830073963904
 31
0.0
  0
LINE
  5
163C4
  8
KI1
 10
237.40538381351121
 20
114.18300739639059
 30
0.0
 11
241.94712624401541
 21
114.18300739639059
 31
0.0
  0
LINE
  5
163C5
  8
KI1
 10
231.5471262440158
 20
112.98300739639031
 30
0.0
 11
242.34712624401641
 21
112.98300739639031
 31
0.0
  0
ARC
  5
163C6
  8
KI1
 10
236.9471262440149
 20
114.3830073963904
 30
0.0
 40
0.4999999999992742
 50
203.57817847820709
 51
336.42182152183977
  0
ARC
  5
163C7
  8
KI1
 10
231.1471262440152
 20
112.98300739639031
 30
0.0
 40
0.3999999999998492
 50
180.0
 51
0.0
  0
LINE
  5
163C8
  8
KI1
 10
231.94712624401541
 20
114.18300739639059
 30
0.0
 11
236.48886867452009
 21
114.18300739639059
 31
0.0
  0
ARC
  5
163C9
  8
KI1
 10
242.74712624401511
 20
112.98300739639031
 30
0.0
 40
0.39999999999921
 50
180.0
 51
0.0
  0
ARC
  5
163CA
  8
KI1
 10
231.84712625196721
 20
120.4731124175419
 30
0.0
 40
0.5000000000002347
 50
281.5369581027764
 51
0.0102186204097569
  0
LINE
  5
163CB
  8
KI1
 10
231.94712624401541
 20
121.1730073963908
 30
0.0
 11
232.3471262440151
 21
120.47320159182659
 31
0.0
  0
LINE
  5
163CC
  8
KI1
 10
231.94712624401541
 20
121.1730073963908
 30
0.0
 11
231.94712624401541
 21
125.5830073963907
 31
0.0
  0
ARC
  5
163CD
  8
KI1
 10
242.0471262360623
 20
120.4731124175419
 30
0.0
 40
0.5000000000001135
 50
179.9897813795902
 51
258.46304189731683
  0
LINE
  5
163CE
  8
KI1
 10
241.54712624401441
 20
120.47320159182659
 30
0.0
 11
241.94712624401541
 21
121.1730073963908
 31
0.0
  0
LINE
  5
163CF
  8
KI1
 10
241.94712624401541
 20
121.1730073963908
 30
0.0
 11
241.94712624401541
 21
125.5830073963907
 31
0.0
  0
LINE
  5
163D0
  8
KI1
 10
195.54712624401529
 20
112.98300739639031
 30
0.0
 11
206.34712624401641
 21
112.98300739639031
 31
0.0
  0
LINE
  5
163D1
  8
KI1
 10
195.94712624401541
 20
114.18300739639059
 30
0.0
 11
200.48886867452001
 21
114.18300739639059
 31
0.0
  0
LINE
  5
163D2
  8
KI1
 10
195.94712624401541
 20
114.18300739639059
 30
0.0
 11
195.94712624401399
 21
119.98321446736141
 31
0.0
  0
LINE
  5
163D4
  8
KI1
 10
194.74712624401511
 20
112.98300739639031
 30
0.0
 11
194.74712624401511
 21
124.8830073963904
 31
0.0
  0
ARC
  5
163D5
  8
KI1
 10
195.1471262440152
 20
112.98300739639031
 30
0.0
 40
0.3999999999998492
 50
180.0
 51
0.0
  0
ARC
  5
163D6
  8
KI1
 10
195.84712625196721
 20
120.4731124175419
 30
0.0
 40
0.500000000000056
 50
281.53695810268312
 51
0.0102186204097569
  0
LINE
  5
163D7
  8
KI1
 10
195.94712624401399
 20
121.1730073963908
 30
0.0
 11
196.34712624401499
 21
120.47320159182659
 31
0.0
  0
LINE
  5
163D8
  8
KI1
 10
195.94712624401399
 20
121.1730073963908
 30
0.0
 11
195.94712624401541
 21
125.5830073963907
 31
0.0
  0
LINE
  5
163D9
  8
KI1
 10
205.94712624401541
 20
114.18300739639059
 30
0.0
 11
205.94712624401541
 21
119.98321446736141
 31
0.0
  0
LINE
  5
163DA
  8
KI1
 10
207.1471262440152
 20
112.98300739639031
 30
0.0
 11
207.1471262440152
 21
124.8830073963904
 31
0.0
  0
LINE
  5
163DB
  8
KI1
 10
201.40538381351121
 20
114.18300739639059
 30
0.0
 11
205.94712624401541
 21
114.18300739639059
 31
0.0
  0
ARC
  5
163DC
  8
KI1
 10
200.94712624401501
 20
114.3830073963904
 30
0.0
 40
0.4999999999992742
 50
203.57817847820709
 51
336.42182152183977
  0
ARC
  5
163DD
  8
KI1
 10
206.74712624401511
 20
112.98300739639031
 30
0.0
 40
0.39999999999921
 50
180.0
 51
0.0
  0
ARC
  5
163DE
  8
KI1
 10
206.04712623606221
 20
120.4731124175419
 30
0.0
 40
0.5000000000001135
 50
179.9897813795902
 51
258.46304189731683
  0
LINE
  5
163DF
  8
KI1
 10
205.54712624401441
 20
120.47320159182659
 30
0.0
 11
205.94712624401541
 21
121.1730073963908
 31
0.0
  0
LINE
  5
163E0
  8
KI1
 10
205.94712624401541
 20
121.1730073963908
 30
0.0
 11
205.94712624401541
 21
125.5830073963907
 31
0.0
  0
LINE
  5
163E1
  8
KI1
 10
254.94712624401501
 20
125.18300739639059
 30
0.0
 11
254.94712624401501
 21
124.2830073963905
 31
0.0
  0
LINE
  5
163E2
  8
KI1
 10
253.7411606021644
 20
124.2830073963905
 30
0.0
 11
254.94712624401501
 21
124.2830073963905
 31
0.0
  0
LINE
  5
163E3
  8
KI1
 10
250.94712624401541
 20
126.88300739639089
 30
0.0
 11
254.94712624401501
 21
125.18300739639059
 31
0.0
  0
LINE
  5
163E5
  8
OS
 10
217.44710624401699
 20
388.10574394672591
 30
0.0
 11
220.44710624401711
 21
388.10574394672591
 31
0.0
  0
LINE
  5
163E6
  8
OS
 10
217.44697714511949
 20
184.28300748772079
 30
0.0
 11
220.44697714511949
 21
184.28300748772079
 31
0.0
  0
LINE
  5
16C3E
  8
KI2
 10
196.9470974624937
 20
644.80574473009847
 30
0.0
 11
204.9470974624937
 21
644.80574473009847
 31
0.0
  0
LINE
  5
16C3F
  8
KI2
 10
195.0470974624937
 20
640.99574473009852
 30
0.0
 11
206.84709746249371
 21
640.99574473009852
 31
0.0
  0
LINE
  5
16C40
  8
KI2
 10
195.0470974624937
 20
642.99574473009852
 30
0.0
 11
206.84709746249371
 21
642.99574473009852
 31
0.0
  0
LINE
  5
16C41
  8
KI2
 10
196.9470974624937
 20
644.80574473009847
 30
0.0
 11
196.9470974624937
 21
642.99574473009852
 31
0.0
  0
LINE
  5
16C42
  8
KI2
 10
195.0470974624937
 20
642.99574473009852
 30
0.0
 11
195.0470974624937
 21
640.99574473009852
 31
0.0
  0
LINE
  5
16C43
  8
KI2
 10
203.9470974624937
 20
640.99574473009852
 30
0.0
 11
203.9470974624937
 21
627.10574473009865
 31
0.0
  0
LINE
  5
16C44
  8
KI2
 10
197.9470974624937
 20
640.99574473009852
 30
0.0
 11
197.9470974624937
 21
627.10574473009865
 31
0.0
  0
LINE
  5
16C45
  8
KI2
 10
197.9470974624937
 20
638.48574473009853
 30
0.0
 11
203.9470974624937
 21
638.48574473009853
 31
0.0
  0
LINE
  5
16C46
  8
KI2
 10
199.2270974624937
 20
653.20574473009844
 30
0.0
 11
202.6670974624937
 21
653.20574473009844
 31
0.0
  0
LINE
  5
16C47
  8
KI2
 10
203.1670974624937
 20
652.70574473009844
 30
0.0
 11
198.7270974624937
 21
652.70574473009844
 31
0.0
  0
LINE
  5
16C48
  8
KI2
 10
198.7270974624937
 20
652.70574473009844
 30
0.0
 11
198.7270974624937
 21
644.80574473009847
 31
0.0
  0
LINE
  5
16C49
  8
KI2
 10
199.2270974624937
 20
653.20574473009844
 30
0.0
 11
198.7270974624937
 21
652.70574473009844
 31
0.0
  0
LINE
  5
16C4A
  8
KI2
 10
203.1670974624937
 20
652.70574473009844
 30
0.0
 11
203.1670974624937
 21
644.80574473009847
 31
0.0
  0
LINE
  5
16C4B
  8
KI2
 10
203.1670974624937
 20
652.70574473009844
 30
0.0
 11
202.6670974624937
 21
653.20574473009844
 31
0.0
  0
LINE
  5
16C4C
  8
KI2
 10
204.9470974624937
 20
644.80574473009847
 30
0.0
 11
204.9470974624937
 21
642.99574473009852
 31
0.0
  0
LINE
  5
16C4D
  8
KI2
 10
206.84709746249371
 20
642.99574473009852
 30
0.0
 11
206.84709746249371
 21
640.99574473009852
 31
0.0
  0
LINE
  5
16C4E
  8
KI2
 10
232.9470974624937
 20
644.80574473009847
 30
0.0
 11
240.9470974624937
 21
644.80574473009847
 31
0.0
  0
LINE
  5
16C4F
  8
KI2
 10
231.0470974624937
 20
640.99574473009852
 30
0.0
 11
242.84709746249371
 21
640.99574473009852
 31
0.0
  0
LINE
  5
16C50
  8
KI2
 10
231.0470974624937
 20
642.99574473009852
 30
0.0
 11
242.84709746249371
 21
642.99574473009852
 31
0.0
  0
LINE
  5
16C51
  8
KI2
 10
232.9470974624937
 20
644.80574473009847
 30
0.0
 11
232.9470974624937
 21
642.99574473009852
 31
0.0
  0
LINE
  5
16C52
  8
KI2
 10
231.0470974624937
 20
642.99574473009852
 30
0.0
 11
231.0470974624937
 21
640.99574473009852
 31
0.0
  0
LINE
  5
16C53
  8
KI2
 10
239.9470974624937
 20
640.99574473009852
 30
0.0
 11
239.9470974624937
 21
627.10574473009865
 31
0.0
  0
LINE
  5
16C54
  8
KI2
 10
233.9470974624937
 20
640.99574473009852
 30
0.0
 11
233.9470974624937
 21
627.10574473009865
 31
0.0
  0
LINE
  5
16C55
  8
KI2
 10
233.9470974624937
 20
638.48574473009853
 30
0.0
 11
239.9470974624937
 21
638.48574473009853
 31
0.0
  0
LINE
  5
16C56
  8
KI2
 10
235.2270974624937
 20
653.20574473009844
 30
0.0
 11
238.6670974624937
 21
653.20574473009844
 31
0.0
  0
LINE
  5
16C57
  8
KI2
 10
239.1670974624937
 20
652.70574473009844
 30
0.0
 11
234.7270974624937
 21
652.70574473009844
 31
0.0
  0
LINE
  5
16C58
  8
KI2
 10
234.7270974624937
 20
652.70574473009844
 30
0.0
 11
234.7270974624937
 21
644.80574473009847
 31
0.0
  0
LINE
  5
16C59
  8
KI2
 10
235.2270974624937
 20
653.20574473009844
 30
0.0
 11
234.7270974624937
 21
652.70574473009844
 31
0.0
  0
LINE
  5
16C5A
  8
KI2
 10
239.1670974624937
 20
652.70574473009844
 30
0.0
 11
239.1670974624937
 21
644.80574473009847
 31
0.0
  0
LINE
  5
16C5B
  8
KI2
 10
239.1670974624937
 20
652.70574473009844
 30
0.0
 11
238.6670974624937
 21
653.20574473009844
 31
0.0
  0
LINE
  5
16C5C
  8
KI2
 10
240.9470974624937
 20
644.80574473009847
 30
0.0
 11
240.9470974624937
 21
642.99574473009852
 31
0.0
  0
LINE
  5
16C5D
  8
KI2
 10
242.84709746249371
 20
642.99574473009852
 30
0.0
 11
242.84709746249371
 21
640.99574473009852
 31
0.0
  0
LINE
  5
16C60
  8
KI1
 10
228.99704226233919
 20
637.75574297136257
 30
0.0
 11
222.84704226233919
 21
637.75574269962794
 31
0.0
  0
LINE
  5
16C61
  8
KI1
 10
230.1470423131513
 20
636.60574302217492
 30
0.0
 11
213.76704231315131
 21
636.60574229843269
 31
0.0
  0
LINE
  5
16C62
  8
KI1
 10
222.69704117319111
 20
662.40574269300021
 30
0.0
 11
231.44704117319111
 21
662.40574307961458
 31
0.0
  0
LINE
  5
16C63
  8
KI1
 10
223.34704122400339
 20
661.25574272172025
 30
0.0
 11
250.54704122400329
 21
661.25574392353872
 31
0.0
  0
LINE
  5
16C64
  8
KI1
 10
221.6970422623391
 20
637.75574264881584
 30
0.0
 11
214.96704226233911
 21
637.75574235145405
 31
0.0
  0
ARC
  5
16C65
  8
KI1
 10
214.3670422071086
 20
639.00574232494341
 30
0.0
 40
0.5999999999999996
 50
0.0000025315855514
 51
180.00000253158549
  0
LINE
  5
16C66
  8
KI1
 10
213.7670422071086
 20
639.00574229843266
 30
0.0
 11
213.76704231315131
 21
636.60574229843269
 31
0.0
  0
LINE
  5
16C67
  8
KI1
 10
214.96704220710851
 20
639.00574235145405
 30
0.0
 11
214.96704226233911
 21
637.75574235145405
 31
0.0
  0
ARC
  5
16C68
  8
KI1
 10
222.1970411201697
 20
663.60574267090794
 30
0.0
 40
0.5
 50
0.0000025315855514
 51
180.00000253158549
  0
LINE
  5
16C69
  8
KI1
 10
221.6970422623391
 20
637.75574264881584
 30
0.0
 11
221.6970411201697
 21
663.60574264881575
 31
0.0
  0
LINE
  5
16C6A
  8
KI1
 10
222.6970411201697
 20
663.60574269300025
 30
0.0
 11
222.69704117319111
 21
662.40574269300021
 31
0.0
  0
LINE
  5
16C6B
  8
KI1
 10
222.84704226233919
 20
637.75574269962794
 30
0.0
 11
222.84704124609561
 21
660.75574269962794
 31
0.0
  0
ARC
  5
16C6C
  8
KI1
 10
223.34704124609561
 20
660.75574272172025
 30
0.0
 40
0.4999999999999999
 50
90.000002531585565
 51
180.00000253158549
  0
LINE
  5
16C6D
  8
KI1
 10
256.49704231315133
 20
636.60574418643648
 30
0.0
 11
243.7470423131513
 21
636.60574362308409
 31
0.0
  0
LINE
  5
16C6E
  8
KI1
 10
257.29704226896678
 20
637.60574422178411
 30
0.0
 11
252.19704226896681
 21
637.60574399644315
 31
0.0
  0
LINE
  5
16C6F
  8
KI1
 10
241.49704226896679
 20
637.60574352366882
 30
0.0
 11
243.4470422689667
 21
637.60574360982855
 31
0.0
  0
LINE
  5
16C70
  8
KI1
 10
241.4983060791412
 20
645.05574352372469
 30
0.0
 11
243.4470419397922
 21
645.0557436098286
 31
0.0
  0
ARC
  5
16C71
  8
KI1
 10
241.69830610786099
 20
644.40574353256159
 30
0.0
 40
0.5
 50
180.00000253158549
 51
270.00000253158549
  0
LINE
  5
16C72
  8
KI1
 10
241.49704214966869
 20
640.30574352366875
 30
0.0
 11
241.69704214966859
 21
640.30574353250574
 31
0.0
  0
ARC
  5
16C73
  8
KI1
 10
241.9470411201697
 20
663.60574354355185
 30
0.0
 40
0.5
 50
0.0000025315855514
 51
180.00000253158549
  0
LINE
  5
16C74
  8
KI1
 10
232.19830612995329
 20
643.90574311280875
 30
0.0
 11
230.64704199060449
 21
643.90574304426696
 31
0.0
  0
LINE
  5
16C75
  8
KI1
 10
232.3970422689668
 20
637.60574312158985
 30
0.0
 11
230.44704226896681
 21
637.60574303543001
 31
0.0
  0
LINE
  5
16C76
  8
KI1
 10
232.39830607914121
 20
645.05574312164572
 30
0.0
 11
230.4470419397922
 21
645.05574303543005
 31
0.0
  0
LINE
  5
16C77
  8
KI1
 10
231.5470421938532
 20
639.305743084033
 30
0.0
 11
232.19704214966859
 21
640.30574311275279
 31
0.0
  0
ARC
  5
16C78
  8
KI1
 10
231.9470411201697
 20
663.60574310170693
 30
0.0
 40
0.5
 50
0.0000025315855514
 51
180.00000253158549
  0
LINE
  5
16C79
  8
KI1
 10
231.4470411201697
 20
663.60574307961474
 30
0.0
 11
231.44704117319111
 21
662.40574307961458
 31
0.0
  0
ARC
  5
16C7A
  8
KI1
 10
229.8720419077585
 20
645.78074301002414
 30
0.0
 40
0.5749999999999959
 50
0.0000025315855514
 51
180.00000253158549
  0
ARC
  5
16C7B
  8
KI1
 10
230.14704229989599
 20
636.90574302217476
 30
0.0
 40
0.2999999999999999
 50
270.00000253158549
 51
0.0000025315855514
  0
LINE
  5
16C7C
  8
KI1
 10
229.2970422490838
 20
638.05574298461795
 30
0.0
 11
229.29704190775851
 21
645.78074298461797
 31
0.0
  0
ARC
  5
16C7D
  8
KI1
 10
228.99704224908379
 20
638.05574297136275
 30
0.0
 40
0.2999999999999999
 50
270.00000253158549
 51
0.0000025315855514
  0
LINE
  5
16C7E
  8
KI1
 10
230.64704199060449
 20
643.90574304426696
 30
0.0
 11
230.4470420568812
 21
642.40574303542996
 31
0.0
  0
LINE
  5
16C7F
  8
KI1
 10
230.44704221152691
 20
638.90574303542996
 30
0.0
 11
230.4470420568812
 21
642.40574303542996
 31
0.0
  0
LINE
  5
16C80
  8
KI1
 10
231.54704221152701
 20
638.90574308403302
 30
0.0
 11
230.44704221152691
 21
638.90574303542996
 31
0.0
  0
LINE
  5
16C81
  8
KI1
 10
231.54704221152701
 20
638.90574308403302
 30
0.0
 11
231.5470421938532
 21
639.305743084033
 31
0.0
  0
LINE
  5
16C82
  8
KI1
 10
230.44704190775849
 20
645.78074303543019
 30
0.0
 11
230.4470419397922
 21
645.05574303543005
 31
0.0
  0
LINE
  5
16C83
  8
KI1
 10
230.447042299896
 20
636.90574303543019
 30
0.0
 11
230.44704226896681
 21
637.60574303543001
 31
0.0
  0
LINE
  5
16C84
  8
KI1
 10
232.4470411201697
 20
663.60574312379924
 30
0.0
 11
232.44704117319111
 21
662.4057431237992
 31
0.0
  0
ARC
  5
16C85
  8
KI1
 10
232.39704225571151
 20
637.90574312158981
 30
0.0
 40
0.2999999999999999
 50
270.00000253158549
 51
0.0000025315855514
  0
ARC
  5
16C86
  8
KI1
 10
232.3983060923965
 20
644.75574312164565
 30
0.0
 40
0.2999999999999999
 50
0.0000025315855514
 51
90.000002531585565
  0
LINE
  5
16C87
  8
KI1
 10
232.69830609239651
 20
644.75574313490108
 30
0.0
 11
232.6983061078611
 21
644.40574313490094
 31
0.0
  0
LINE
  5
16C88
  8
KI1
 10
232.69704216292399
 20
640.00574313484515
 30
0.0
 11
232.69704225571141
 21
637.90574313484524
 31
0.0
  0
ARC
  5
16C89
  8
KI1
 10
232.39704216292401
 20
640.00574312158983
 30
0.0
 40
0.2999999999999999
 50
0.0000025315855514
 51
90.000002531585565
  0
LINE
  5
16C8A
  8
KI1
 10
232.39704214966861
 20
640.30574312158979
 30
0.0
 11
232.19704214966859
 21
640.30574311275279
 31
0.0
  0
ARC
  5
16C8B
  8
KI1
 10
232.1983061078611
 20
644.40574311280875
 30
0.0
 40
0.5
 50
270.00000253158549
 51
0.0000025315855514
  0
LINE
  5
16C8C
  8
KI1
 10
241.44704117319111
 20
662.40574352145973
 30
0.0
 11
232.44704117319111
 21
662.4057431237992
 31
0.0
  0
LINE
  5
16C8D
  8
KI1
 10
241.4470411201697
 20
663.60574352145966
 30
0.0
 11
241.44704117319111
 21
662.40574352145973
 31
0.0
  0
ARC
  5
16C8E
  8
KI1
 10
241.49704225571151
 20
637.90574352366878
 30
0.0
 40
0.2999999999999999
 50
180.00000253158549
 51
270.00000253158549
  0
ARC
  5
16C8F
  8
KI1
 10
241.49830609239649
 20
644.75574352372473
 30
0.0
 40
0.2999999999999999
 50
90.000002531585565
 51
180.00000253158549
  0
LINE
  5
16C90
  8
KI1
 10
241.19830609239651
 20
644.7557435104693
 30
0.0
 11
241.19830610786099
 21
644.40574351046916
 31
0.0
  0
LINE
  5
16C91
  8
KI1
 10
241.19704216292399
 20
640.00574351041348
 30
0.0
 11
241.19704225571141
 21
637.90574351041334
 31
0.0
  0
ARC
  5
16C92
  8
KI1
 10
241.497042162924
 20
640.00574352366868
 30
0.0
 40
0.2999999999999999
 50
90.000002531585565
 51
180.00000253158549
  0
LINE
  5
16C93
  8
KI1
 10
244.89704226233911
 20
637.75574367389618
 30
0.0
 11
251.04704226233909
 21
637.75574394563091
 31
0.0
  0
LINE
  5
16C94
  8
KI1
 10
251.19704117319111
 20
662.40574395225849
 30
0.0
 11
242.44704117319111
 21
662.40574356564423
 31
0.0
  0
ARC
  5
16C95
  8
KI1
 10
244.89704224908371
 20
638.05574367389625
 30
0.0
 40
0.2999999999999999
 50
180.00000253158549
 51
270.00000253158549
  0
LINE
  5
16C96
  8
KI1
 10
242.4470411201697
 20
663.60574356564416
 30
0.0
 11
242.44704117319111
 21
662.40574356564423
 31
0.0
  0
LINE
  5
16C97
  8
KI1
 10
241.69830612995329
 20
643.90574353256147
 30
0.0
 11
243.2470419906044
 21
643.90574360099174
 31
0.0
  0
LINE
  5
16C98
  8
KI1
 10
242.347042211527
 20
638.90574356122556
 30
0.0
 11
243.44704221152691
 21
638.90574360982862
 31
0.0
  0
LINE
  5
16C99
  8
KI1
 10
242.347042211527
 20
638.90574356122556
 30
0.0
 11
242.34704219385321
 21
639.30574356122565
 31
0.0
  0
LINE
  5
16C9A
  8
KI1
 10
242.34704219385321
 20
639.30574356122565
 30
0.0
 11
241.69704214966859
 21
640.30574353250574
 31
0.0
  0
LINE
  5
16C9B
  8
KI1
 10
243.2470419906044
 20
643.90574360099174
 30
0.0
 11
243.44704205688109
 21
642.40574360982862
 31
0.0
  0
LINE
  5
16C9C
  8
KI1
 10
243.44704221152691
 20
638.90574360982862
 30
0.0
 11
243.44704205688109
 21
642.40574360982862
 31
0.0
  0
LINE
  5
16C9D
  8
KI1
 10
244.59704224908381
 20
638.05574366064093
 30
0.0
 11
244.59704190775849
 21
645.78074366064095
 31
0.0
  0
LINE
  5
16C9E
  8
KI1
 10
243.44704190775849
 20
645.78074360982873
 30
0.0
 11
243.4470419397922
 21
645.0557436098286
 31
0.0
  0
ARC
  5
16C9F
  8
KI1
 10
244.02204190775851
 20
645.78074363523478
 30
0.0
 40
0.5749999999999959
 50
0.0000025315855514
 51
180.00000253158549
  0
LINE
  5
16CA0
  8
KI1
 10
243.44704229989591
 20
636.90574360982873
 30
0.0
 11
243.4470422689667
 21
637.60574360982855
 31
0.0
  0
ARC
  5
16CA1
  8
KI1
 10
243.74704229989601
 20
636.90574362308405
 30
0.0
 40
0.2999999999999999
 50
180.00000253158549
 51
270.00000253158549
  0
ARC
  5
16CA2
  8
KI1
 10
251.6970411201697
 20
663.60574397435084
 30
0.0
 40
0.5
 50
0.0000025315855514
 51
180.00000253158549
  0
LINE
  5
16CA3
  8
KI1
 10
251.1970411201697
 20
663.60574395225865
 30
0.0
 11
251.19704117319111
 21
662.40574395225849
 31
0.0
  0
LINE
  5
16CA4
  8
KI1
 10
251.04704226233909
 20
637.75574394563091
 30
0.0
 11
251.04704124609549
 21
660.75574394563091
 31
0.0
  0
ARC
  5
16CA5
  8
KI1
 10
250.54704124609549
 20
660.75574392353872
 30
0.0
 40
0.4999999999999999
 50
0.0000025315855514
 51
90.000002531585565
  0
LINE
  5
16CA6
  8
KI1
 10
252.19704226896681
 20
637.60574399644315
 30
0.0
 11
252.1970411201697
 21
663.60574399644315
 31
0.0
  0
ARC
  5
16CA7
  8
KI1
 10
257.29704229105897
 20
637.10574422178411
 30
0.0
 40
0.5
 50
0.0000025315855514
 51
90.000002531585565
  0
ARC
  5
16CA8
  8
KI1
 10
256.4970423264067
 20
636.30574418643653
 30
0.0
 40
0.2999999999999999
 50
0.0000025315855514
 51
90.000002531585565
  0
LINE
  5
16CA9
  8
KI1
 10
256.79704232640671
 20
636.30574419969184
 30
0.0
 11
256.79704286545763
 21
624.10574419969191
 31
0.0
  0
LINE
  5
16CAA
  8
KI1
 10
257.79704229105897
 20
637.10574424387642
 30
0.0
 11
257.79704286545763
 21
624.10574424387642
 31
0.0
  0
ARC
  5
16CAB
  8
KI1
 10
257.29704286545763
 20
624.10574422178411
 30
0.0
 40
0.5
 50
180.00000253158549
 51
0.0000025315855514
  0
LINE
  5
16CAC
  8
KI1
 10
215.1970411731912
 20
662.40574236161649
 30
0.0
 11
206.4470411731912
 21
662.40574197500223
 31
0.0
  0
LINE
  5
16CAD
  8
KI1
 10
207.74704231315141
 20
636.60574203244209
 30
0.0
 11
213.04704231315131
 21
636.60574226661993
 31
0.0
  0
LINE
  5
16CAE
  8
KI1
 10
208.8970422623392
 20
637.75574208325429
 30
0.0
 11
212.3970422623392
 21
637.75574223789988
 31
0.0
  0
LINE
  5
16CAF
  8
KI1
 10
214.54704122400329
 20
661.25574233289672
 30
0.0
 11
187.34704122400339
 21
661.25574113107814
 31
0.0
  0
ARC
  5
16CB0
  8
KI1
 10
215.69704112016981
 20
663.60574238370884
 30
0.0
 40
0.5
 50
0.0000025315855514
 51
180.00000253158549
  0
ARC
  5
16CB1
  8
KI1
 10
215.6220422367121
 20
638.33574238039512
 30
0.0
 40
0.575000000000003
 50
180.00000253158549
 51
0.0000025315855514
  0
LINE
  5
16CB2
  8
KI1
 10
216.19704223671221
 20
638.33574240580106
 30
0.0
 11
216.19704112016981
 21
663.60574240580115
 31
0.0
  0
ARC
  5
16CB3
  8
KI1
 10
212.89704212978569
 20
640.75574225999219
 30
0.0
 40
0.5
 50
90.000002531585565
 51
180.00000253158549
  0
LINE
  5
16CB4
  8
KI1
 10
215.19704112016981
 20
663.60574236161665
 30
0.0
 11
215.1970411731912
 21
662.40574236161649
 31
0.0
  0
LINE
  5
16CB5
  8
KI1
 10
212.89704210769341
 20
641.2557422599923
 30
0.0
 11
215.04704210769339
 21
641.25574235498891
 31
0.0
  0
LINE
  5
16CB6
  8
KI1
 10
215.0470421585056
 20
640.10574235498893
 30
0.0
 11
213.54704215850549
 21
640.10574228871224
 31
0.0
  0
LINE
  5
16CB7
  8
KI1
 10
215.04704210769339
 20
641.25574235498891
 30
0.0
 11
215.04704124609549
 21
660.75574235498891
 31
0.0
  0
LINE
  5
16CB8
  8
KI1
 10
215.04704223671209
 20
638.33574235498895
 30
0.0
 11
215.0470421585056
 21
640.10574235498893
 31
0.0
  0
ARC
  5
16CB9
  8
KI1
 10
214.5470412460956
 20
660.75574233289672
 30
0.0
 40
0.4999999999999999
 50
0.0000025315855514
 51
90.000002531585565
  0
ARC
  5
16CBA
  8
KI1
 10
213.047042291059
 20
637.10574226661993
 30
0.0
 40
0.5
 50
270.00000253158549
 51
0.0000025315855514
  0
LINE
  5
16CBB
  8
KI1
 10
213.54704229105911
 20
637.10574228871224
 30
0.0
 11
213.54704215850549
 21
640.10574228871224
 31
0.0
  0
LINE
  5
16CBC
  8
KI1
 10
212.3970421297856
 20
640.75574223789988
 30
0.0
 11
212.3970422623392
 21
637.75574223789988
 31
0.0
  0
LINE
  5
16CBD
  8
KI1
 10
180.5970422689669
 20
637.60574083283268
 30
0.0
 11
185.6970422689669
 21
637.60574105817375
 31
0.0
  0
LINE
  5
16CBE
  8
KI1
 10
181.3970423131513
 20
636.60574086818042
 30
0.0
 11
194.1470423131513
 21
636.60574143153281
 31
0.0
  0
LINE
  5
16CBF
  8
KI1
 10
196.3970422689668
 20
637.60574153094785
 30
0.0
 11
194.4470422689669
 21
637.60574144478812
 31
0.0
  0
LINE
  5
16CC0
  8
KI1
 10
196.3957778004434
 20
645.05574153089185
 30
0.0
 11
194.44704193979231
 21
645.05574144478805
 31
0.0
  0
ARC
  5
16CC1
  8
KI1
 10
196.19577782916329
 20
644.40574152205511
 30
0.0
 40
0.5
 50
270.00000253158549
 51
0.0000025315855514
  0
LINE
  5
16CC2
  8
KI1
 10
196.39704214966869
 20
640.30574153094767
 30
0.0
 11
196.1970421496687
 21
640.30574152211091
 31
0.0
  0
ARC
  5
16CC3
  8
KI1
 10
195.94704112016981
 20
663.60574151106493
 30
0.0
 40
0.5
 50
0.0000025315855514
 51
180.00000253158549
  0
LINE
  5
16CC4
  8
KI1
 10
205.4470411731912
 20
662.40574193081773
 30
0.0
 11
196.4470411731912
 21
662.4057415331572
 31
0.0
  0
LINE
  5
16CC5
  8
KI1
 10
205.6957778512556
 20
643.90574194180783
 30
0.0
 11
207.24704199060449
 21
643.90574201034974
 31
0.0
  0
LINE
  5
16CC6
  8
KI1
 10
205.49704226896691
 20
637.60574193302682
 30
0.0
 11
207.4470422689669
 21
637.60574201918655
 31
0.0
  0
LINE
  5
16CC7
  8
KI1
 10
205.49577780044339
 20
645.05574193297093
 30
0.0
 11
207.44704193979231
 21
645.0557420191866
 31
0.0
  0
LINE
  5
16CC8
  8
KI1
 10
206.34704219385321
 20
639.30574197058365
 30
0.0
 11
205.6970421496687
 21
640.30574194186374
 31
0.0
  0
ARC
  5
16CC9
  8
KI1
 10
205.94704112016981
 20
663.60574195290985
 30
0.0
 40
0.5
 50
0.0000025315855514
 51
180.00000253158549
  0
LINE
  5
16CCA
  8
KI1
 10
206.44704112016981
 20
663.60574197500227
 30
0.0
 11
206.4470411731912
 21
662.40574197500223
 31
0.0
  0
ARC
  5
16CCB
  8
KI1
 10
208.02204190775851
 20
645.7807420445929
 30
0.0
 40
0.5749999999999959
 50
0.0000025315855514
 51
180.00000253158549
  0
ARC
  5
16CCC
  8
KI1
 10
207.74704229989601
 20
636.90574203244216
 30
0.0
 40
0.3
 50
180.00000253158549
 51
270.00000253158549
  0
LINE
  5
16CCD
  8
KI1
 10
208.5970422490839
 20
638.05574206999893
 30
0.0
 11
208.59704190775861
 21
645.78074206999895
 31
0.0
  0
ARC
  5
16CCE
  8
KI1
 10
208.8970422490838
 20
638.05574208325424
 30
0.0
 40
0.3
 50
180.00000253158549
 51
270.00000253158549
  0
LINE
  5
16CCF
  8
KI1
 10
207.24704199060449
 20
643.90574201034974
 30
0.0
 11
207.44704205688129
 21
642.40574201918662
 31
0.0
  0
LINE
  5
16CD0
  8
KI1
 10
207.44704221152699
 20
638.90574201918662
 30
0.0
 11
207.44704205688129
 21
642.40574201918662
 31
0.0
  0
LINE
  5
16CD1
  8
KI1
 10
206.347042211527
 20
638.90574197058356
 30
0.0
 11
207.44704221152699
 21
638.90574201918662
 31
0.0
  0
LINE
  5
16CD2
  8
KI1
 10
206.34704219385321
 20
639.30574197058365
 30
0.0
 11
206.347042211527
 21
638.90574197058356
 31
0.0
  0
LINE
  5
16CD3
  8
KI1
 10
207.4470419077586
 20
645.78074201918673
 30
0.0
 11
207.44704193979231
 21
645.0557420191866
 31
0.0
  0
LINE
  5
16CD4
  8
KI1
 10
207.44704229989611
 20
636.90574201918673
 30
0.0
 11
207.4470422689669
 21
637.60574201918655
 31
0.0
  0
LINE
  5
16CD5
  8
KI1
 10
205.44704112016981
 20
663.60574193081766
 30
0.0
 11
205.4470411731912
 21
662.40574193081773
 31
0.0
  0
ARC
  5
16CD6
  8
KI1
 10
205.49704225571151
 20
637.90574193302666
 30
0.0
 40
0.3
 50
180.00000253158549
 51
270.00000253158549
  0
ARC
  5
16CD7
  8
KI1
 10
205.49577781369879
 20
644.75574193297098
 30
0.0
 40
0.3
 50
90.000002531585565
 51
180.00000253158549
  0
LINE
  5
16CD8
  8
KI1
 10
205.19577781369881
 20
644.75574191971555
 30
0.0
 11
205.1957778291634
 21
644.40574191971564
 31
0.0
  0
LINE
  5
16CD9
  8
KI1
 10
205.19704216292411
 20
640.00574191977148
 30
0.0
 11
205.19704225571149
 21
637.90574191977134
 31
0.0
  0
ARC
  5
16CDA
  8
KI1
 10
205.49704216292409
 20
640.00574193302668
 30
0.0
 40
0.3
 50
90.000002531585565
 51
180.00000253158549
  0
LINE
  5
16CDB
  8
KI1
 10
205.49704214966869
 20
640.30574193302675
 30
0.0
 11
205.6970421496687
 21
640.30574194186374
 31
0.0
  0
ARC
  5
16CDC
  8
KI1
 10
205.6957778291634
 20
644.40574194180783
 30
0.0
 40
0.5
 50
180.00000253158549
 51
270.00000253158549
  0
LINE
  5
16CDD
  8
KI1
 10
196.44704112016981
 20
663.60574153315724
 30
0.0
 11
196.4470411731912
 21
662.4057415331572
 31
0.0
  0
ARC
  5
16CDE
  8
KI1
 10
196.39704225571151
 20
637.90574153094769
 30
0.0
 40
0.3
 50
270.00000253158549
 51
0.0000025315855514
  0
ARC
  5
16CDF
  8
KI1
 10
196.39577781369869
 20
644.75574153089201
 30
0.0
 40
0.3
 50
0.0000025315855514
 51
90.000002531585565
  0
LINE
  5
16CE0
  8
KI1
 10
196.69577781369881
 20
644.75574154414721
 30
0.0
 11
196.6957778291634
 21
644.4057415441473
 31
0.0
  0
LINE
  5
16CE1
  8
KI1
 10
196.69704216292411
 20
640.00574154420326
 30
0.0
 11
196.69704225571149
 21
637.90574154420324
 31
0.0
  0
ARC
  5
16CE2
  8
KI1
 10
196.39704216292401
 20
640.00574153094783
 30
0.0
 40
0.3
 50
0.0000025315855514
 51
90.000002531585565
  0
LINE
  5
16CE3
  8
KI1
 10
192.99704226233919
 20
637.75574138072056
 30
0.0
 11
186.84704226233919
 21
637.75574110898594
 31
0.0
  0
LINE
  5
16CE4
  8
KI1
 10
186.6970411731912
 20
662.40574110235832
 30
0.0
 11
195.4470411731912
 21
662.40574148897258
 31
0.0
  0
ARC
  5
16CE5
  8
KI1
 10
192.99704224908379
 20
638.05574138072075
 30
0.0
 40
0.3
 50
270.00000253158549
 51
0.0000025315855514
  0
LINE
  5
16CE6
  8
KI1
 10
195.44704112016981
 20
663.60574148897274
 30
0.0
 11
195.4470411731912
 21
662.40574148897258
 31
0.0
  0
LINE
  5
16CE7
  8
KI1
 10
196.1957778512556
 20
643.90574152205511
 30
0.0
 11
194.64704199060449
 21
643.90574145362496
 31
0.0
  0
LINE
  5
16CE8
  8
KI1
 10
195.54704221152701
 20
638.90574149339102
 30
0.0
 11
194.4470422115271
 21
638.90574144478796
 31
0.0
  0
LINE
  5
16CE9
  8
KI1
 10
195.54704219385309
 20
639.305741493391
 30
0.0
 11
195.54704221152701
 21
638.90574149339102
 31
0.0
  0
LINE
  5
16CEA
  8
KI1
 10
195.54704219385309
 20
639.305741493391
 30
0.0
 11
196.1970421496687
 21
640.30574152211091
 31
0.0
  0
LINE
  5
16CEB
  8
KI1
 10
194.64704199060449
 20
643.90574145362496
 30
0.0
 11
194.44704205688129
 21
642.40574144478796
 31
0.0
  0
LINE
  5
16CEC
  8
KI1
 10
194.4470422115271
 20
638.90574144478796
 30
0.0
 11
194.44704205688129
 21
642.40574144478796
 31
0.0
  0
LINE
  5
16CED
  8
KI1
 10
193.2970422490838
 20
638.05574139397606
 30
0.0
 11
193.29704190775851
 21
645.78074139397609
 31
0.0
  0
LINE
  5
16CEE
  8
KI1
 10
194.4470419077586
 20
645.78074144478819
 30
0.0
 11
194.44704193979231
 21
645.05574144478805
 31
0.0
  0
ARC
  5
16CEF
  8
KI1
 10
193.8720419077585
 20
645.78074141938214
 30
0.0
 40
0.5749999999999959
 50
0.0000025315855514
 51
180.00000253158549
  0
LINE
  5
16CF0
  8
KI1
 10
194.44704229989611
 20
636.90574144478808
 30
0.0
 11
194.4470422689669
 21
637.60574144478812
 31
0.0
  0
ARC
  5
16CF1
  8
KI1
 10
194.14704229989599
 20
636.90574143153276
 30
0.0
 40
0.3
 50
270.00000253158549
 51
0.0000025315855514
  0
ARC
  5
16CF2
  8
KI1
 10
186.19704112016981
 20
663.60574108026594
 30
0.0
 40
0.5
 50
0.0000025315855514
 51
180.00000253158549
  0
LINE
  5
16CF3
  8
KI1
 10
186.69704112016981
 20
663.60574110235825
 30
0.0
 11
186.6970411731912
 21
662.40574110235832
 31
0.0
  0
LINE
  5
16CF4
  8
KI1
 10
186.84704226233919
 20
637.75574110898594
 30
0.0
 11
186.84704124609561
 21
660.75574110898594
 31
0.0
  0
ARC
  5
16CF5
  8
KI1
 10
187.34704124609561
 20
660.75574113107814
 30
0.0
 40
0.4999999999999999
 50
90.000002531585565
 51
180.00000253158549
  0
LINE
  5
16CF6
  8
KI1
 10
185.6970422689669
 20
637.60574105817375
 30
0.0
 11
185.69704112016981
 21
663.60574105817375
 31
0.0
  0
ARC
  5
16CF7
  8
KI1
 10
180.5970422910591
 20
637.10574083283279
 30
0.0
 40
0.5
 50
90.000002531585565
 51
180.00000253158549
  0
LINE
  5
16CF8
  8
KI1
 10
180.0970422910591
 20
637.1057408107406
 30
0.0
 11
180.09704286545769
 21
624.1057408107406
 31
0.0
  0
ARC
  5
16CF9
  8
KI1
 10
181.39704232640671
 20
636.30574086818035
 30
0.0
 40
0.3
 50
90.000002531585565
 51
180.00000253158549
  0
LINE
  5
16CFA
  8
KI1
 10
181.09704232640681
 20
636.30574085492515
 30
0.0
 11
181.09704286545769
 21
624.10574085492499
 31
0.0
  0
ARC
  5
16CFB
  8
KI1
 10
180.59704286545769
 20
624.10574083283291
 30
0.0
 40
0.5
 50
180.00000253158549
 51
0.0000025315855514
  0
ARC
  5
16CFC
  8
KI1
 10
196.272561952845
 20
331.40573902738743
 30
0.0
 40
0.5
 50
90.0
 51
130.40000551602071
  0
LINE
  5
16CFD
  8
KI1
 10
197.3471111869226
 20
333.1057390273877
 30
0.0
 11
195.64708364745951
 21
333.1057390273877
 31
0.0
  0
LINE
  5
16CFE
  8
KI1
 10
192.14710624401729
 20
328.55126617303591
 30
0.0
 11
192.14710624401729
 21
328.10574394672591
 31
0.0
  0
LINE
  5
16CFF
  8
KI1
 10
190.94710624401699
 20
329.10574394672682
 30
0.0
 11
190.94710624401699
 21
328.10574394672591
 31
0.0
  0
LINE
  5
16D00
  8
KI1
 10
192.14710624401729
 20
328.10574394672591
 30
0.0
 11
190.94710624401699
 21
328.10574394672591
 31
0.0
  0
LINE
  5
16D01
  8
KI1
 10
195.9485019656567
 20
331.78650814995763
 30
0.0
 11
192.14710624401729
 21
328.55126617303591
 31
0.0
  0
LINE
  5
16D02
  8
KI1
 10
195.64708364745951
 20
333.1057390273877
 30
0.0
 11
190.94710624401699
 21
329.10574394672682
 31
0.0
  0
LINE
  5
16D03
  8
KI1
 10
231.6932619848285
 20
328.10574394672591
 30
0.0
 11
218.94710624401699
 21
328.10574394672591
 31
0.0
  0
LINE
  5
16D04
  8
KI1
 10
224.14710624401729
 20
331.60574400564201
 30
0.0
 11
229.84711268187129
 21
331.60574400564201
 31
0.0
  0
LINE
  5
16D05
  8
KI1
 10
232.14710271358121
 20
332.80573652058592
 30
0.0
 11
205.74710977445369
 21
332.80573652058592
 31
0.0
  0
LINE
  5
16D06
  8
KI1
 10
219.22994495838569
 20
329.30573646167159
 30
0.0
 11
231.5471036429544
 21
329.30573646167159
 31
0.0
  0
LINE
  5
16D07
  8
KI1
 10
223.2471062440172
 20
331.60574400564201
 30
0.0
 11
223.2471062440172
 21
330.05573652058592
 31
0.0
  0
ARC
  5
16D08
  8
KI1
 10
223.69710624401699
 20
330.05573652058592
 30
0.0
 40
0.4499999999999992
 50
180.0
 51
0.0
  0
LINE
  5
16D09
  8
KI1
 10
224.14710624401729
 20
331.60574400564201
 30
0.0
 11
224.14710624401729
 21
330.05573652058592
 31
0.0
  0
ARC
  5
16D0A
  8
KI1
 10
218.9471086301414
 20
329.30573646167159
 30
0.0
 40
0.3
 50
180.0
 51
0.0
  0
ARC
  5
16D0B
  8
KI1
 10
214.19710624401711
 20
330.05573652058592
 30
0.0
 40
0.4499999999999992
 50
180.0
 51
0.0
  0
LINE
  5
16D0C
  8
KI1
 10
213.7471062440172
 20
331.60574400564201
 30
0.0
 11
213.7471062440172
 21
330.05573652058592
 31
0.0
  0
LINE
  5
16D0D
  8
KI1
 10
214.64710624401729
 20
331.60574400564201
 30
0.0
 11
214.64710624401729
 21
330.05573652058592
 31
0.0
  0
LINE
  5
16D0E
  8
KI1
 10
214.64710624401729
 20
331.60574400564201
 30
0.0
 11
223.2471062440172
 21
331.60574400564201
 31
0.0
  0
ARC
  5
16D0F
  8
KI1
 10
206.2009505032056
 20
329.1057439467258
 30
0.0
 40
1.0
 50
199.72084247195721
 51
270.0
  0
LINE
  5
16D10
  8
KI1
 10
205.2596026457438
 20
328.76830623209992
 30
0.0
 11
205.16778017274811
 21
329.02446280403888
 31
0.0
  0
LINE
  5
16D11
  8
KI1
 10
204.1346098422903
 20
328.76830623209992
 30
0.0
 11
204.22643231528599
 21
329.02446280403888
 31
0.0
  0
ARC
  5
16D12
  8
KI1
 10
204.69710624401699
 20
328.8557439467258
 30
0.0
 40
0.5
 50
19.72084247195728
 51
160.2791575280427
  0
ARC
  5
16D13
  8
KI1
 10
205.24711383511749
 20
332.80573902738712
 30
0.0
 40
0.3
 50
0.0
 51
90.0
  0
LINE
  5
16D14
  8
KI1
 10
205.24711383511749
 20
333.1057390273877
 30
0.0
 11
204.54710130111241
 21
333.1057390273877
 31
0.0
  0
LINE
  5
16D15
  8
KI1
 10
206.34710884508149
 20
330.60574148705649
 30
0.0
 11
206.34710884508149
 21
329.30573646167159
 31
0.0
  0
LINE
  5
16D16
  8
KI1
 10
206.7471088568646
 20
330.60574148705649
 30
0.0
 11
206.34710884508149
 21
330.60574148705649
 31
0.0
  0
ARC
  5
16D17
  8
KI1
 10
206.7471088568646
 20
330.90574148705667
 30
0.0
 40
0.3
 50
270.0
 51
0.0
  0
LINE
  5
16D18
  8
KI1
 10
207.0471088568643
 20
331.00574400564068
 30
0.0
 11
207.0471088568643
 21
330.90574148705667
 31
0.0
  0
ARC
  5
16D19
  8
KI1
 10
206.44710885686439
 20
331.00574400564068
 30
0.0
 40
0.6
 50
0.0
 51
90.0
  0
LINE
  5
16D1A
  8
KI1
 10
207.1471097980193
 20
331.60574400564201
 30
0.0
 11
205.5471138351177
 21
331.60574400564201
 31
0.0
  0
LINE
  5
16D1B
  8
KI1
 10
205.5471138351177
 20
332.80573902738712
 30
0.0
 11
205.5471138351177
 21
331.60574400564201
 31
0.0
  0
LINE
  5
16D1C
  8
KI1
 10
208.21336119192941
 20
330.16744467191347
 30
0.0
 11
207.93090596852201
 21
330.57294102618289
 31
0.0
  0
LINE
  5
16D1D
  8
KI1
 10
208.0567315485446
 20
329.69245967442657
 30
0.0
 11
208.13921428785031
 21
329.75019759193901
 31
0.0
  0
LINE
  5
16D1E
  8
KI1
 10
208.0471173184219
 20
330.9796807508319
 30
0.0
 11
208.0471173184219
 21
331.60574400564201
 31
0.0
  0
LINE
  5
16D1F
  8
KI1
 10
207.93090596852201
 20
330.57294102618289
 30
0.0
 11
208.0471173184219
 21
330.9796807508319
 31
0.0
  0
LINE
  5
16D21
  8
KI1
 10
207.1471097980193
 20
331.60574400564201
 30
0.0
 11
207.1471097980193
 21
331.10573399021951
 31
0.0
  0
LINE
  5
16D22
  8
KI1
 10
207.1471097980193
 20
331.10573399021951
 30
0.0
 11
207.0125456008181
 21
330.6347242754955
 31
0.0
  0
LINE
  5
16D23
  8
KI1
 10
205.74710977445369
 20
332.80573652058592
 30
0.0
 11
205.74710977445369
 21
331.60574400564201
 31
0.0
  0
LINE
  5
16D24
  8
KI1
 10
207.08368039637111
 20
330.21062990230172
 30
0.0
 11
207.3603740866088
 21
329.81534319495768
 31
0.0
  0
ARC
  5
16D25
  8
KI1
 10
207.96719136891349
 20
329.99598214526031
 30
0.0
 40
0.3000000099360252
 50
304.99198913572991
 51
34.858993530263639
  0
ARC
  5
16D26
  8
KI1
 10
207.770003333972
 20
330.10208892178889
 30
0.0
 40
0.4999999937576218
 50
214.99197387695901
 51
304.99198913572991
  0
ARC
  5
16D27
  8
KI1
 10
207.4932921314757
 20
330.49735811687469
 30
0.0
 40
0.4999999937576218
 50
164.0549926757796
 51
214.9919891357321
  0
ARC
  5
16D28
  8
KI1
 10
198.64710624401729
 20
329.10574394672682
 30
0.0
 40
1.0
 50
180.0
 51
270.0
  0
LINE
  5
16D29
  8
KI1
 10
197.34710624401711
 20
333.1057390273877
 30
0.0
 11
198.84710624401711
 21
331.8470895806218
 31
0.0
  0
ARC
  5
16D2A
  8
KI1
 10
197.34710624401711
 20
331.14762809338839
 30
0.0
 40
0.3
 50
0.0
 51
50.000000000010331
  0
LINE
  5
16D2B
  8
KI1
 10
196.72835684576509
 20
331.90573902738703
 30
0.0
 11
196.272561952845
 21
331.90573902738703
 31
0.0
  0
LINE
  5
16D2C
  8
KI1
 10
197.0497506506085
 20
331.78876124894708
 30
0.0
 11
197.5399425269238
 21
331.37744142632482
 31
0.0
  0
ARC
  5
16D2D
  8
KI1
 10
196.72835684576509
 20
331.40573902738743
 30
0.0
 40
0.5
 50
50.000000000010331
 51
90.0
  0
LINE
  5
16D2E
  8
KI1
 10
197.64710624401729
 20
329.10574394672682
 30
0.0
 11
197.64710624401729
 21
331.14762809338839
 31
0.0
  0
LINE
  5
16D2F
  8
KI1
 10
198.84710624401711
 20
329.30574394672658
 30
0.0
 11
198.84710624401711
 21
331.8470895806218
 31
0.0
  0
LINE
  5
16D30
  8
KI1
 10
198.84710624401711
 20
329.30574394672658
 30
0.0
 11
200.94710624401699
 21
329.30574394672658
 31
0.0
  0
LINE
  5
16D31
  8
KI1
 10
203.1932619848285
 20
328.10574394672591
 30
0.0
 11
198.64710624401729
 21
328.10574394672682
 31
0.0
  0
LINE
  5
16D32
  8
KI1
 10
203.04710624401699
 20
329.30574394672658
 30
0.0
 11
203.04710624401699
 21
331.8470895806218
 31
0.0
  0
LINE
  5
16D33
  8
KI1
 10
203.04710624401699
 20
329.30574394672658
 30
0.0
 11
200.94710624401699
 21
329.30574394672658
 31
0.0
  0
ARC
  5
16D34
  8
KI1
 10
203.1932619848285
 20
329.1057439467258
 30
0.0
 40
1.0
 50
270.0
 51
340.27915752804267
  0
LINE
  5
16D35
  8
KI1
 10
204.5471062440169
 20
333.1057390273877
 30
0.0
 11
203.04710624401699
 21
331.8470895806218
 31
0.0
  0
LINE
  5
16D37
  8
KI1
 10
206.2009505032056
 20
328.10574394672591
 30
0.0
 11
218.94710624401699
 21
328.10574394672591
 31
0.0
  0
LINE
  5
16D38
  8
KI1
 10
218.66426752964929
 20
329.30573646167159
 30
0.0
 11
206.34710884508149
 21
329.30573646167159
 31
0.0
  0
LINE
  5
16D39
  8
KI1
 10
208.0471173184219
 20
331.60574400564201
 30
0.0
 11
213.7471062440172
 21
331.60574400564201
 31
0.0
  0
LINE
  5
16D3A
  8
KI1
 10
246.94710624401699
 20
329.10574394672682
 30
0.0
 11
246.94710624401699
 21
328.10574394672591
 31
0.0
  0
LINE
  5
16D3B
  8
KI1
 10
245.7471062440172
 20
328.55126617303591
 30
0.0
 11
245.7471062440172
 21
328.10574394672591
 31
0.0
  0
LINE
  5
16D3D
  8
KI1
 10
246.94710624401699
 20
328.10574394672591
 30
0.0
 11
245.7471062440172
 21
328.10574394672591
 31
0.0
  0
ARC
  5
16D3F
  8
KI1
 10
240.7471062440172
 20
331.05436656175789
 30
0.0
 40
0.5
 50
129.99999999998971
 51
180.0
  0
LINE
  5
16D40
  8
KI1
 10
240.84446183742651
 20
331.78876124894708
 30
0.0
 11
240.4257124391747
 21
331.43738878331669
 31
0.0
  0
ARC
  5
16D41
  8
KI1
 10
241.16585564227029
 20
331.40573902738743
 30
0.0
 40
0.5
 50
90.0
 51
129.99999999998971
  0
LINE
  5
16D42
  8
KI1
 10
241.6216505351895
 20
331.90573902738703
 30
0.0
 11
241.16585564227029
 21
331.90573902738703
 31
0.0
  0
ARC
  5
16D43
  8
KI1
 10
241.6216505351895
 20
331.40573902738743
 30
0.0
 40
0.5
 50
49.599994483979209
 51
90.0
  0
LINE
  5
16D44
  8
KI1
 10
240.54710130111241
 20
333.1057390273877
 30
0.0
 11
242.2471288405755
 21
333.1057390273877
 31
0.0
  0
LINE
  5
16D45
  8
KI1
 10
240.2471062440172
 20
329.10574394672682
 30
0.0
 11
240.2471062440172
 21
331.05436656175789
 31
0.0
  0
ARC
  5
16D46
  8
KI1
 10
239.2471062440172
 20
329.10574394672682
 30
0.0
 40
1.0
 50
270.0
 51
0.0
  0
LINE
  5
16D48
  8
KI1
 10
240.54710624401699
 20
333.1057390273877
 30
0.0
 11
239.04710624401699
 21
331.8470895806218
 31
0.0
  0
LINE
  5
16D49
  8
KI1
 10
239.04710624401699
 20
331.8470895806218
 30
0.0
 11
239.04710624401699
 21
329.30574394672658
 31
0.0
  0
LINE
  5
16D4A
  8
KI1
 10
239.04710624401699
 20
329.30574394672658
 30
0.0
 11
236.94710624401841
 21
329.30574394672658
 31
0.0
  0
ARC
  5
16D4B
  8
KI1
 10
231.6932619848285
 20
329.1057439467258
 30
0.0
 40
1.0
 50
270.0
 51
340.27915752804267
  0
ARC
  5
16D4C
  8
KI1
 10
234.7009505032056
 20
329.1057439467258
 30
0.0
 40
1.0
 50
199.72084247195721
 51
270.0
  0
LINE
  5
16D4D
  8
KI1
 10
233.7596026457438
 20
328.76830623209992
 30
0.0
 11
233.66778017274811
 21
329.02446280403882
 31
0.0
  0
LINE
  5
16D4E
  8
KI1
 10
232.6346098422903
 20
328.76830623209992
 30
0.0
 11
232.72643231528599
 21
329.02446280403882
 31
0.0
  0
ARC
  5
16D4F
  8
KI1
 10
233.19710624401711
 20
328.8557439467258
 30
0.0
 40
0.5
 50
19.72084247195728
 51
160.2791575280427
  0
LINE
  5
16D50
  8
KI1
 10
230.7471202022748
 20
331.60574400564201
 30
0.0
 11
232.34709865291731
 21
331.60574400564201
 31
0.0
  0
LINE
  5
16D52
  8
KI1
 10
231.5471036429544
 20
330.60574148705649
 30
0.0
 11
231.5471036429544
 21
329.30573646167159
 31
0.0
  0
LINE
  5
16D53
  8
KI1
 10
231.14710363117049
 20
330.60574148705649
 30
0.0
 11
231.5471036429544
 21
330.60574148705649
 31
0.0
  0
ARC
  5
16D54
  8
KI1
 10
231.14710363117049
 20
330.90574148705667
 30
0.0
 40
0.3
 50
180.0
 51
270.0
  0
LINE
  5
16D55
  8
KI1
 10
230.81054960392251
 20
330.21062990230172
 30
0.0
 11
230.53385591368581
 21
329.81534319495768
 31
0.0
  0
LINE
  5
16D56
  8
KI1
 10
230.7471202022748
 20
331.10573399021951
 30
0.0
 11
230.88170191173549
 21
330.6347242754955
 31
0.0
  0
LINE
  5
16D57
  8
KI1
 10
230.7471202022748
 20
331.60574400564201
 30
0.0
 11
230.7471202022748
 21
331.10573399021951
 31
0.0
  0
LINE
  5
16D58
  8
KI1
 10
229.68088632062251
 20
330.16744467191347
 30
0.0
 11
229.9633240317703
 21
330.57294102618289
 31
0.0
  0
LINE
  5
16D59
  8
KI1
 10
229.8374984517495
 20
329.69245967442657
 30
0.0
 11
229.75499820018561
 21
329.75019759193901
 31
0.0
  0
LINE
  5
16D5A
  8
KI1
 10
229.84711268187129
 20
330.9796807508319
 30
0.0
 11
229.84711268187129
 21
331.60574400564201
 31
0.0
  0
LINE
  5
16D5B
  8
KI1
 10
229.9633240317703
 20
330.57294102618289
 30
0.0
 11
229.84711268187129
 21
330.9796807508319
 31
0.0
  0
ARC
  5
16D5C
  8
KI1
 10
230.4009203565588
 20
330.49735811687469
 30
0.0
 40
0.4999999937576218
 50
325.00799560546028
 51
15.944992065437891
  0
ARC
  5
16D5D
  8
KI1
 10
229.92703863138061
 20
329.99598214526031
 30
0.0
 40
0.3000000099360252
 50
145.14099121094179
 51
235.0079956054567
  0
ARC
  5
16D5E
  8
KI1
 10
230.1242266663225
 20
330.10208892178889
 30
0.0
 40
0.4999999937576218
 50
235.0079956054567
 51
325.00799560546028
  0
LINE
  5
16D5F
  8
KI1
 10
230.84710363117171
 20
331.00574400564068
 30
0.0
 11
230.84710363117171
 21
330.90574148705667
 31
0.0
  0
ARC
  5
16D60
  8
KI1
 10
231.44710363117071
 20
331.00574400564068
 30
0.0
 40
0.6
 50
90.0
 51
180.0
  0
LINE
  5
16D62
  8
KI1
 10
233.34710624401711
 20
333.1057390273877
 30
0.0
 11
234.8471062440172
 21
331.8470895806218
 31
0.0
  0
LINE
  5
16D63
  8
KI1
 10
234.8471062440172
 20
329.30574394672658
 30
0.0
 11
234.8471062440172
 21
331.8470895806218
 31
0.0
  0
LINE
  5
16D64
  8
KI1
 10
232.34709865291731
 20
332.80573902738712
 30
0.0
 11
232.34709865291731
 21
331.60574400564201
 31
0.0
  0
ARC
  5
16D66
  8
KI1
 10
232.64709865291749
 20
332.80573902738712
 30
0.0
 40
0.3
 50
90.0
 51
180.0
  0
LINE
  5
16D67
  8
KI1
 10
232.14710271358121
 20
331.60574400564201
 30
0.0
 11
232.14710271358121
 21
332.80573652058592
 31
0.0
  0
LINE
  5
16D68
  8
KI1
 10
232.64709865291749
 20
333.1057390273877
 30
0.0
 11
233.3471111869226
 21
333.1057390273877
 31
0.0
  0
LINE
  5
16D69
  8
KI1
 10
239.2471062440172
 20
328.10574394672591
 30
0.0
 11
234.7009505032056
 21
328.10574394672591
 31
0.0
  0
LINE
  5
16D6A
  8
KI1
 10
234.8471062440172
 20
329.30574394672658
 30
0.0
 11
236.94710624401841
 21
329.30574394672658
 31
0.0
  0
LINE
  5
16D6B
  8
KI1
 10
241.94571052237961
 20
331.78650814995763
 30
0.0
 11
245.7471062440172
 21
328.55126617303591
 31
0.0
  0
LINE
  5
16D6C
  8
KI1
 10
242.2471288405755
 20
333.1057390273877
 30
0.0
 11
246.94710624401699
 21
329.10574394672682
 31
0.0
  0
LINE
  5
16E2E
  8
SU
 10
146.014028992676
 20
365.45382015807922
 30
0.0
 11
147.94704169456821
 21
363.10574394672591
 31
0.0
210
0.0
220
0.0
230
-1.0
  0
LINE
  5
16E2F
  8
SU
 10
146.88005439646039
 20
365.95382015807922
 30
0.0
 11
147.94704169456821
 21
363.10574394672591
 31
0.0
210
0.0
220
0.0
230
-1.0
  0
LINE
  5
16E30
  8
SU
 10
147.94704169456821
 20
363.10574394672591
 30
0.0
 11
146.44704169456821
 21
365.70382015807922
 31
0.0
210
0.0
220
0.0
230
-1.0
  0
LINE
  5
16E31
  8
SU
 10
146.44704169456821
 20
365.70382015807922
 30
0.0
 11
135.84131798281919
 21
384.07347247786652
 31
0.0
210
0.0
220
0.0
230
-1.0
1001
ACAD
1000
DSTYLE
1002
{
1070
    41
1040
1.5
1070
    77
1070
     0
1070
   371
1070
    13
1002
}
  0
LINE
  5
16E32
  8
SU
 10
135.84131798281919
 20
384.07347247786652
 30
0.0
 11
114.4796552965192
 21
384.07347247786652
 31
0.0
210
0.0
220
0.0
230
-1.0
1001
ACAD
1000
DSTYLE
1002
{
1070
    41
1040
1.5
1070
    77
1070
     0
1070
   371
1070
    13
1002
}
  0
LINE
  5
16E35
  8
SU
 10
146.014028992676
 20
161.63108369907411
 30
0.0
 11
147.94704169456821
 21
159.28300748772079
 31
0.0
210
0.0
220
0.0
230
-1.0
  0
LINE
  5
16E36
  8
SU
 10
146.88005439646039
 20
162.13108369907411
 30
0.0
 11
147.94704169456821
 21
159.28300748772079
 31
0.0
210
0.0
220
0.0
230
-1.0
  0
LINE
  5
16E37
  8
SU
 10
147.94704169456821
 20
159.28300748772079
 30
0.0
 11
146.44704169456821
 21
161.88108369907411
 31
0.0
210
0.0
220
0.0
230
-1.0
  0
LINE
  5
16E38
  8
SU
 10
146.44704169456821
 20
161.88108369907411
 30
0.0
 11
135.84131798281919
 21
180.25073601886149
 31
0.0
210
0.0
220
0.0
230
-1.0
1001
ACAD
1000
DSTYLE
1002
{
1070
    41
1040
1.5
1070
    77
1070
     0
1070
   371
1070
    13
1002
}
  0
LINE
  5
16E39
  8
SU
 10
135.84131798281919
 20
180.25073601886149
 30
0.0
 11
114.4796552965192
 21
180.25073601886149
 31
0.0
210
0.0
220
0.0
230
-1.0
1001
ACAD
1000
DSTYLE
1002
{
1070
    41
1040
1.5
1070
    77
1070
     0
1070
   371
1070
    13
1002
}
  0
LINE
  5
16E3C
  8
SU
 10
571.63295358203845
 20
373.26397484082707
 30
0.0
 11
572.58393844830323
 21
370.37509481837282
 31
0.0
  0
LINE
  5
16E3D
  8
SU
 10
570.74742410806766
 20
372.7993916397437
 30
0.0
 11
572.58393844830323
 21
370.37509481837282
 31
0.0
  0
LINE
  5
16E3E
  8
SU
 10
572.58393844830323
 20
370.37509481837282
 30
0.0
 11
571.19018884505306
 21
373.03168324028542
 31
0.0
  0
LINE
  5
16E3F
  8
SU
 10
571.19018884505306
 20
373.03168324028542
 30
0.0
 11
562.57552180361108
 21
389.45186708648021
 31
0.0
1001
ACAD
1000
DSTYLE
1002
{
1070
   371
1070
    13
1070
   176
1070
   256
1070
    41
1040
1.5
1070
   147
1040
1.0
1070
    77
1070
     0
1002
}
  0
LINE
  5
16E40
  8
SU
 10
562.57552180361108
 20
389.45186708648021
 30
0.0
 11
541.21385911731124
 21
389.45186708648021
 31
0.0
1001
ACAD
1000
DSTYLE
1002
{
1070
   371
1070
    13
1070
   176
1070
   256
1070
    41
1040
1.5
1070
   147
1040
1.0
1070
    77
1070
     0
1002
}
  0
LINE
  5
16E43
  8
SU
 10
1036.441750771334
 20
373.0316832402853
 30
0.0
 11
1045.056417812777
 21
389.45186708648021
 31
0.0
1001
ACAD
1000
DSTYLE
1002
{
1070
   371
1070
    13
1070
   176
1070
   256
1070
    41
1040
1.5
1070
   147
1040
1.0
1070
    77
1070
     0
1002
}
  0
LINE
  5
16E44
  8
SU
 10
1045.056417812777
 20
389.45186708648021
 30
0.0
 11
1066.418080499077
 21
389.45186708648021
 31
0.0
1001
ACAD
1000
DSTYLE
1002
{
1070
   371
1070
    13
1070
   176
1070
   256
1070
    41
1040
1.5
1070
   147
1040
1.0
1070
    77
1070
     0
1002
}
  0
LINE
  5
16E45
  8
SU
 10
1036.88451550832
 20
372.7993916397437
 30
0.0
 11
1035.0480011680841
 21
370.37509481837282
 31
0.0
  0
LINE
  5
16E46
  8
SU
 10
1035.9989860343489
 20
373.26397484082707
 30
0.0
 11
1035.0480011680841
 21
370.37509481837282
 31
0.0
  0
LINE
  5
16E47
  8
SU
 10
1035.0480011680841
 20
370.37509481837282
 30
0.0
 11
1036.441750771334
 21
373.0316832402853
 31
0.0
  0
LINE
  5
16E80
  8
KI2
 10
232.3471262440157
 20
126.0830073963906
 30
0.0
 11
233.3471262440157
 21
126.0830073963906
 31
0.0
  0
LINE
  5
16E81
  8
KI2
 10
233.44712624401561
 20
118.9830073963906
 30
0.0
 11
232.3471262440157
 21
122.0230073963906
 31
0.0
  0
LINE
  5
16E82
  8
KI2
 10
232.74712624401559
 20
116.0830073963906
 30
0.0
 11
233.44712624401561
 21
116.0830073963906
 31
0.0
  0
LINE
  5
16E83
  8
KI2
 10
233.44712624401561
 20
117.5830073963906
 30
0.0
 11
232.8471262440157
 21
116.8830073963906
 31
0.0
  0
ARC
  5
16E84
  8
KI2
 10
232.3471262440157
 20
125.7830073963906
 30
0.0
 40
0.3
 50
90.0
 51
180.0
  0
LINE
  5
16E85
  8
KI2
 10
232.0471262440158
 20
122.3830073963906
 30
0.0
 11
232.3471262440157
 21
122.0230073963906
 31
0.0
  0
LINE
  5
16E86
  8
KI2
 10
232.24712624401559
 20
116.8830073963906
 30
0.0
 11
232.24712624401559
 21
116.5830073963906
 31
0.0
  0
ARC
  5
16E87
  8
KI2
 10
232.74712624401559
 20
116.5830073963906
 30
0.0
 40
0.5
 50
180.0
 51
270.0
  0
LINE
  5
16E88
  8
KI2
 10
232.24712624401559
 20
116.8830073963906
 30
0.0
 11
232.8471262440157
 21
116.8830073963906
 31
0.0
  0
LINE
  5
16E89
  8
KI2
 10
232.0471262440158
 20
125.7830073963906
 30
0.0
 11
232.0471262440158
 21
122.3830073963906
 31
0.0
  0
ARC
  5
16E8A
  8
KI2
 10
241.5471262440158
 20
125.7830073963906
 30
0.0
 40
0.3
 50
0.0
 51
90.0
  0
ARC
  5
16E8B
  8
KI2
 10
239.3471262440157
 20
124.6844656521782
 30
0.0
 40
0.3
 50
130.00000000000179
 51
180.0
  0
LINE
  5
16E8C
  8
KI2
 10
239.1542899611097
 20
124.9142789851138
 30
0.0
 11
240.5471262440158
 21
126.0830073963906
 31
0.0
  0
LINE
  5
16E8D
  8
KI2
 10
241.5471262440158
 20
126.0830073963906
 30
0.0
 11
240.5471262440158
 21
126.0830073963906
 31
0.0
  0
LINE
  5
16E8E
  8
KI2
 10
241.8471262440157
 20
122.3830073963906
 30
0.0
 11
241.5471262440158
 21
122.0230073963906
 31
0.0
  0
ARC
  5
16E8F
  8
KI2
 10
239.14712624401571
 20
122.3330073963906
 30
0.0
 40
0.75
 50
270.0
 51
90.0
  0
LINE
  5
16E90
  8
KI2
 10
239.09869180775311
 20
121.2830073963906
 30
0.0
 11
239.09869180775311
 21
121.5830073963906
 31
0.0
  0
LINE
  5
16E91
  8
KI2
 10
239.09869180775311
 20
121.5830073963906
 30
0.0
 11
239.14712624401571
 21
121.5830073963906
 31
0.0
  0
LINE
  5
16E92
  8
KI2
 10
239.14712624401571
 20
123.0830073963906
 30
0.0
 11
239.0471262440158
 21
123.0830073963906
 31
0.0
  0
LINE
  5
16E93
  8
KI2
 10
240.44712624401561
 20
118.9830073963906
 30
0.0
 11
240.44712624401561
 21
117.5830073963906
 31
0.0
  0
POINT
  5
16E94
  8
KI2
 10
240.44712624401561
 20
118.46891912357501
 30
0.0
  0
LINE
  5
16E95
  8
KI2
 10
240.44712624401561
 20
118.9830073963906
 30
0.0
 11
241.5471262440158
 21
122.0230073963906
 31
0.0
  0
ARC
  5
16E96
  8
KI2
 10
238.59869180775311
 20
121.2830073963906
 30
0.0
 40
0.5
 50
270.0
 51
0.0
  0
LINE
  5
16E97
  8
KI2
 10
241.64712624401571
 20
116.8830073963906
 30
0.0
 11
241.64712624401571
 21
116.5830073963906
 31
0.0
  0
LINE
  5
16E98
  8
KI2
 10
241.14712624401571
 20
116.0830073963906
 30
0.0
 11
240.44712624401561
 21
116.0830073963906
 31
0.0
  0
LINE
  5
16E99
  8
KI2
 10
240.14712624401571
 20
116.3830073963906
 30
0.0
 11
240.44712624401561
 21
116.0830073963906
 31
0.0
  0
LINE
  5
16E9A
  8
KI2
 10
237.69712624401561
 20
117.0830073963906
 30
0.0
 11
238.19712624401561
 21
116.3830073963906
 31
0.0
  0
LINE
  5
16E9B
  8
KI2
 10
240.14712624401571
 20
116.3830073963906
 30
0.0
 11
238.19712624401561
 21
116.3830073963906
 31
0.0
  0
ARC
  5
16E9C
  8
KI2
 10
241.14712624401571
 20
116.5830073963906
 30
0.0
 40
0.5
 50
270.0
 51
0.0
  0
LINE
  5
16E9D
  8
KI2
 10
241.64712624401571
 20
116.8830073963906
 30
0.0
 11
241.0471262440158
 21
116.8830073963906
 31
0.0
  0
LINE
  5
16E9E
  8
KI2
 10
240.44712624401561
 20
117.5830073963906
 30
0.0
 11
241.0471262440158
 21
116.8830073963906
 31
0.0
  0
LINE
  5
16E9F
  8
KI2
 10
241.8471262440157
 20
125.7830073963906
 30
0.0
 11
241.8471262440157
 21
122.3830073963906
 31
0.0
  0
LINE
  5
16EA0
  8
KI2
 10
239.0471262440158
 20
124.6844656521782
 30
0.0
 11
239.0471262440158
 21
123.0830073963906
 31
0.0
  0
ARC
  5
16EA1
  8
KI2
 10
234.5471262440158
 20
124.6844656521782
 30
0.0
 40
0.3
 50
0.0
 51
49.99999999999811
  0
LINE
  5
16EA2
  8
KI2
 10
234.73996252692149
 20
124.9142789851138
 30
0.0
 11
233.3471262440155
 21
126.0830073963906
 31
0.0
  0
ARC
  5
16EA3
  8
KI2
 10
234.74712624401559
 20
122.3330073963906
 30
0.0
 40
0.75
 50
90.0
 51
270.0
  0
LINE
  5
16EA4
  8
KI2
 10
234.79556068027841
 20
121.2830073963906
 30
0.0
 11
234.79556068027841
 21
121.5830073963906
 31
0.0
  0
LINE
  5
16EA5
  8
KI2
 10
234.79556068027841
 20
121.5830073963906
 30
0.0
 11
234.74712624401559
 21
121.5830073963906
 31
0.0
  0
LINE
  5
16EA6
  8
KI2
 10
234.74712624401559
 20
123.0830073963906
 30
0.0
 11
234.8471262440157
 21
123.0830073963906
 31
0.0
  0
ARC
  5
16EA7
  8
KI2
 10
236.94712624401569
 20
120.7830073963906
 30
0.0
 40
0.3
 50
270.0
 51
0.0
  0
LINE
  5
16EA8
  8
KI2
 10
233.44712624401561
 20
118.9830073963906
 30
0.0
 11
233.44712624401561
 21
117.5830073963906
 31
0.0
  0
LINE
  5
16EA9
  8
KI2
 10
235.29556068027841
 20
120.7830073963906
 30
0.0
 11
236.64712624401571
 21
120.7830073963906
 31
0.0
  0
POINT
  5
16EAA
  8
KI2
 10
233.44712624401561
 20
118.46891912357501
 30
0.0
  0
ARC
  5
16EAB
  8
KI2
 10
236.94712624401569
 20
120.7830073963906
 30
0.0
 40
0.3
 50
180.0
 51
270.0
  0
ARC
  5
16EAC
  8
KI2
 10
235.29556068027841
 20
121.2830073963906
 30
0.0
 40
0.5
 50
180.0
 51
270.0
  0
LINE
  5
16EAD
  8
KI2
 10
233.74712624401559
 20
116.3830073963906
 30
0.0
 11
235.69712624401561
 21
116.3830073963906
 31
0.0
  0
LINE
  5
16EAE
  8
KI2
 10
233.74712624401559
 20
116.3830073963906
 30
0.0
 11
233.44712624401561
 21
116.0830073963906
 31
0.0
  0
LINE
  5
16EAF
  8
KI2
 10
236.19712624401561
 20
117.0830073963906
 30
0.0
 11
235.69712624401561
 21
116.3830073963906
 31
0.0
  0
LINE
  5
16EB0
  8
KI2
 10
236.64712624401571
 20
117.0830073963906
 30
0.0
 11
236.19712624401561
 21
117.0830073963906
 31
0.0
  0
ARC
  5
16EB1
  8
KI2
 10
236.94712624401569
 20
117.0830073963906
 30
0.0
 40
0.3
 50
0.0
 51
90.0
  0
ARC
  5
16EB2
  8
KI2
 10
236.94712624401569
 20
117.0830073963906
 30
0.0
 40
0.3
 50
90.0
 51
180.0
  0
LINE
  5
16EB3
  8
KI2
 10
234.8471262440157
 20
124.6844656521782
 30
0.0
 11
234.8471262440157
 21
123.0830073963906
 31
0.0
  0
LINE
  5
16EB4
  8
KI2
 10
237.24712624401559
 20
117.0830073963906
 30
0.0
 11
237.69712624401561
 21
117.0830073963906
 31
0.0
  0
LINE
  5
16EB5
  8
KI2
 10
238.59869180775311
 20
120.7830073963906
 30
0.0
 11
237.24712624401559
 21
120.7830073963906
 31
0.0
  0
LINE
  5
16EB6
  8
KI2
 10
196.3471262440157
 20
126.0830073963906
 30
0.0
 11
197.3471262440157
 21
126.0830073963906
 31
0.0
  0
LINE
  5
16EB7
  8
KI2
 10
197.44712624401561
 20
118.9830073963906
 30
0.0
 11
196.3471262440157
 21
122.0230073963906
 31
0.0
  0
LINE
  5
16EB8
  8
KI2
 10
196.74712624401559
 20
116.0830073963906
 30
0.0
 11
197.44712624401561
 21
116.0830073963906
 31
0.0
  0
LINE
  5
16EB9
  8
KI2
 10
197.44712624401561
 20
117.5830073963906
 30
0.0
 11
196.8471262440157
 21
116.8830073963906
 31
0.0
  0
ARC
  5
16EBA
  8
KI2
 10
196.3471262440157
 20
125.7830073963906
 30
0.0
 40
0.3
 50
90.0
 51
180.0
  0
LINE
  5
16EBB
  8
KI2
 10
196.04712624401569
 20
122.3830073963906
 30
0.0
 11
196.3471262440157
 21
122.0230073963906
 31
0.0
  0
LINE
  5
16EBC
  8
KI2
 10
196.24712624401559
 20
116.8830073963906
 30
0.0
 11
196.24712624401559
 21
116.5830073963906
 31
0.0
  0
ARC
  5
16EBD
  8
KI2
 10
196.74712624401559
 20
116.5830073963906
 30
0.0
 40
0.5
 50
180.0
 51
270.0
  0
LINE
  5
16EBE
  8
KI2
 10
196.24712624401559
 20
116.8830073963906
 30
0.0
 11
196.8471262440157
 21
116.8830073963906
 31
0.0
  0
LINE
  5
16EBF
  8
KI2
 10
196.04712624401569
 20
125.7830073963906
 30
0.0
 11
196.04712624401569
 21
122.3830073963906
 31
0.0
  0
ARC
  5
16EC0
  8
KI2
 10
205.5471262440158
 20
125.7830073963906
 30
0.0
 40
0.3
 50
0.0
 51
90.0
  0
ARC
  5
16EC1
  8
KI2
 10
203.3471262440157
 20
124.6844656521782
 30
0.0
 40
0.3
 50
130.00000000000179
 51
180.0
  0
LINE
  5
16EC2
  8
KI2
 10
203.1542899611097
 20
124.9142789851138
 30
0.0
 11
204.5471262440158
 21
126.0830073963906
 31
0.0
  0
LINE
  5
16EC3
  8
KI2
 10
205.5471262440158
 20
126.0830073963906
 30
0.0
 11
204.5471262440158
 21
126.0830073963906
 31
0.0
  0
LINE
  5
16EC4
  8
KI2
 10
205.8471262440157
 20
122.3830073963906
 30
0.0
 11
205.5471262440158
 21
122.0230073963906
 31
0.0
  0
ARC
  5
16EC5
  8
KI2
 10
203.14712624401571
 20
122.3330073963906
 30
0.0
 40
0.75
 50
270.0
 51
90.0
  0
LINE
  5
16EC6
  8
KI2
 10
203.09869180775311
 20
121.2830073963906
 30
0.0
 11
203.09869180775311
 21
121.5830073963906
 31
0.0
  0
LINE
  5
16EC7
  8
KI2
 10
203.09869180775311
 20
121.5830073963906
 30
0.0
 11
203.14712624401571
 21
121.5830073963906
 31
0.0
  0
LINE
  5
16EC8
  8
KI2
 10
203.14712624401571
 20
123.0830073963906
 30
0.0
 11
203.0471262440158
 21
123.0830073963906
 31
0.0
  0
LINE
  5
16EC9
  8
KI2
 10
204.44712624401561
 20
118.9830073963906
 30
0.0
 11
204.44712624401561
 21
117.5830073963906
 31
0.0
  0
POINT
  5
16ECA
  8
KI2
 10
204.44712624401561
 20
118.46891912357501
 30
0.0
  0
LINE
  5
16ECB
  8
KI2
 10
204.44712624401561
 20
118.9830073963906
 30
0.0
 11
205.5471262440158
 21
122.0230073963906
 31
0.0
  0
ARC
  5
16ECC
  8
KI2
 10
202.59869180775311
 20
121.2830073963906
 30
0.0
 40
0.5
 50
270.0
 51
0.0
  0
LINE
  5
16ECD
  8
KI2
 10
205.64712624401571
 20
116.8830073963906
 30
0.0
 11
205.64712624401571
 21
116.5830073963906
 31
0.0
  0
LINE
  5
16ECE
  8
KI2
 10
205.14712624401571
 20
116.0830073963906
 30
0.0
 11
204.44712624401561
 21
116.0830073963906
 31
0.0
  0
LINE
  5
16ECF
  8
KI2
 10
204.14712624401571
 20
116.3830073963906
 30
0.0
 11
204.44712624401561
 21
116.0830073963906
 31
0.0
  0
LINE
  5
16ED0
  8
KI2
 10
201.69712624401569
 20
117.0830073963906
 30
0.0
 11
202.19712624401561
 21
116.3830073963906
 31
0.0
  0
LINE
  5
16ED1
  8
KI2
 10
204.14712624401571
 20
116.3830073963906
 30
0.0
 11
202.19712624401561
 21
116.3830073963906
 31
0.0
  0
ARC
  5
16ED2
  8
KI2
 10
205.14712624401571
 20
116.5830073963906
 30
0.0
 40
0.5
 50
270.0
 51
0.0
  0
LINE
  5
16ED3
  8
KI2
 10
205.64712624401571
 20
116.8830073963906
 30
0.0
 11
205.04712624401569
 21
116.8830073963906
 31
0.0
  0
LINE
  5
16ED4
  8
KI2
 10
204.44712624401561
 20
117.5830073963906
 30
0.0
 11
205.04712624401569
 21
116.8830073963906
 31
0.0
  0
LINE
  5
16ED5
  8
KI2
 10
205.8471262440157
 20
125.7830073963906
 30
0.0
 11
205.8471262440157
 21
122.3830073963906
 31
0.0
  0
LINE
  5
16ED6
  8
KI2
 10
203.0471262440158
 20
124.6844656521782
 30
0.0
 11
203.0471262440158
 21
123.0830073963906
 31
0.0
  0
ARC
  5
16ED7
  8
KI2
 10
198.5471262440158
 20
124.6844656521782
 30
0.0
 40
0.3
 50
0.0
 51
49.99999999999811
  0
LINE
  5
16ED8
  8
KI2
 10
198.73996252692149
 20
124.9142789851138
 30
0.0
 11
197.3471262440155
 21
126.0830073963906
 31
0.0
  0
ARC
  5
16ED9
  8
KI2
 10
198.74712624401559
 20
122.3330073963906
 30
0.0
 40
0.75
 50
90.0
 51
270.0
  0
LINE
  5
16EDA
  8
KI2
 10
198.79556068027841
 20
121.2830073963906
 30
0.0
 11
198.79556068027841
 21
121.5830073963906
 31
0.0
  0
LINE
  5
16EDB
  8
KI2
 10
198.79556068027841
 20
121.5830073963906
 30
0.0
 11
198.74712624401559
 21
121.5830073963906
 31
0.0
  0
LINE
  5
16EDC
  8
KI2
 10
198.74712624401559
 20
123.0830073963906
 30
0.0
 11
198.8471262440157
 21
123.0830073963906
 31
0.0
  0
ARC
  5
16EDD
  8
KI2
 10
200.94712624401561
 20
120.7830073963906
 30
0.0
 40
0.3
 50
270.0
 51
0.0
  0
LINE
  5
16EDE
  8
KI2
 10
197.44712624401561
 20
118.9830073963906
 30
0.0
 11
197.44712624401561
 21
117.5830073963906
 31
0.0
  0
LINE
  5
16EDF
  8
KI2
 10
199.29556068027841
 20
120.7830073963906
 30
0.0
 11
200.64712624401571
 21
120.7830073963906
 31
0.0
  0
POINT
  5
16EE0
  8
KI2
 10
197.44712624401561
 20
118.46891912357501
 30
0.0
  0
ARC
  5
16EE1
  8
KI2
 10
200.94712624401561
 20
120.7830073963906
 30
0.0
 40
0.3
 50
180.0
 51
270.0
  0
ARC
  5
16EE2
  8
KI2
 10
199.29556068027841
 20
121.2830073963906
 30
0.0
 40
0.5
 50
180.0
 51
270.0
  0
LINE
  5
16EE3
  8
KI2
 10
197.74712624401559
 20
116.3830073963906
 30
0.0
 11
199.69712624401561
 21
116.3830073963906
 31
0.0
  0
LINE
  5
16EE4
  8
KI2
 10
197.74712624401559
 20
116.3830073963906
 30
0.0
 11
197.44712624401561
 21
116.0830073963906
 31
0.0
  0
LINE
  5
16EE5
  8
KI2
 10
200.19712624401561
 20
117.0830073963906
 30
0.0
 11
199.69712624401561
 21
116.3830073963906
 31
0.0
  0
LINE
  5
16EE6
  8
KI2
 10
200.64712624401571
 20
117.0830073963906
 30
0.0
 11
200.19712624401561
 21
117.0830073963906
 31
0.0
  0
ARC
  5
16EE7
  8
KI2
 10
200.94712624401561
 20
117.0830073963906
 30
0.0
 40
0.3
 50
0.0
 51
90.0
  0
ARC
  5
16EE8
  8
KI2
 10
200.94712624401561
 20
117.0830073963906
 30
0.0
 40
0.3
 50
90.0
 51
180.0
  0
LINE
  5
16EE9
  8
KI2
 10
198.8471262440157
 20
124.6844656521782
 30
0.0
 11
198.8471262440157
 21
123.0830073963906
 31
0.0
  0
LINE
  5
16EEA
  8
KI2
 10
201.24712624401559
 20
117.0830073963906
 30
0.0
 11
201.69712624401569
 21
117.0830073963906
 31
0.0
  0
LINE
  5
16EEB
  8
KI2
 10
202.59869180775311
 20
120.7830073963906
 30
0.0
 11
201.24712624401559
 21
120.7830073963906
 31
0.0
  0
TEXT
  5
1A7F6
  8
MJ
 10
199.8874732231827
 20
279.65186288284468
 30
0.0
 40
7.0
  1
直貼りレール
 41
0.8299999999999999
 72
     4
 11
219.64147322318269
 21
283.15186288284468
 31
0.0
  0
TEXT
  5
1A7FF
  8
MJ
 10
198.05048859697709
 20
55.544736933131837
 30
0.0
 40
7.0
  1
埋込みレール
 41
0.8299999999999999
 72
     4
 11
217.80448859697711
 21
59.044736933131837
 31
0.0
  0
TEXT
  5
1AA66
  8
MJ
 10
783.67463647485965
 20
577.48474779943376
 30
0.0
 40
7.0
  1
突き合わせ部
 41
0.8299999999999999
 72
     4
 11
803.81596980819302
 21
580.98474779943376
 31
0.0
  0
LINE
  5
1CA8F
  8
KI1
 10
873.31598027028656
 20
538.98474779943376
 30
0.0
 11
803.81596980819324
 21
538.98474779943376
 31
0.0
  0
LINE
  5
1CA90
  8
KI1
 10
873.31598027028656
 20
505.98474779943427
 30
0.0
 11
803.81596980819324
 21
505.98474779943427
 31
0.0
  0
LINE
  5
1CA91
  8
KI1
 10
803.81596980819324
 20
538.98474779943376
 30
0.0
 11
803.81596980819324
 21
505.98474779943427
 31
0.0
  0
LINE
  5
1CA92
  8
KI1
 10
734.31595934609948
 20
538.98474779943376
 30
0.0
 11
803.81596980819324
 21
538.98474779943376
 31
0.0
  0
LINE
  5
1CA93
  8
KI1
 10
734.31595934609948
 20
505.98474779943427
 30
0.0
 11
803.81596980819324
 21
505.98474779943427
 31
0.0
  0
LINE
  5
1CE6B
  8
KI1
 10
989.31596980819393
 20
301.48474779943712
 30
0.0
 11
989.31596980819393
 21
268.48474875116239
 31
0.0
  0
LINE
  5
1CE6C
  8
KI2
 10
989.31597777043351
 20
293.18474996488959
 30
0.0
 11
989.31597777043351
 21
292.4847499648896
 31
0.0
  0
LINE
  5
1CE6D
  8
KI2
 10
995.31597380559776
 20
293.18474996488959
 30
0.0
 11
989.31597777043351
 21
293.18474996488959
 31
0.0
  0
LINE
  5
1CE6E
  8
KI2
 10
995.31597380559776
 20
292.4847499648896
 30
0.0
 11
989.31597777043351
 21
292.4847499648896
 31
0.0
  0
LINE
  5
1CE6F
  8
KI2
 10
989.31597245175999
 20
277.48474996488937
 30
0.0
 11
989.31597228252951
 21
276.78474996488961
 31
0.0
  0
LINE
  5
1CE70
  8
KI2
 10
989.31597228252951
 20
276.78474996488961
 30
0.0
 11
995.31597308032303
 21
276.78474851433981
 31
0.0
  0
LINE
  5
1CE71
  8
KI2
 10
989.31597245175999
 20
277.48474996488937
 30
0.0
 11
995.31597324955385
 21
277.48474851433991
 31
0.0
  0
LINE
  5
1CE72
  8
KI2
 10
998.31597380559765
 20
279.78474851433992
 30
0.0
 11
998.31597380559765
 21
290.18474996488959
 31
0.0
  0
LINE
  5
1CE73
  8
KI2
 10
997.61597380559783
 20
279.78474851433992
 30
0.0
 11
997.61597380559783
 21
290.18474996488959
 31
0.0
  0
ARC
  5
1CE74
  8
KI2
 10
995.31597380559776
 20
290.18474996488959
 30
0.0
 40
3.0
 50
0.0
 51
90.0
1001
GENIUS_GENODEF_13
1002
{
1000
HIER
1070
     0
1002
}
1002
{
1000
MANEDIT
1070
     0
1002
}
1002
{
1000
NOSEL
1070
     0
1002
}
1002
{
1000
BEHIND
1070
     0
1002
}
1002
{
1000
OTHER
1070
     0
1002
}
1002
{
1000
REACTOR
1002
}
1001
GENIUS_GENOBJ-N-FIL_13
1002
{
1000
OWNER
1000
GEN
1002
}
  0
ARC
  5
1CE75
  8
KI2
 10
995.31597380559776
 20
290.18474996488959
 30
0.0
 40
2.2999999999999989
 50
0.0
 51
90.0
1001
GENIUS_GENODEF_13
1002
{
1000
HIER
1070
     0
1002
}
1002
{
1000
MANEDIT
1070
     0
1002
}
1002
{
1000
NOSEL
1070
     0
1002
}
1002
{
1000
BEHIND
1070
     0
1002
}
1002
{
1000
OTHER
1070
     0
1002
}
1002
{
1000
REACTOR
1002
}
1001
GENIUS_GENOBJ-N-FIL_13
1002
{
1000
OWNER
1000
GEN
1002
}
  0
ARC
  5
1CE76
  8
KI2
 10
995.31597380559776
 20
279.78474851433992
 30
0.0
 40
3.0
 50
269.99998614827302
 51
0.0
1001
GENIUS_GENODEF_13
1002
{
1000
HIER
1070
     0
1002
}
1002
{
1000
MANEDIT
1070
     0
1002
}
1002
{
1000
NOSEL
1070
     0
1002
}
1002
{
1000
BEHIND
1070
     0
1002
}
1002
{
1000
OTHER
1070
     0
1002
}
1002
{
1000
REACTOR
1002
}
1001
GENIUS_GENOBJ-N-FIL_13
1002
{
1000
OWNER
1000
GEN
1002
}
  0
ARC
  5
1CE77
  8
KI2
 10
995.31597380559776
 20
279.78474851433992
 30
0.0
 40
2.2999999999999989
 50
269.99998614827302
 51
0.0
1001
GENIUS_GENODEF_13
1002
{
1000
HIER
1070
     0
1002
}
1002
{
1000
MANEDIT
1070
     0
1002
}
1002
{
1000
NOSEL
1070
     0
1002
}
1002
{
1000
BEHIND
1070
     0
1002
}
1002
{
1000
OTHER
1070
     0
1002
}
1002
{
1000
REACTOR
1002
}
1001
GENIUS_GENOBJ-N-FIL_13
1002
{
1000
OWNER
1000
GEN
1002
}
  0
LINE
  5
1CE78
  8
KI2
 10
992.31596980819381
 20
274.98474804866493
 30
0.0
 11
989.31596980819393
 21
274.98474804866498
 31
0.0
  0
LINE
  5
1CE8D
  8
KI2
 10
618.31596980819245
 20
330.98474779943041
 30
0.0
 11
615.31596980819393
 21
330.98474779943052
 31
0.0
  0
LINE
  5
1CE8E
  8
KI2
 10
618.31596184595253
 20
329.18474901315727
 30
0.0
 11
618.31596184595253
 21
328.48474901315728
 31
0.0
  0
LINE
  5
1CE8F
  8
KI2
 10
612.31596581078827
 20
329.18474901315727
 30
0.0
 11
618.31596184595253
 21
329.18474901315727
 31
0.0
  0
LINE
  5
1CE90
  8
KI2
 10
612.31596581078827
 20
328.48474901315728
 30
0.0
 11
618.31596184595253
 21
328.48474901315728
 31
0.0
  0
LINE
  5
1CE91
  8
KI2
 10
618.31596716462593
 20
313.48474901315711
 30
0.0
 11
618.31596733385652
 21
312.78474901315718
 31
0.0
  0
LINE
  5
1CE92
  8
KI2
 10
618.31596733385652
 20
312.78474901315718
 30
0.0
 11
612.31596653606289
 21
312.78474756260749
 31
0.0
  0
LINE
  5
1CE93
  8
KI2
 10
618.31596716462593
 20
313.48474901315711
 30
0.0
 11
612.31596636683219
 21
313.48474756260759
 31
0.0
  0
LINE
  5
1CE94
  8
KI2
 10
609.31596581078816
 20
315.78474756260761
 30
0.0
 11
609.31596581078816
 21
326.18474901315727
 31
0.0
  0
LINE
  5
1CE95
  8
KI2
 10
610.01596581078832
 20
315.78474756260761
 30
0.0
 11
610.01596581078832
 21
326.18474901315727
 31
0.0
  0
ARC
  5
1CE96
  8
KI2
 10
612.31596581078827
 20
326.18474901315727
 30
0.0
 40
3.0
 50
90.0
 51
180.0
1001
GENIUS_GENODEF_13
1002
{
1000
HIER
1070
     0
1002
}
1002
{
1000
MANEDIT
1070
     0
1002
}
1002
{
1000
NOSEL
1070
     0
1002
}
1002
{
1000
BEHIND
1070
     0
1002
}
1002
{
1000
OTHER
1070
     0
1002
}
1002
{
1000
REACTOR
1002
}
1001
GENIUS_GENOBJ-N-FIL_13
1002
{
1000
OWNER
1000
GEN
1002
}
  0
ARC
  5
1CE97
  8
KI2
 10
612.31596581078827
 20
326.18474901315727
 30
0.0
 40
2.2999999999999989
 50
90.0
 51
180.0
1001
GENIUS_GENODEF_13
1002
{
1000
HIER
1070
     0
1002
}
1002
{
1000
MANEDIT
1070
     0
1002
}
1002
{
1000
NOSEL
1070
     0
1002
}
1002
{
1000
BEHIND
1070
     0
1002
}
1002
{
1000
OTHER
1070
     0
1002
}
1002
{
1000
REACTOR
1002
}
1001
GENIUS_GENOBJ-N-FIL_13
1002
{
1000
OWNER
1000
GEN
1002
}
  0
ARC
  5
1CE98
  8
KI2
 10
612.31596581078827
 20
315.78474756260761
 30
0.0
 40
3.0
 50
180.0
 51
270.00001385172698
1001
GENIUS_GENODEF_13
1002
{
1000
HIER
1070
     0
1002
}
1002
{
1000
MANEDIT
1070
     0
1002
}
1002
{
1000
NOSEL
1070
     0
1002
}
1002
{
1000
BEHIND
1070
     0
1002
}
1002
{
1000
OTHER
1070
     0
1002
}
1002
{
1000
REACTOR
1002
}
1001
GENIUS_GENOBJ-N-FIL_13
1002
{
1000
OWNER
1000
GEN
1002
}
  0
ARC
  5
1CE99
  8
KI2
 10
612.31596581078827
 20
315.78474756260761
 30
0.0
 40
2.2999999999999989
 50
180.0
 51
270.00001385172698
1001
GENIUS_GENODEF_13
1002
{
1000
HIER
1070
     0
1002
}
1002
{
1000
MANEDIT
1070
     0
1002
}
1002
{
1000
NOSEL
1070
     0
1002
}
1002
{
1000
BEHIND
1070
     0
1002
}
1002
{
1000
OTHER
1070
     0
1002
}
1002
{
1000
REACTOR
1002
}
1001
GENIUS_GENOBJ-N-FIL_13
1002
{
1000
OWNER
1000
GEN
1002
}
  0
LINE
  5
1CF03
  8
KI2
 10
821.31597777043305
 20
312.7847456339789
 30
0.0
 11
821.31597777043305
 21
313.484745633979
 31
0.0
  0
LINE
  5
1CF04
  8
KI2
 10
827.31597380559731
 20
312.7847456339789
 30
0.0
 11
821.31597777043305
 21
312.7847456339789
 31
0.0
  0
LINE
  5
1CF05
  8
KI2
 10
827.31597380559731
 20
313.484745633979
 30
0.0
 11
821.31597777043305
 21
313.484745633979
 31
0.0
  0
LINE
  5
1CF06
  8
KI2
 10
821.31597245175965
 20
328.48474563397917
 30
0.0
 11
821.31597228252895
 21
329.18474563397899
 31
0.0
  0
LINE
  5
1CF07
  8
KI2
 10
821.31597228252895
 20
329.18474563397899
 30
0.0
 11
827.31597308032246
 21
329.18474708452868
 31
0.0
  0
LINE
  5
1CF08
  8
KI2
 10
821.31597245175965
 20
328.48474563397917
 30
0.0
 11
827.31597324955339
 21
328.48474708452858
 31
0.0
  0
LINE
  5
1CF09
  8
KI2
 10
830.3159738055972
 20
326.18474708452868
 30
0.0
 11
830.3159738055972
 21
315.7847456339789
 31
0.0
  0
LINE
  5
1CF0A
  8
KI2
 10
829.61597380559726
 20
326.18474708452868
 30
0.0
 11
829.61597380559726
 21
315.7847456339789
 31
0.0
  0
ARC
  5
1CF0B
  8
KI2
 10
827.31597380559731
 20
315.7847456339789
 30
0.0
 40
3.0
 50
270.0
 51
0.0
1001
GENIUS_GENODEF_13
1002
{
1000
HIER
1070
     0
1002
}
1002
{
1000
MANEDIT
1070
     0
1002
}
1002
{
1000
NOSEL
1070
     0
1002
}
1002
{
1000
BEHIND
1070
     0
1002
}
1002
{
1000
OTHER
1070
     0
1002
}
1002
{
1000
REACTOR
1002
}
1001
GENIUS_GENOBJ-N-FIL_13
1002
{
1000
OWNER
1000
GEN
1002
}
  0
ARC
  5
1CF0C
  8
KI2
 10
827.31597380559731
 20
315.7847456339789
 30
0.0
 40
2.2999999999999989
 50
270.0
 51
0.0
1001
GENIUS_GENODEF_13
1002
{
1000
HIER
1070
     0
1002
}
1002
{
1000
MANEDIT
1070
     0
1002
}
1002
{
1000
NOSEL
1070
     0
1002
}
1002
{
1000
BEHIND
1070
     0
1002
}
1002
{
1000
OTHER
1070
     0
1002
}
1002
{
1000
REACTOR
1002
}
1001
GENIUS_GENOBJ-N-FIL_13
1002
{
1000
OWNER
1000
GEN
1002
}
  0
ARC
  5
1CF0D
  8
KI2
 10
827.31597380559731
 20
326.18474708452868
 30
0.0
 40
3.0
 50
0.0
 51
90.000013851727005
1001
GENIUS_GENODEF_13
1002
{
1000
HIER
1070
     0
1002
}
1002
{
1000
MANEDIT
1070
     0
1002
}
1002
{
1000
NOSEL
1070
     0
1002
}
1002
{
1000
BEHIND
1070
     0
1002
}
1002
{
1000
OTHER
1070
     0
1002
}
1002
{
1000
REACTOR
1002
}
1001
GENIUS_GENOBJ-N-FIL_13
1002
{
1000
OWNER
1000
GEN
1002
}
  0
ARC
  5
1CF0E
  8
KI2
 10
827.31597380559731
 20
326.18474708452868
 30
0.0
 40
2.2999999999999989
 50
0.0
 51
90.000013851727005
1001
GENIUS_GENODEF_13
1002
{
1000
HIER
1070
     0
1002
}
1002
{
1000
MANEDIT
1070
     0
1002
}
1002
{
1000
NOSEL
1070
     0
1002
}
1002
{
1000
BEHIND
1070
     0
1002
}
1002
{
1000
OTHER
1070
     0
1002
}
1002
{
1000
REACTOR
1002
}
1001
GENIUS_GENOBJ-N-FIL_13
1002
{
1000
OWNER
1000
GEN
1002
}
  0
LINE
  5
1CF0F
  8
KI2
 10
786.31596184595344
 20
293.18474996488959
 30
0.0
 11
786.31596184595344
 21
292.4847499648896
 31
0.0
  0
LINE
  5
1CF10
  8
KI2
 10
780.31596581078907
 20
293.18474996488959
 30
0.0
 11
786.31596184595344
 21
293.18474996488959
 31
0.0
  0
LINE
  5
1CF11
  8
KI2
 10
780.31596581078907
 20
292.4847499648896
 30
0.0
 11
786.31596184595344
 21
292.4847499648896
 31
0.0
  0
LINE
  5
1CF12
  8
KI2
 10
786.31596716462684
 20
277.48474996488937
 30
0.0
 11
786.31596733385743
 21
276.78474996488961
 31
0.0
  0
LINE
  5
1CF13
  8
KI2
 10
786.31596733385743
 20
276.78474996488961
 30
0.0
 11
780.31596653606391
 21
276.78474851433981
 31
0.0
  0
LINE
  5
1CF14
  8
KI2
 10
786.31596716462684
 20
277.48474996488937
 30
0.0
 11
780.31596636683298
 21
277.48474851433991
 31
0.0
  0
LINE
  5
1CF15
  8
KI2
 10
777.31596581078918
 20
279.78474851433992
 30
0.0
 11
777.31596581078918
 21
290.18474996488959
 31
0.0
  0
LINE
  5
1CF16
  8
KI2
 10
778.01596581078923
 20
279.78474851433992
 30
0.0
 11
778.01596581078923
 21
290.18474996488959
 31
0.0
  0
ARC
  5
1CF17
  8
KI2
 10
780.31596581078907
 20
290.18474996488959
 30
0.0
 40
3.0
 50
90.0
 51
180.0
1001
GENIUS_GENODEF_13
1002
{
1000
HIER
1070
     0
1002
}
1002
{
1000
MANEDIT
1070
     0
1002
}
1002
{
1000
NOSEL
1070
     0
1002
}
1002
{
1000
BEHIND
1070
     0
1002
}
1002
{
1000
OTHER
1070
     0
1002
}
1002
{
1000
REACTOR
1002
}
1001
GENIUS_GENOBJ-N-FIL_13
1002
{
1000
OWNER
1000
GEN
1002
}
  0
ARC
  5
1CF18
  8
KI2
 10
780.31596581078907
 20
290.18474996488959
 30
0.0
 40
2.2999999999999989
 50
90.0
 51
180.0
1001
GENIUS_GENODEF_13
1002
{
1000
HIER
1070
     0
1002
}
1002
{
1000
MANEDIT
1070
     0
1002
}
1002
{
1000
NOSEL
1070
     0
1002
}
1002
{
1000
BEHIND
1070
     0
1002
}
1002
{
1000
OTHER
1070
     0
1002
}
1002
{
1000
REACTOR
1002
}
1001
GENIUS_GENOBJ-N-FIL_13
1002
{
1000
OWNER
1000
GEN
1002
}
  0
ARC
  5
1CF19
  8
KI2
 10
780.31596581078907
 20
279.78474851433992
 30
0.0
 40
3.0
 50
180.0
 51
270.00001385172698
1001
GENIUS_GENODEF_13
1002
{
1000
HIER
1070
     0
1002
}
1002
{
1000
MANEDIT
1070
     0
1002
}
1002
{
1000
NOSEL
1070
     0
1002
}
1002
{
1000
BEHIND
1070
     0
1002
}
1002
{
1000
OTHER
1070
     0
1002
}
1002
{
1000
REACTOR
1002
}
1001
GENIUS_GENOBJ-N-FIL_13
1002
{
1000
OWNER
1000
GEN
1002
}
  0
ARC
  5
1CF1A
  8
KI2
 10
780.31596581078907
 20
279.78474851433992
 30
0.0
 40
2.2999999999999989
 50
180.0
 51
270.00001385172698
1001
GENIUS_GENODEF_13
1002
{
1000
HIER
1070
     0
1002
}
1002
{
1000
MANEDIT
1070
     0
1002
}
1002
{
1000
NOSEL
1070
     0
1002
}
1002
{
1000
BEHIND
1070
     0
1002
}
1002
{
1000
OTHER
1070
     0
1002
}
1002
{
1000
REACTOR
1002
}
1001
GENIUS_GENOBJ-N-FIL_13
1002
{
1000
OWNER
1000
GEN
1002
}
  0
LINE
  5
1D778
  8
OS
 10
108.94710624401699
 20
316.10574394672591
 30
0.0
 11
328.94710624401711
 21
316.10574394672591
 31
0.0
  0
LINE
  5
1D779
  8
KI1
 10
123.4471062440177
 20
335.89997258078478
 30
0.0
 11
118.9471062440177
 21
328.10574394672471
 31
0.0
  0
LINE
  5
1D77A
  8
KI1
 10
114.4471062440177
 20
335.89997258078478
 30
0.0
 11
123.4471062440177
 21
335.89997258078478
 31
0.0
  0
LINE
  5
1D77B
  8
OS
 10
108.94710624401699
 20
318.10574394672591
 30
0.0
 11
328.94710624401711
 21
318.10574394672591
 31
0.0
  0
LINE
  5
1D77C
  8
OS
 10
108.94710624401699
 20
322.10574394672591
 30
0.0
 11
328.94710624401711
 21
322.10574394672591
 31
0.0
  0
LINE
  5
1D77D
  8
OS
 10
108.94710624401699
 20
326.10574394672591
 30
0.0
 11
328.94710624401711
 21
326.10574394672591
 31
0.0
  0
LINE
  5
1D77E
  8
KI1
 10
118.9471062440177
 20
328.10574394672471
 30
0.0
 11
114.4471062440177
 21
335.89997258078478
 31
0.0
  0
LINE
  5
1D77F
  8
OS
 10
108.94710624401699
 20
320.10574394672591
 30
0.0
 11
328.94710624401711
 21
320.1057439467254
 31
0.0
  0
LINE
  5
1D780
  8
OS
 10
108.94710624401699
 20
324.10574394672591
 30
0.0
 11
328.94710624401711
 21
324.10574394672591
 31
0.0
  0
LINE
  5
1D781
  8
OS
 10
108.94710624401699
 20
328.10574394672591
 30
0.0
 11
328.94710624401711
 21
328.10574394672591
 31
0.0
  0
TEXT
  5
1D782
  8
OS
 10
113.31496338687489
 20
340.13204394142281
 30
0.0
 40
7.5
  1
FL
 41
0.8299999999999999
 72
     1
 11
118.9471062440177
 21
340.13204394142281
 31
0.0
 73
     1
  0
LINE
  5
1D7C6
  8
KI1
 10
123.4471062440177
 20
132.0772361217798
 30
0.0
 11
118.9471062440177
 21
124.2830074877197
 31
0.0
  0
LINE
  5
1D7C7
  8
KI1
 10
114.4471062440177
 20
132.0772361217798
 30
0.0
 11
123.4471062440177
 21
132.0772361217798
 31
0.0
  0
LINE
  5
1D7C8
  8
KI1
 10
118.9471062440177
 20
124.2830074877197
 30
0.0
 11
114.4471062440177
 21
132.0772361217798
 31
0.0
  0
TEXT
  5
1D7C9
  8
OS
 10
113.31496338687489
 20
136.30930748241781
 30
0.0
 40
7.5
  1
FL
 41
0.8299999999999999
 72
     1
 11
118.9471062440177
 21
136.30930748241781
 31
0.0
 73
     1
  0
LINE
  5
1D9B2
  8
SU
 10
821.31596980819313
 20
405.9847477994345
 30
0.0
 11
830.3159738055972
 21
405.9847477994345
 31
0.0
  0
LINE
  5
1D9B4
  8
SU
 10
618.31596980819245
 20
338.48474684770468
 30
0.0
 11
618.31596980819245
 21
408.98474779943427
 31
0.0
  0
LINE
  5
1D9B5
  8
SU
 10
821.31596980819313
 20
338.4847468477048
 30
0.0
 11
821.31596980819313
 21
408.98474779943427
 31
0.0
  0
LINE
  5
1D9B6
  8
SU
 10
618.31596980819245
 20
405.98474779943427
 30
0.0
 11
821.31596980819313
 21
405.98474779943427
 31
0.0
  0
LINE
  5
1D9BA
  8
SU
 10
992.31596980819381
 20
374.98474779943439
 30
0.0
 11
992.31596980819381
 21
408.9847477994345
 31
0.0
  0
LINE
  5
1D9BB
  8
SU
 10
830.3159738055972
 20
327.18474708452868
 30
0.0
 11
830.3159738055972
 21
408.9847477994345
 31
0.0
  0
LINE
  5
1D9BC
  8
SU
 10
992.31596980819381
 20
405.9847477994345
 30
0.0
 11
830.3159738055972
 21
405.9847477994345
 31
0.0
  0
LINE
  5
1D9C0
  8
SU
 10
803.81596980819324
 20
539.98474779943376
 30
0.0
 11
803.81596980819324
 21
561.98474779943365
 31
0.0
  0
LINE
  5
1D9C1
  8
SU
 10
803.81596980819324
 20
558.98474779943365
 30
0.0
 11
734.31595934609948
 21
558.98474779943365
 31
0.0
  0
LINE
  5
1D9C4
  8
SU
 10
803.81596980819324
 20
558.98474779943365
 30
0.0
 11
873.31598027028656
 21
558.98474779943365
 31
0.0
  0
LINE
  5
1D9C6
  8
SU
 10
220.44709867741039
 20
576.92616117876776
 30
0.0
 11
253.44709867741059
 21
576.92616117876776
 31
0.0
  0
LINE
  5
1D9C8
  8
SU
 10
988.31596980819393
 20
164.9847477994343
 30
0.0
 11
998.31596980819393
 21
170.9847477994343
 31
0.0
  0
LINE
  5
1D9C9
  8
SU
 10
988.31596980819393
 20
176.9847477994343
 30
0.0
 11
998.31596980819393
 21
170.9847477994343
 31
0.0
  0
LINE
  5
1D9CA
  8
SU
 10
988.31596980819393
 20
164.9847477994343
 30
0.0
 11
988.31596980819393
 21
176.9847477994343
 31
0.0
  0
LINE
  5
1D9CB
  8
SU
 10
998.24824186362673
 20
170.94411103269371
 30
0.0
 11
998.24824186362673
 21
171.02538456617469
 31
0.0
  0
LINE
  5
1D9CC
  8
SU
 10
998.04824186362691
 20
170.82411103269379
 30
0.0
 11
998.04824186362691
 21
171.14538456617461
 31
0.0
  0
LINE
  5
1D9CD
  8
SU
 10
997.84824186362664
 20
170.7041110326937
 30
0.0
 11
997.84824186362664
 21
171.2653845661747
 31
0.0
  0
LINE
  5
1D9CE
  8
SU
 10
997.64824186362671
 20
170.58411103269381
 30
0.0
 11
997.64824186362671
 21
171.38538456617479
 31
0.0
  0
LINE
  5
1D9CF
  8
SU
 10
997.44824186362655
 20
170.46411103269389
 30
0.0
 11
997.44824186362655
 21
171.50538456617471
 31
0.0
  0
LINE
  5
1D9D0
  8
SU
 10
997.24824186362684
 20
170.3441110326938
 30
0.0
 11
997.24824186362684
 21
171.6253845661746
 31
0.0
  0
LINE
  5
1D9D1
  8
SU
 10
997.04824186362691
 20
170.22411103269371
 30
0.0
 11
997.04824186362691
 21
171.74538456617469
 31
0.0
  0
LINE
  5
1D9D2
  8
SU
 10
996.84824186362664
 20
170.10411103269379
 30
0.0
 11
996.84824186362664
 21
171.86538456617481
 31
0.0
  0
LINE
  5
1D9D3
  8
SU
 10
996.64824186362671
 20
169.9841110326939
 30
0.0
 11
996.64824186362671
 21
171.9853845661747
 31
0.0
  0
LINE
  5
1D9D4
  8
SU
 10
996.44824186362655
 20
169.86411103269401
 30
0.0
 11
996.44824186362655
 21
172.10538456617459
 31
0.0
  0
LINE
  5
1D9D5
  8
SU
 10
996.24824186362684
 20
169.7441110326937
 30
0.0
 11
996.24824186362684
 21
172.22538456617471
 31
0.0
  0
LINE
  5
1D9D6
  8
SU
 10
996.04824186362691
 20
169.6241110326938
 30
0.0
 11
996.04824186362691
 21
172.3453845661748
 31
0.0
  0
LINE
  5
1D9D7
  8
SU
 10
995.84824186362675
 20
169.50411103269391
 30
0.0
 11
995.84824186362675
 21
172.46538456617469
 31
0.0
  0
LINE
  5
1D9D8
  8
SU
 10
995.64824186362682
 20
169.3841110326938
 30
0.0
 11
995.64824186362682
 21
172.58538456617461
 31
0.0
  0
LINE
  5
1D9D9
  8
SU
 10
995.44824186362655
 20
169.2641110326939
 30
0.0
 11
995.44824186362655
 21
172.7053845661747
 31
0.0
  0
LINE
  5
1D9DA
  8
SU
 10
995.24824186362662
 20
169.14411103269379
 30
0.0
 11
995.24824186362662
 21
172.82538456617459
 31
0.0
  0
LINE
  5
1D9DB
  8
SU
 10
995.04824186362691
 20
169.0241110326939
 30
0.0
 11
995.04824186362691
 21
172.94538456617471
 31
0.0
  0
LINE
  5
1D9DC
  8
SU
 10
994.84824186362675
 20
168.90411103269381
 30
0.0
 11
994.84824186362675
 21
173.0653845661746
 31
0.0
  0
LINE
  5
1D9DD
  8
SU
 10
994.64824186362682
 20
168.78411103269389
 30
0.0
 11
994.64824186362682
 21
173.1853845661748
 31
0.0
  0
LINE
  5
1D9DE
  8
SU
 10
994.44824186362655
 20
168.66411103269371
 30
0.0
 11
994.44824186362655
 21
173.30538456617461
 31
0.0
  0
LINE
  5
1D9DF
  8
SU
 10
994.24824186362673
 20
168.54411103269391
 30
0.0
 11
994.24824186362673
 21
173.42538456617481
 31
0.0
  0
LINE
  5
1D9E0
  8
SU
 10
994.04824186362691
 20
168.42411103269399
 30
0.0
 11
994.04824186362691
 21
173.54538456617459
 31
0.0
  0
LINE
  5
1D9E1
  8
SU
 10
993.84824186362675
 20
168.30411103269381
 30
0.0
 11
993.84824186362675
 21
173.66538456617479
 31
0.0
  0
LINE
  5
1D9E2
  8
SU
 10
993.64824186362682
 20
168.18411103269369
 30
0.0
 11
993.64824186362682
 21
173.78538456617471
 31
0.0
  0
LINE
  5
1D9E3
  8
SU
 10
993.44824186362655
 20
168.0641110326938
 30
0.0
 11
993.44824186362655
 21
173.9053845661748
 31
0.0
  0
LINE
  5
1D9E4
  8
SU
 10
993.24824186362673
 20
167.94411103269371
 30
0.0
 11
993.24824186362673
 21
174.02538456617469
 31
0.0
  0
LINE
  5
1D9E5
  8
SU
 10
993.04824186362703
 20
167.82411103269379
 30
0.0
 11
993.04824186362703
 21
174.14538456617461
 31
0.0
  0
LINE
  5
1D9E6
  8
SU
 10
992.84824186362653
 20
167.7041110326937
 30
0.0
 11
992.84824186362653
 21
174.2653845661747
 31
0.0
  0
LINE
  5
1D9E7
  8
SU
 10
992.64824186362682
 20
167.58411103269381
 30
0.0
 11
992.64824186362682
 21
174.38538456617479
 31
0.0
  0
LINE
  5
1D9E8
  8
SU
 10
992.44824186362655
 20
167.46411103269389
 30
0.0
 11
992.44824186362655
 21
174.50538456617471
 31
0.0
  0
LINE
  5
1D9E9
  8
SU
 10
992.24824186362673
 20
167.3441110326938
 30
0.0
 11
992.24824186362673
 21
174.6253845661746
 31
0.0
  0
LINE
  5
1D9EA
  8
SU
 10
992.0482418636268
 20
167.22411103269371
 30
0.0
 11
992.0482418636268
 21
174.74538456617469
 31
0.0
  0
LINE
  5
1D9EB
  8
SU
 10
991.84824186362664
 20
167.10411103269379
 30
0.0
 11
991.84824186362664
 21
174.86538456617481
 31
0.0
  0
LINE
  5
1D9EC
  8
SU
 10
991.64824186362694
 20
166.9841110326939
 30
0.0
 11
991.64824186362694
 21
174.9853845661747
 31
0.0
  0
LINE
  5
1D9ED
  8
SU
 10
991.44824186362655
 20
166.86411103269401
 30
0.0
 11
991.44824186362655
 21
175.10538456617459
 31
0.0
  0
LINE
  5
1D9EE
  8
SU
 10
991.24824186362673
 20
166.7441110326937
 30
0.0
 11
991.24824186362673
 21
175.22538456617471
 31
0.0
  0
LINE
  5
1D9EF
  8
SU
 10
991.0482418636268
 20
166.6241110326938
 30
0.0
 11
991.0482418636268
 21
175.3453845661748
 31
0.0
  0
LINE
  5
1D9F0
  8
SU
 10
990.84824186362664
 20
166.50411103269391
 30
0.0
 11
990.84824186362664
 21
175.46538456617469
 31
0.0
  0
LINE
  5
1D9F1
  8
SU
 10
990.64824186362694
 20
166.3841110326938
 30
0.0
 11
990.64824186362694
 21
175.58538456617461
 31
0.0
  0
LINE
  5
1D9F2
  8
SU
 10
990.44824186362644
 20
166.2641110326939
 30
0.0
 11
990.44824186362644
 21
175.7053845661747
 31
0.0
  0
LINE
  5
1D9F3
  8
SU
 10
990.24824186362673
 20
166.14411103269379
 30
0.0
 11
990.24824186362673
 21
175.82538456617459
 31
0.0
  0
LINE
  5
1D9F4
  8
SU
 10
990.0482418636268
 20
166.0241110326939
 30
0.0
 11
990.0482418636268
 21
175.94538456617471
 31
0.0
  0
LINE
  5
1D9F5
  8
SU
 10
989.84824186362664
 20
165.90411103269381
 30
0.0
 11
989.84824186362664
 21
176.0653845661746
 31
0.0
  0
LINE
  5
1D9F6
  8
SU
 10
989.64824186362671
 20
165.78411103269389
 30
0.0
 11
989.64824186362671
 21
176.1853845661748
 31
0.0
  0
LINE
  5
1D9F7
  8
SU
 10
989.44824186362655
 20
165.66411103269371
 30
0.0
 11
989.44824186362655
 21
176.30538456617461
 31
0.0
  0
LINE
  5
1D9F8
  8
SU
 10
989.24824186362684
 20
165.54411103269391
 30
0.0
 11
989.24824186362684
 21
176.4253845661747
 31
0.0
  0
LINE
  5
1D9F9
  8
SU
 10
989.04824186362691
 20
165.42411103269399
 30
0.0
 11
989.04824186362691
 21
176.54538456617459
 31
0.0
  0
LINE
  5
1D9FA
  8
SU
 10
988.84824186362664
 20
165.30411103269381
 30
0.0
 11
988.84824186362664
 21
176.66538456617479
 31
0.0
  0
LINE
  5
1D9FB
  8
SU
 10
988.64824186362671
 20
165.18411103269369
 30
0.0
 11
988.64824186362671
 21
176.78538456617471
 31
0.0
  0
LINE
  5
1D9FC
  8
SU
 10
988.44824186362655
 20
165.0641110326938
 30
0.0
 11
988.44824186362655
 21
176.9053845661748
 31
0.0
  0
LINE
  5
1D9FD
  8
SU
 10
394.94710624401569
 20
654.10574195290997
 30
0.0
 11
388.94710624401569
 21
664.10574195291008
 31
0.0
  0
LINE
  5
1D9FE
  8
SU
 10
382.94710624401569
 20
654.10574195290997
 30
0.0
 11
388.94710624401569
 21
664.10574195291008
 31
0.0
  0
LINE
  5
1D9FF
  8
SU
 10
394.94710624401569
 20
654.10574195290997
 30
0.0
 11
382.94710624401569
 21
654.10574195290997
 31
0.0
  0
LINE
  5
1DA00
  8
SU
 10
388.98774301075628
 20
664.03801400834277
 30
0.0
 11
388.90646947727532
 21
664.03801400834277
 31
0.0
  0
LINE
  5
1DA01
  8
SU
 10
389.10774301075622
 20
663.83801400834295
 30
0.0
 11
388.78646947727538
 21
663.83801400834295
 31
0.0
  0
LINE
  5
1DA02
  8
SU
 10
389.22774301075629
 20
663.63801400834279
 30
0.0
 11
388.66646947727531
 21
663.63801400834279
 31
0.0
  0
LINE
  5
1DA03
  8
SU
 10
389.34774301075618
 20
663.43801400834286
 30
0.0
 11
388.5464694772752
 21
663.43801400834286
 31
0.0
  0
LINE
  5
1DA04
  8
SU
 10
389.46774301075612
 20
663.2380140083427
 30
0.0
 11
388.4264694772753
 21
663.2380140083427
 31
0.0
  0
LINE
  5
1DA05
  8
SU
 10
389.58774301075618
 20
663.03801400834288
 30
0.0
 11
388.30646947727541
 21
663.03801400834288
 31
0.0
  0
LINE
  5
1DA06
  8
SU
 10
389.7077430107563
 20
662.83801400834307
 30
0.0
 11
388.1864694772753
 21
662.83801400834307
 31
0.0
  0
LINE
  5
1DA07
  8
SU
 10
389.82774301075619
 20
662.63801400834268
 30
0.0
 11
388.06646947727518
 21
662.63801400834268
 31
0.0
  0
LINE
  5
1DA08
  8
SU
 10
389.94774301075608
 20
662.43801400834286
 30
0.0
 11
387.94646947727529
 21
662.43801400834286
 31
0.0
  0
LINE
  5
1DA09
  8
SU
 10
390.06774301075598
 20
662.2380140083427
 30
0.0
 11
387.8264694772754
 21
662.2380140083427
 31
0.0
  0
LINE
  5
1DA0A
  8
SU
 10
390.18774301075632
 20
662.03801400834288
 30
0.0
 11
387.70646947727528
 21
662.03801400834288
 31
0.0
  0
LINE
  5
1DA0B
  8
SU
 10
390.30774301075621
 20
661.83801400834307
 30
0.0
 11
387.58646947727522
 21
661.83801400834307
 31
0.0
  0
LINE
  5
1DA0C
  8
SU
 10
390.4277430107561
 20
661.63801400834268
 30
0.0
 11
387.46646947727533
 21
661.63801400834268
 31
0.0
  0
LINE
  5
1DA0D
  8
SU
 10
390.54774301075622
 20
661.43801400834286
 30
0.0
 11
387.34646947727538
 21
661.43801400834286
 31
0.0
  0
LINE
  5
1DA0E
  8
SU
 10
390.66774301075611
 20
661.2380140083427
 30
0.0
 11
387.2264694772752
 21
661.2380140083427
 31
0.0
  0
LINE
  5
1DA0F
  8
SU
 10
390.78774301075617
 20
661.03801400834277
 30
0.0
 11
387.10646947727531
 21
661.03801400834277
 31
0.0
  0
LINE
  5
1DA10
  8
SU
 10
390.90774301075612
 20
660.83801400834295
 30
0.0
 11
386.98646947727519
 21
660.83801400834295
 31
0.0
  0
LINE
  5
1DA11
  8
SU
 10
391.0277430107563
 20
660.63801400834279
 30
0.0
 11
386.86646947727542
 21
660.63801400834279
 31
0.0
  0
LINE
  5
1DA12
  8
SU
 10
391.14774301075607
 20
660.43801400834298
 30
0.0
 11
386.7464694772753
 21
660.43801400834298
 31
0.0
  0
LINE
  5
1DA13
  8
SU
 10
391.26774301075619
 20
660.23801400834259
 30
0.0
 11
386.62646947727541
 21
660.23801400834259
 31
0.0
  0
LINE
  5
1DA14
  8
SU
 10
391.38774301075608
 20
660.03801400834277
 30
0.0
 11
386.50646947727529
 21
660.03801400834277
 31
0.0
  0
LINE
  5
1DA15
  8
SU
 10
391.50774301075597
 20
659.83801400834295
 30
0.0
 11
386.3864694772754
 21
659.83801400834295
 31
0.0
  0
LINE
  5
1DA16
  8
SU
 10
391.62774301075621
 20
659.63801400834279
 30
0.0
 11
386.26646947727522
 21
659.63801400834279
 31
0.0
  0
LINE
  5
1DA17
  8
SU
 10
391.74774301075632
 20
659.43801400834298
 30
0.0
 11
386.14646947727528
 21
659.43801400834298
 31
0.0
  0
LINE
  5
1DA18
  8
SU
 10
391.86774301075621
 20
659.23801400834259
 30
0.0
 11
386.02646947727521
 21
659.23801400834259
 31
0.0
  0
LINE
  5
1DA19
  8
SU
 10
391.98774301075628
 20
659.03801400834277
 30
0.0
 11
385.90646947727532
 21
659.03801400834277
 31
0.0
  0
LINE
  5
1DA1A
  8
SU
 10
392.10774301075622
 20
658.83801400834295
 30
0.0
 11
385.78646947727549
 21
658.83801400834295
 31
0.0
  0
LINE
  5
1DA1B
  8
SU
 10
392.22774301075629
 20
658.63801400834268
 30
0.0
 11
385.66646947727531
 21
658.63801400834268
 31
0.0
  0
LINE
  5
1DA1C
  8
SU
 10
392.34774301075618
 20
658.43801400834286
 30
0.0
 11
385.5464694772752
 21
658.43801400834286
 31
0.0
  0
LINE
  5
1DA1D
  8
SU
 10
392.46774301075612
 20
658.2380140083427
 30
0.0
 11
385.4264694772753
 21
658.2380140083427
 31
0.0
  0
LINE
  5
1DA1E
  8
SU
 10
392.58774301075618
 20
658.03801400834288
 30
0.0
 11
385.30646947727541
 21
658.03801400834288
 31
0.0
  0
LINE
  5
1DA1F
  8
SU
 10
392.7077430107563
 20
657.83801400834307
 30
0.0
 11
385.1864694772753
 21
657.83801400834307
 31
0.0
  0
LINE
  5
1DA20
  8
SU
 10
392.82774301075619
 20
657.63801400834268
 30
0.0
 11
385.06646947727518
 21
657.63801400834268
 31
0.0
  0
LINE
  5
1DA21
  8
SU
 10
392.94774301075608
 20
657.43801400834286
 30
0.0
 11
384.94646947727529
 21
657.43801400834286
 31
0.0
  0
LINE
  5
1DA22
  8
SU
 10
393.06774301075598
 20
657.2380140083427
 30
0.0
 11
384.8264694772754
 21
657.2380140083427
 31
0.0
  0
LINE
  5
1DA23
  8
SU
 10
393.18774301075632
 20
657.03801400834288
 30
0.0
 11
384.70646947727528
 21
657.03801400834288
 31
0.0
  0
LINE
  5
1DA24
  8
SU
 10
393.30774301075621
 20
656.83801400834295
 30
0.0
 11
384.5864694772751
 21
656.83801400834295
 31
0.0
  0
LINE
  5
1DA25
  8
SU
 10
393.4277430107561
 20
656.63801400834279
 30
0.0
 11
384.46646947727533
 21
656.63801400834279
 31
0.0
  0
LINE
  5
1DA26
  8
SU
 10
393.54774301075622
 20
656.43801400834298
 30
0.0
 11
384.34646947727538
 21
656.43801400834298
 31
0.0
  0
LINE
  5
1DA27
  8
SU
 10
393.66774301075611
 20
656.23801400834259
 30
0.0
 11
384.22646947727532
 21
656.23801400834259
 31
0.0
  0
LINE
  5
1DA28
  8
SU
 10
393.78774301075617
 20
656.03801400834277
 30
0.0
 11
384.10646947727543
 21
656.03801400834277
 31
0.0
  0
LINE
  5
1DA29
  8
SU
 10
393.90774301075612
 20
655.83801400834295
 30
0.0
 11
383.98646947727531
 21
655.83801400834295
 31
0.0
  0
LINE
  5
1DA2A
  8
SU
 10
394.02774301075618
 20
655.63801400834279
 30
0.0
 11
383.86646947727542
 21
655.63801400834279
 31
0.0
  0
LINE
  5
1DA2B
  8
SU
 10
394.14774301075607
 20
655.43801400834298
 30
0.0
 11
383.74646947727518
 21
655.43801400834298
 31
0.0
  0
LINE
  5
1DA2C
  8
SU
 10
394.26774301075631
 20
655.23801400834259
 30
0.0
 11
383.62646947727529
 21
655.23801400834259
 31
0.0
  0
LINE
  5
1DA2D
  8
SU
 10
394.3877430107562
 20
655.03801400834277
 30
0.0
 11
383.50646947727517
 21
655.03801400834277
 31
0.0
  0
LINE
  5
1DA2E
  8
SU
 10
394.50774301075597
 20
654.83801400834295
 30
0.0
 11
383.38646947727528
 21
654.83801400834295
 31
0.0
  0
LINE
  5
1DA2F
  8
SU
 10
394.62774301075609
 20
654.63801400834279
 30
0.0
 11
383.26646947727522
 21
654.63801400834279
 31
0.0
  0
LINE
  5
1DA30
  8
SU
 10
394.74774301075632
 20
654.43801400834286
 30
0.0
 11
383.14646947727528
 21
654.43801400834286
 31
0.0
  0
LINE
  5
1DA31
  8
SU
 10
394.86774301075621
 20
654.2380140083427
 30
0.0
 11
383.02646947727521
 21
654.2380140083427
 31
0.0
  0
LINE
  5
1DA32
  8
SU
 10
394.9471062440158
 20
338.10574394672591
 30
0.0
 11
388.9471062440158
 21
328.10574394672591
 31
0.0
  0
LINE
  5
1DA33
  8
SU
 10
382.9471062440158
 20
338.10574394672591
 30
0.0
 11
388.9471062440158
 21
328.10574394672591
 31
0.0
  0
LINE
  5
1DA34
  8
SU
 10
394.9471062440158
 20
338.10574394672591
 30
0.0
 11
382.9471062440158
 21
338.10574394672591
 31
0.0
  0
LINE
  5
1DA35
  8
SU
 10
388.98774301075639
 20
328.1734718912931
 30
0.0
 11
388.90646947727538
 21
328.1734718912931
 31
0.0
  0
LINE
  5
1DA36
  8
SU
 10
389.10774301075628
 20
328.37347189129292
 30
0.0
 11
388.7864694772756
 21
328.37347189129292
 31
0.0
  0
LINE
  5
1DA37
  8
SU
 10
389.2277430107564
 20
328.5734718912932
 30
0.0
 11
388.66646947727543
 21
328.5734718912932
 31
0.0
  0
LINE
  5
1DA38
  8
SU
 10
389.34774301075629
 20
328.77347189129301
 30
0.0
 11
388.54646947727531
 21
328.77347189129301
 31
0.0
  0
LINE
  5
1DA39
  8
SU
 10
389.46774301075618
 20
328.97347189129317
 30
0.0
 11
388.42646947727542
 21
328.97347189129317
 31
0.0
  0
LINE
  5
1DA3A
  8
SU
 10
389.5877430107563
 20
329.17347189129299
 30
0.0
 11
388.30646947727553
 21
329.17347189129299
 31
0.0
  0
LINE
  5
1DA3B
  8
SU
 10
389.70774301075642
 20
329.37347189129292
 30
0.0
 11
388.18646947727541
 21
329.37347189129292
 31
0.0
  0
LINE
  5
1DA3C
  8
SU
 10
389.82774301075631
 20
329.57347189129308
 30
0.0
 11
388.06646947727529
 21
329.57347189129308
 31
0.0
  0
LINE
  5
1DA3D
  8
SU
 10
389.9477430107562
 20
329.77347189129301
 30
0.0
 11
387.9464694772754
 21
329.77347189129301
 31
0.0
  0
LINE
  5
1DA3E
  8
SU
 10
390.06774301075609
 20
329.97347189129317
 30
0.0
 11
387.82646947727551
 21
329.97347189129317
 31
0.0
  0
LINE
  5
1DA3F
  8
SU
 10
390.18774301075638
 20
330.1734718912931
 30
0.0
 11
387.70646947727539
 21
330.1734718912931
 31
0.0
  0
LINE
  5
1DA40
  8
SU
 10
390.30774301075633
 20
330.37347189129292
 30
0.0
 11
387.58646947727527
 21
330.37347189129292
 31
0.0
  0
LINE
  5
1DA41
  8
SU
 10
390.42774301075622
 20
330.5734718912932
 30
0.0
 11
387.46646947727538
 21
330.5734718912932
 31
0.0
  0
LINE
  5
1DA42
  8
SU
 10
390.54774301075639
 20
330.77347189129301
 30
0.0
 11
387.34646947727549
 21
330.77347189129301
 31
0.0
  0
LINE
  5
1DA43
  8
SU
 10
390.66774301075623
 20
330.97347189129317
 30
0.0
 11
387.22646947727537
 21
330.97347189129317
 31
0.0
  0
LINE
  5
1DA44
  8
SU
 10
390.78774301075629
 20
331.17347189129299
 30
0.0
 11
387.10646947727548
 21
331.17347189129299
 31
0.0
  0
LINE
  5
1DA45
  8
SU
 10
390.90774301075618
 20
331.37347189129292
 30
0.0
 11
386.98646947727542
 21
331.37347189129292
 31
0.0
  0
LINE
  5
1DA46
  8
SU
 10
391.02774301075641
 20
331.57347189129308
 30
0.0
 11
386.86646947727547
 21
331.57347189129308
 31
0.0
  0
LINE
  5
1DA47
  8
SU
 10
391.1477430107563
 20
331.77347189129301
 30
0.0
 11
386.74646947727541
 21
331.77347189129301
 31
0.0
  0
LINE
  5
1DA48
  8
SU
 10
391.26774301075642
 20
331.97347189129317
 30
0.0
 11
386.62646947727552
 21
331.97347189129317
 31
0.0
  0
LINE
  5
1DA49
  8
SU
 10
391.38774301075631
 20
332.1734718912931
 30
0.0
 11
386.50646947727529
 21
332.1734718912931
 31
0.0
  0
LINE
  5
1DA4A
  8
SU
 10
391.5077430107562
 20
332.37347189129292
 30
0.0
 11
386.38646947727551
 21
332.37347189129292
 31
0.0
  0
LINE
  5
1DA4B
  8
SU
 10
391.62774301075632
 20
332.5734718912932
 30
0.0
 11
386.26646947727539
 21
332.5734718912932
 31
0.0
  0
LINE
  5
1DA4C
  8
SU
 10
391.74774301075638
 20
332.77347189129301
 30
0.0
 11
386.1464694772755
 21
332.77347189129301
 31
0.0
  0
LINE
  5
1DA4D
  8
SU
 10
391.86774301075621
 20
332.97347189129317
 30
0.0
 11
386.02646947727533
 21
332.97347189129317
 31
0.0
  0
LINE
  5
1DA4E
  8
SU
 10
391.98774301075639
 20
333.17347189129299
 30
0.0
 11
385.90646947727538
 21
333.17347189129299
 31
0.0
  0
LINE
  5
1DA4F
  8
SU
 10
392.10774301075628
 20
333.37347189129292
 30
0.0
 11
385.78646947727549
 21
333.37347189129292
 31
0.0
  0
LINE
  5
1DA50
  8
SU
 10
392.2277430107564
 20
333.57347189129308
 30
0.0
 11
385.66646947727543
 21
333.57347189129308
 31
0.0
  0
LINE
  5
1DA51
  8
SU
 10
392.34774301075629
 20
333.77347189129301
 30
0.0
 11
385.54646947727531
 21
333.77347189129301
 31
0.0
  0
LINE
  5
1DA52
  8
SU
 10
392.46774301075618
 20
333.97347189129317
 30
0.0
 11
385.42646947727542
 21
333.97347189129317
 31
0.0
  0
LINE
  5
1DA53
  8
SU
 10
392.5877430107563
 20
334.1734718912931
 30
0.0
 11
385.30646947727553
 21
334.1734718912931
 31
0.0
  0
LINE
  5
1DA54
  8
SU
 10
392.70774301075642
 20
334.37347189129292
 30
0.0
 11
385.18646947727541
 21
334.37347189129292
 31
0.0
  0
LINE
  5
1DA55
  8
SU
 10
392.82774301075631
 20
334.5734718912932
 30
0.0
 11
385.06646947727529
 21
334.5734718912932
 31
0.0
  0
LINE
  5
1DA56
  8
SU
 10
392.9477430107562
 20
334.77347189129301
 30
0.0
 11
384.9464694772754
 21
334.77347189129301
 31
0.0
  0
LINE
  5
1DA57
  8
SU
 10
393.06774301075609
 20
334.97347189129317
 30
0.0
 11
384.82646947727551
 21
334.97347189129317
 31
0.0
  0
LINE
  5
1DA58
  8
SU
 10
393.18774301075638
 20
335.17347189129299
 30
0.0
 11
384.70646947727539
 21
335.17347189129299
 31
0.0
  0
LINE
  5
1DA59
  8
SU
 10
393.30774301075633
 20
335.37347189129281
 30
0.0
 11
384.58646947727527
 21
335.37347189129281
 31
0.0
  0
LINE
  5
1DA5A
  8
SU
 10
393.42774301075622
 20
335.57347189129308
 30
0.0
 11
384.46646947727538
 21
335.57347189129308
 31
0.0
  0
LINE
  5
1DA5B
  8
SU
 10
393.54774301075628
 20
335.77347189129301
 30
0.0
 11
384.34646947727549
 21
335.77347189129301
 31
0.0
  0
LINE
  5
1DA5C
  8
SU
 10
393.66774301075623
 20
335.97347189129317
 30
0.0
 11
384.22646947727537
 21
335.97347189129317
 31
0.0
  0
LINE
  5
1DA5D
  8
SU
 10
393.7877430107564
 20
336.1734718912931
 30
0.0
 11
384.10646947727548
 21
336.1734718912931
 31
0.0
  0
LINE
  5
1DA5E
  8
SU
 10
393.90774301075629
 20
336.37347189129292
 30
0.0
 11
383.98646947727531
 21
336.37347189129292
 31
0.0
  0
LINE
  5
1DA5F
  8
SU
 10
394.02774301075641
 20
336.5734718912932
 30
0.0
 11
383.86646947727547
 21
336.5734718912932
 31
0.0
  0
LINE
  5
1DA60
  8
SU
 10
394.14774301075619
 20
336.77347189129301
 30
0.0
 11
383.74646947727541
 21
336.77347189129301
 31
0.0
  0
LINE
  5
1DA61
  8
SU
 10
394.26774301075631
 20
336.97347189129317
 30
0.0
 11
383.62646947727552
 21
336.97347189129317
 31
0.0
  0
LINE
  5
1DA62
  8
SU
 10
394.3877430107562
 20
337.17347189129299
 30
0.0
 11
383.5064694772754
 21
337.17347189129299
 31
0.0
  0
LINE
  5
1DA63
  8
SU
 10
394.50774301075609
 20
337.37347189129281
 30
0.0
 11
383.38646947727551
 21
337.37347189129281
 31
0.0
  0
LINE
  5
1DA64
  8
SU
 10
394.62774301075632
 20
337.57347189129308
 30
0.0
 11
383.26646947727528
 21
337.57347189129308
 31
0.0
  0
LINE
  5
1DA65
  8
SU
 10
394.74774301075638
 20
337.7734718912929
 30
0.0
 11
383.14646947727539
 21
337.7734718912929
 31
0.0
  0
LINE
  5
1DA66
  8
SU
 10
394.86774301075633
 20
337.97347189129317
 30
0.0
 11
383.02646947727533
 21
337.97347189129317
 31
0.0
  0
LINE
  5
1DA67
  8
SU
 10
394.9471062440158
 20
134.28300748772079
 30
0.0
 11
388.9471062440158
 21
124.28300748772079
 31
0.0
  0
LINE
  5
1DA68
  8
SU
 10
382.9471062440158
 20
134.28300748772079
 30
0.0
 11
388.9471062440158
 21
124.28300748772079
 31
0.0
  0
LINE
  5
1DA69
  8
SU
 10
394.9471062440158
 20
134.28300748772079
 30
0.0
 11
382.9471062440158
 21
134.28300748772079
 31
0.0
  0
LINE
  5
1DA6A
  8
SU
 10
388.98774301075639
 20
124.350735432288
 30
0.0
 11
388.90646947727538
 21
124.350735432288
 31
0.0
  0
LINE
  5
1DA6B
  8
SU
 10
389.10774301075628
 20
124.55073543228779
 30
0.0
 11
388.7864694772756
 21
124.55073543228779
 31
0.0
  0
LINE
  5
1DA6C
  8
SU
 10
389.2277430107564
 20
124.7507354322881
 30
0.0
 11
388.66646947727543
 21
124.7507354322881
 31
0.0
  0
LINE
  5
1DA6D
  8
SU
 10
389.34774301075629
 20
124.9507354322879
 30
0.0
 11
388.54646947727531
 21
124.9507354322879
 31
0.0
  0
LINE
  5
1DA6E
  8
SU
 10
389.46774301075618
 20
125.1507354322882
 30
0.0
 11
388.42646947727542
 21
125.1507354322882
 31
0.0
  0
LINE
  5
1DA6F
  8
SU
 10
389.5877430107563
 20
125.350735432288
 30
0.0
 11
388.30646947727553
 21
125.350735432288
 31
0.0
  0
LINE
  5
1DA70
  8
SU
 10
389.70774301075642
 20
125.55073543228779
 30
0.0
 11
388.18646947727541
 21
125.55073543228779
 31
0.0
  0
LINE
  5
1DA71
  8
SU
 10
389.82774301075631
 20
125.7507354322881
 30
0.0
 11
388.06646947727529
 21
125.7507354322881
 31
0.0
  0
LINE
  5
1DA72
  8
SU
 10
389.9477430107562
 20
125.9507354322879
 30
0.0
 11
387.9464694772754
 21
125.9507354322879
 31
0.0
  0
LINE
  5
1DA73
  8
SU
 10
390.06774301075609
 20
126.1507354322882
 30
0.0
 11
387.82646947727551
 21
126.1507354322882
 31
0.0
  0
LINE
  5
1DA74
  8
SU
 10
390.18774301075638
 20
126.350735432288
 30
0.0
 11
387.70646947727539
 21
126.350735432288
 31
0.0
  0
LINE
  5
1DA75
  8
SU
 10
390.30774301075633
 20
126.55073543228779
 30
0.0
 11
387.58646947727527
 21
126.55073543228779
 31
0.0
  0
LINE
  5
1DA76
  8
SU
 10
390.42774301075622
 20
126.7507354322881
 30
0.0
 11
387.46646947727538
 21
126.7507354322881
 31
0.0
  0
LINE
  5
1DA77
  8
SU
 10
390.54774301075639
 20
126.9507354322879
 30
0.0
 11
387.34646947727549
 21
126.9507354322879
 31
0.0
  0
LINE
  5
1DA78
  8
SU
 10
390.66774301075623
 20
127.1507354322882
 30
0.0
 11
387.22646947727537
 21
127.1507354322882
 31
0.0
  0
LINE
  5
1DA79
  8
SU
 10
390.78774301075629
 20
127.350735432288
 30
0.0
 11
387.10646947727548
 21
127.350735432288
 31
0.0
  0
LINE
  5
1DA7A
  8
SU
 10
390.90774301075618
 20
127.55073543228779
 30
0.0
 11
386.98646947727542
 21
127.55073543228779
 31
0.0
  0
LINE
  5
1DA7B
  8
SU
 10
391.02774301075641
 20
127.7507354322881
 30
0.0
 11
386.86646947727547
 21
127.7507354322881
 31
0.0
  0
LINE
  5
1DA7C
  8
SU
 10
391.1477430107563
 20
127.9507354322879
 30
0.0
 11
386.74646947727541
 21
127.9507354322879
 31
0.0
  0
LINE
  5
1DA7D
  8
SU
 10
391.26774301075642
 20
128.1507354322882
 30
0.0
 11
386.62646947727552
 21
128.1507354322882
 31
0.0
  0
LINE
  5
1DA7E
  8
SU
 10
391.38774301075631
 20
128.35073543228799
 30
0.0
 11
386.50646947727529
 21
128.35073543228799
 31
0.0
  0
LINE
  5
1DA7F
  8
SU
 10
391.5077430107562
 20
128.55073543228781
 30
0.0
 11
386.38646947727551
 21
128.55073543228781
 31
0.0
  0
LINE
  5
1DA80
  8
SU
 10
391.62774301075632
 20
128.75073543228811
 30
0.0
 11
386.26646947727539
 21
128.75073543228811
 31
0.0
  0
LINE
  5
1DA81
  8
SU
 10
391.74774301075638
 20
128.9507354322879
 30
0.0
 11
386.1464694772755
 21
128.9507354322879
 31
0.0
  0
LINE
  5
1DA82
  8
SU
 10
391.86774301075621
 20
129.1507354322882
 30
0.0
 11
386.02646947727533
 21
129.1507354322882
 31
0.0
  0
LINE
  5
1DA83
  8
SU
 10
391.98774301075639
 20
129.35073543228799
 30
0.0
 11
385.90646947727538
 21
129.35073543228799
 31
0.0
  0
LINE
  5
1DA84
  8
SU
 10
392.10774301075628
 20
129.55073543228789
 30
0.0
 11
385.78646947727549
 21
129.55073543228789
 31
0.0
  0
LINE
  5
1DA85
  8
SU
 10
392.2277430107564
 20
129.75073543228811
 30
0.0
 11
385.66646947727543
 21
129.75073543228811
 31
0.0
  0
LINE
  5
1DA86
  8
SU
 10
392.34774301075629
 20
129.9507354322879
 30
0.0
 11
385.54646947727531
 21
129.9507354322879
 31
0.0
  0
LINE
  5
1DA87
  8
SU
 10
392.46774301075618
 20
130.1507354322882
 30
0.0
 11
385.42646947727542
 21
130.1507354322882
 31
0.0
  0
LINE
  5
1DA88
  8
SU
 10
392.5877430107563
 20
130.35073543228799
 30
0.0
 11
385.30646947727553
 21
130.35073543228799
 31
0.0
  0
LINE
  5
1DA89
  8
SU
 10
392.70774301075642
 20
130.55073543228789
 30
0.0
 11
385.18646947727541
 21
130.55073543228789
 31
0.0
  0
LINE
  5
1DA8A
  8
SU
 10
392.82774301075631
 20
130.75073543228811
 30
0.0
 11
385.06646947727529
 21
130.75073543228811
 31
0.0
  0
LINE
  5
1DA8B
  8
SU
 10
392.9477430107562
 20
130.9507354322879
 30
0.0
 11
384.9464694772754
 21
130.9507354322879
 31
0.0
  0
LINE
  5
1DA8C
  8
SU
 10
393.06774301075609
 20
131.1507354322882
 30
0.0
 11
384.82646947727551
 21
131.1507354322882
 31
0.0
  0
LINE
  5
1DA8D
  8
SU
 10
393.18774301075638
 20
131.35073543228799
 30
0.0
 11
384.70646947727539
 21
131.35073543228799
 31
0.0
  0
LINE
  5
1DA8E
  8
SU
 10
393.30774301075633
 20
131.55073543228781
 30
0.0
 11
384.58646947727527
 21
131.55073543228781
 31
0.0
  0
LINE
  5
1DA8F
  8
SU
 10
393.42774301075622
 20
131.75073543228811
 30
0.0
 11
384.46646947727538
 21
131.75073543228811
 31
0.0
  0
LINE
  5
1DA90
  8
SU
 10
393.54774301075628
 20
131.9507354322879
 30
0.0
 11
384.34646947727549
 21
131.9507354322879
 31
0.0
  0
LINE
  5
1DA91
  8
SU
 10
393.66774301075623
 20
132.1507354322882
 30
0.0
 11
384.22646947727537
 21
132.1507354322882
 31
0.0
  0
LINE
  5
1DA92
  8
SU
 10
393.7877430107564
 20
132.35073543228799
 30
0.0
 11
384.10646947727548
 21
132.35073543228799
 31
0.0
  0
LINE
  5
1DA93
  8
SU
 10
393.90774301075629
 20
132.55073543228781
 30
0.0
 11
383.98646947727531
 21
132.55073543228781
 31
0.0
  0
LINE
  5
1DA94
  8
SU
 10
394.02774301075641
 20
132.75073543228811
 30
0.0
 11
383.86646947727547
 21
132.75073543228811
 31
0.0
  0
LINE
  5
1DA95
  8
SU
 10
394.14774301075619
 20
132.9507354322879
 30
0.0
 11
383.74646947727541
 21
132.9507354322879
 31
0.0
  0
LINE
  5
1DA96
  8
SU
 10
394.26774301075631
 20
133.1507354322882
 30
0.0
 11
383.62646947727552
 21
133.1507354322882
 31
0.0
  0
LINE
  5
1DA97
  8
SU
 10
394.3877430107562
 20
133.35073543228799
 30
0.0
 11
383.5064694772754
 21
133.35073543228799
 31
0.0
  0
LINE
  5
1DA98
  8
SU
 10
394.50774301075609
 20
133.55073543228781
 30
0.0
 11
383.38646947727551
 21
133.55073543228781
 31
0.0
  0
LINE
  5
1DA99
  8
SU
 10
394.62774301075632
 20
133.75073543228811
 30
0.0
 11
383.26646947727528
 21
133.75073543228811
 31
0.0
  0
LINE
  5
1DA9A
  8
SU
 10
394.74774301075638
 20
133.9507354322879
 30
0.0
 11
383.14646947727539
 21
133.9507354322879
 31
0.0
  0
LINE
  5
1DA9B
  8
SU
 10
394.86774301075633
 20
134.1507354322882
 30
0.0
 11
383.02646947727533
 21
134.1507354322882
 31
0.0
  0
LINE
  5
1DA9C
  8
SU
 10
620.81596980819393
 20
164.9847477994343
 30
0.0
 11
610.81596980819393
 21
170.9847477994343
 31
0.0
  0
LINE
  5
1DA9D
  8
SU
 10
620.81596980819393
 20
176.9847477994343
 30
0.0
 11
610.81596980819393
 21
170.9847477994343
 31
0.0
  0
LINE
  5
1DA9E
  8
SU
 10
620.81596980819393
 20
164.9847477994343
 30
0.0
 11
620.81596980819393
 21
176.9847477994343
 31
0.0
  0
LINE
  5
1DA9F
  8
SU
 10
610.88369775276112
 20
170.94411103269371
 30
0.0
 11
610.88369775276112
 21
171.02538456617469
 31
0.0
  0
LINE
  5
1DAA0
  8
SU
 10
611.08369775276094
 20
170.82411103269379
 30
0.0
 11
611.08369775276094
 21
171.14538456617461
 31
0.0
  0
LINE
  5
1DAA1
  8
SU
 10
611.28369775276121
 20
170.7041110326937
 30
0.0
 11
611.28369775276121
 21
171.2653845661747
 31
0.0
  0
LINE
  5
1DAA2
  8
SU
 10
611.48369775276103
 20
170.58411103269381
 30
0.0
 11
611.48369775276103
 21
171.38538456617479
 31
0.0
  0
LINE
  5
1DAA3
  8
SU
 10
611.68369775276119
 20
170.46411103269389
 30
0.0
 11
611.68369775276119
 21
171.50538456617471
 31
0.0
  0
LINE
  5
1DAA4
  8
SU
 10
611.88369775276112
 20
170.3441110326938
 30
0.0
 11
611.88369775276112
 21
171.6253845661746
 31
0.0
  0
LINE
  5
1DAA5
  8
SU
 10
612.08369775276094
 20
170.22411103269371
 30
0.0
 11
612.08369775276094
 21
171.74538456617469
 31
0.0
  0
LINE
  5
1DAA6
  8
SU
 10
612.28369775276121
 20
170.10411103269379
 30
0.0
 11
612.28369775276121
 21
171.86538456617481
 31
0.0
  0
LINE
  5
1DAA7
  8
SU
 10
612.48369775276103
 20
169.9841110326939
 30
0.0
 11
612.48369775276103
 21
171.9853845661747
 31
0.0
  0
LINE
  5
1DAA8
  8
SU
 10
612.6836977527613
 20
169.86411103269401
 30
0.0
 11
612.6836977527613
 21
172.10538456617459
 31
0.0
  0
LINE
  5
1DAA9
  8
SU
 10
612.88369775276112
 20
169.7441110326937
 30
0.0
 11
612.88369775276112
 21
172.22538456617471
 31
0.0
  0
LINE
  5
1DAAA
  8
SU
 10
613.08369775276094
 20
169.6241110326938
 30
0.0
 11
613.08369775276094
 21
172.3453845661748
 31
0.0
  0
LINE
  5
1DAAB
  8
SU
 10
613.2836977527611
 20
169.50411103269391
 30
0.0
 11
613.2836977527611
 21
172.46538456617469
 31
0.0
  0
LINE
  5
1DAAC
  8
SU
 10
613.48369775276103
 20
169.3841110326938
 30
0.0
 11
613.48369775276103
 21
172.58538456617461
 31
0.0
  0
LINE
  5
1DAAD
  8
SU
 10
613.6836977527613
 20
169.2641110326939
 30
0.0
 11
613.6836977527613
 21
172.7053845661747
 31
0.0
  0
LINE
  5
1DAAE
  8
SU
 10
613.88369775276112
 20
169.14411103269379
 30
0.0
 11
613.88369775276112
 21
172.82538456617459
 31
0.0
  0
LINE
  5
1DAAF
  8
SU
 10
614.08369775276094
 20
169.0241110326939
 30
0.0
 11
614.08369775276094
 21
172.94538456617471
 31
0.0
  0
LINE
  5
1DAB0
  8
SU
 10
614.28369775276121
 20
168.90411103269381
 30
0.0
 11
614.28369775276121
 21
173.0653845661746
 31
0.0
  0
LINE
  5
1DAB1
  8
SU
 10
614.48369775276103
 20
168.78411103269389
 30
0.0
 11
614.48369775276103
 21
173.1853845661748
 31
0.0
  0
LINE
  5
1DAB2
  8
SU
 10
614.6836977527613
 20
168.66411103269371
 30
0.0
 11
614.6836977527613
 21
173.30538456617461
 31
0.0
  0
LINE
  5
1DAB3
  8
SU
 10
614.88369775276112
 20
168.54411103269391
 30
0.0
 11
614.88369775276112
 21
173.42538456617481
 31
0.0
  0
LINE
  5
1DAB4
  8
SU
 10
615.08369775276094
 20
168.42411103269399
 30
0.0
 11
615.08369775276094
 21
173.54538456617459
 31
0.0
  0
LINE
  5
1DAB5
  8
SU
 10
615.28369775276121
 20
168.30411103269381
 30
0.0
 11
615.28369775276121
 21
173.66538456617479
 31
0.0
  0
LINE
  5
1DAB6
  8
SU
 10
615.48369775276103
 20
168.18411103269369
 30
0.0
 11
615.48369775276103
 21
173.78538456617471
 31
0.0
  0
LINE
  5
1DAB7
  8
SU
 10
615.68369775276119
 20
168.0641110326938
 30
0.0
 11
615.68369775276119
 21
173.9053845661748
 31
0.0
  0
LINE
  5
1DAB8
  8
SU
 10
615.88369775276112
 20
167.94411103269371
 30
0.0
 11
615.88369775276112
 21
174.02538456617469
 31
0.0
  0
LINE
  5
1DAB9
  8
SU
 10
616.08369775276094
 20
167.82411103269379
 30
0.0
 11
616.08369775276094
 21
174.14538456617461
 31
0.0
  0
LINE
  5
1DABA
  8
SU
 10
616.28369775276121
 20
167.7041110326937
 30
0.0
 11
616.28369775276121
 21
174.2653845661747
 31
0.0
  0
LINE
  5
1DABB
  8
SU
 10
616.48369775276103
 20
167.58411103269381
 30
0.0
 11
616.48369775276103
 21
174.38538456617479
 31
0.0
  0
LINE
  5
1DABC
  8
SU
 10
616.6836977527613
 20
167.46411103269389
 30
0.0
 11
616.6836977527613
 21
174.50538456617471
 31
0.0
  0
LINE
  5
1DABD
  8
SU
 10
616.88369775276112
 20
167.3441110326938
 30
0.0
 11
616.88369775276112
 21
174.6253845661746
 31
0.0
  0
LINE
  5
1DABE
  8
SU
 10
617.08369775276094
 20
167.22411103269371
 30
0.0
 11
617.08369775276094
 21
174.74538456617469
 31
0.0
  0
LINE
  5
1DABF
  8
SU
 10
617.2836977527611
 20
167.10411103269379
 30
0.0
 11
617.2836977527611
 21
174.86538456617481
 31
0.0
  0
LINE
  5
1DAC0
  8
SU
 10
617.48369775276103
 20
166.9841110326939
 30
0.0
 11
617.48369775276103
 21
174.9853845661747
 31
0.0
  0
LINE
  5
1DAC1
  8
SU
 10
617.6836977527613
 20
166.86411103269401
 30
0.0
 11
617.6836977527613
 21
175.10538456617459
 31
0.0
  0
LINE
  5
1DAC2
  8
SU
 10
617.88369775276112
 20
166.7441110326937
 30
0.0
 11
617.88369775276112
 21
175.22538456617471
 31
0.0
  0
LINE
  5
1DAC3
  8
SU
 10
618.08369775276094
 20
166.6241110326938
 30
0.0
 11
618.08369775276094
 21
175.3453845661748
 31
0.0
  0
LINE
  5
1DAC4
  8
SU
 10
618.28369775276121
 20
166.50411103269391
 30
0.0
 11
618.28369775276121
 21
175.46538456617469
 31
0.0
  0
LINE
  5
1DAC5
  8
SU
 10
618.48369775276103
 20
166.3841110326938
 30
0.0
 11
618.48369775276103
 21
175.58538456617461
 31
0.0
  0
LINE
  5
1DAC6
  8
SU
 10
618.6836977527613
 20
166.2641110326939
 30
0.0
 11
618.6836977527613
 21
175.7053845661747
 31
0.0
  0
LINE
  5
1DAC7
  8
SU
 10
618.88369775276112
 20
166.14411103269379
 30
0.0
 11
618.88369775276112
 21
175.82538456617459
 31
0.0
  0
LINE
  5
1DAC8
  8
SU
 10
619.08369775276094
 20
166.0241110326939
 30
0.0
 11
619.08369775276094
 21
175.94538456617471
 31
0.0
  0
LINE
  5
1DAC9
  8
SU
 10
619.28369775276121
 20
165.90411103269381
 30
0.0
 11
619.28369775276121
 21
176.0653845661746
 31
0.0
  0
LINE
  5
1DACA
  8
SU
 10
619.48369775276103
 20
165.78411103269389
 30
0.0
 11
619.48369775276103
 21
176.1853845661748
 31
0.0
  0
LINE
  5
1DACB
  8
SU
 10
619.68369775276119
 20
165.66411103269371
 30
0.0
 11
619.68369775276119
 21
176.30538456617461
 31
0.0
  0
LINE
  5
1DACC
  8
SU
 10
619.88369775276112
 20
165.54411103269391
 30
0.0
 11
619.88369775276112
 21
176.4253845661747
 31
0.0
  0
LINE
  5
1DACD
  8
SU
 10
620.08369775276094
 20
165.42411103269399
 30
0.0
 11
620.08369775276094
 21
176.54538456617459
 31
0.0
  0
LINE
  5
1DACE
  8
SU
 10
620.28369775276121
 20
165.30411103269381
 30
0.0
 11
620.28369775276121
 21
176.66538456617479
 31
0.0
  0
LINE
  5
1DACF
  8
SU
 10
620.48369775276103
 20
165.18411103269369
 30
0.0
 11
620.48369775276103
 21
176.78538456617471
 31
0.0
  0
LINE
  5
1DAD0
  8
SU
 10
620.6836977527613
 20
165.0641110326938
 30
0.0
 11
620.6836977527613
 21
176.9053845661748
 31
0.0
  0
LINE
  5
1DAD1
  8
SU
 10
252.1970416945683
 20
674.60574195290985
 30
0.0
 11
252.1970416945683
 21
706.60573901464045
 31
0.0
  0
LINE
  5
1DAD2
  8
SU
 10
257.79704229105891
 20
638.10574424387642
 30
0.0
 11
257.79704229105891
 21
706.60573901464045
 31
0.0
  0
LINE
  5
1DAD3
  8
SU
 10
252.1970416945683
 20
703.60573901464045
 30
0.0
 11
257.79704229105891
 21
703.60573901464045
 31
0.0
  0
LINE
  5
1DAD7
  8
SU
 10
185.69704169456821
 20
674.60574195290985
 30
0.0
 11
185.69704169456821
 21
706.60573901464045
 31
0.0
  0
LINE
  5
1DAD8
  8
SU
 10
180.0970422910591
 20
638.10574081074049
 30
0.0
 11
180.0970422910591
 21
706.60573901464045
 31
0.0
  0
LINE
  5
1DAD9
  8
SU
 10
185.69704169456821
 20
703.60573901464045
 30
0.0
 11
180.0970422910591
 21
703.60573901464045
 31
0.0
  0
LINE
  5
1DADD
  8
SU
 10
180.09704286545769
 20
596.92616117876776
 30
0.0
 11
257.79704286545763
 21
596.92616117876776
 31
0.0
  0
LINE
  5
1DAE1
  8
SU
 10
184.44710624401699
 20
626.10574473009865
 30
0.0
 11
184.44710624401699
 21
573.92616117876787
 31
0.0
  0
LINE
  5
1DAE2
  8
SU
 10
180.09704286545769
 20
623.1057408107406
 30
0.0
 11
180.09704286545769
 21
573.92616117876787
 31
0.0
  0
LINE
  5
1DAE3
  8
SU
 10
184.44710624401699
 20
576.92616117876776
 30
0.0
 11
180.09704286545769
 21
576.92616117876776
 31
0.0
  0
LINE
  5
1DAE4
  8
SU
 10
180.09704286545769
 20
576.92616117876776
 30
0.0
 11
148.53037619879109
 21
576.92616117876776
 31
0.0
  0
LINE
  5
1DAE8
  8
SU
 10
253.44709746233499
 20
626.10574520988223
 30
0.0
 11
253.44709746233499
 21
573.92616117876787
 31
0.0
  0
LINE
  5
1DAE9
  8
SU
 10
257.79704286545763
 20
623.10574424387642
 30
0.0
 11
257.79704286545763
 21
573.92616117876787
 31
0.0
  0
LINE
  5
1DAEA
  8
SU
 10
253.44709746233499
 20
576.92616117876776
 30
0.0
 11
257.79704286545763
 21
576.92616117876776
 31
0.0
  0
LINE
  5
1DAEB
  8
SU
 10
257.79704286545763
 20
576.92616117876776
 30
0.0
 11
289.36370953212418
 21
576.92616117876776
 31
0.0
  0
LINE
  5
1DAEF
  8
OS
 10
185.69704169456821
 20
673.60574195290997
 30
0.0
 11
252.1970416945683
 21
673.60574195290997
 31
0.0
1001
GENIUS_GENREC_14
1002
{
1000
PYDIR
1011
185.69704169456821
1021
0.0
1031
0.0
1021
664.10574195290985
1031
0.0
1002
}
1002
{
1000
PXDIR
1011
252.1970416945683
1021
0.0
1031
0.0
1021
673.60574195290997
1031
0.0
1002
}
1002
{
1000
PORI
1011
185.69704169456821
1021
0.0
1031
0.0
1021
673.60574195290997
1031
0.0
1002
}
1002
{
1000
PINS
1011
185.69704169456821
1021
0.0
1031
0.0
1021
673.60574195290997
1031
0.0
1002
}
1002
{
1000
PINS2
1011
252.1970416945683
1021
0.0
1031
0.0
1021
664.10574195290985
1031
0.0
1002
}
1002
{
1000
C
1070
     1
1002
}
1001
GENIUS_GENODEF_13
1002
{
1000
HIER
1070
     0
1002
}
1002
{
1000
MANEDIT
1070
     0
1002
}
1002
{
1000
NOSEL
1070
     0
1002
}
1002
{
1000
BEHIND
1070
     0
1002
}
1002
{
1000
OTHER
1070
     0
1002
}
1002
{
1000
REACTOR
1002
}
1001
GENIUS_GENOBJ-N-REC_13
1002
{
1000
OWNER
1000
GEN
1002
}
  0
LINE
  5
1DAF0
  8
OS
 10
252.1970416945683
 20
673.60574195290997
 30
0.0
 11
252.1970416945683
 21
664.10574195290985
 31
0.0
1001
GENIUS_GENREC_14
1002
{
1000
PYDIR
1011
185.69704169456821
1021
0.0
1031
0.0
1021
664.10574195290985
1031
0.0
1002
}
1002
{
1000
PXDIR
1011
252.1970416945683
1021
0.0
1031
0.0
1021
673.60574195290997
1031
0.0
1002
}
1002
{
1000
PORI
1011
185.69704169456821
1021
0.0
1031
0.0
1021
673.60574195290997
1031
0.0
1002
}
1002
{
1000
PINS
1011
185.69704169456821
1021
0.0
1031
0.0
1021
673.60574195290997
1031
0.0
1002
}
1002
{
1000
PINS2
1011
252.1970416945683
1021
0.0
1031
0.0
1021
664.10574195290985
1031
0.0
1002
}
1002
{
1000
C
1070
     1
1002
}
1001
GENIUS_GENODEF_13
1002
{
1000
HIER
1070
     0
1002
}
1002
{
1000
MANEDIT
1070
     0
1002
}
1002
{
1000
NOSEL
1070
     0
1002
}
1002
{
1000
BEHIND
1070
     0
1002
}
1002
{
1000
OTHER
1070
     0
1002
}
1002
{
1000
REACTOR
1002
}
1001
GENIUS_GENOBJ-N-REC_13
1002
{
1000
OWNER
1000
GEN
1002
}
  0
LINE
  5
1DAF1
  8
OS
 10
252.1970416945683
 20
664.10574195290985
 30
0.0
 11
185.69704169456821
 21
664.10574195290985
 31
0.0
1001
GENIUS_GENREC_14
1002
{
1000
PYDIR
1011
185.69704169456821
1021
0.0
1031
0.0
1021
664.10574195290985
1031
0.0
1002
}
1002
{
1000
PXDIR
1011
252.1970416945683
1021
0.0
1031
0.0
1021
673.60574195290997
1031
0.0
1002
}
1002
{
1000
PORI
1011
185.69704169456821
1021
0.0
1031
0.0
1021
673.60574195290997
1031
0.0
1002
}
1002
{
1000
PINS
1011
185.69704169456821
1021
0.0
1031
0.0
1021
673.60574195290997
1031
0.0
1002
}
1002
{
1000
PINS2
1011
252.1970416945683
1021
0.0
1031
0.0
1021
664.10574195290985
1031
0.0
1002
}
1002
{
1000
C
1070
     1
1002
}
1001
GENIUS_GENODEF_13
1002
{
1000
HIER
1070
     0
1002
}
1002
{
1000
MANEDIT
1070
     0
1002
}
1002
{
1000
NOSEL
1070
     0
1002
}
1002
{
1000
BEHIND
1070
     0
1002
}
1002
{
1000
OTHER
1070
     0
1002
}
1002
{
1000
REACTOR
1002
}
1001
GENIUS_GENOBJ-N-REC_13
1002
{
1000
OWNER
1000
GEN
1002
}
  0
LINE
  5
1DAF2
  8
OS
 10
185.69704169456821
 20
664.10574195290985
 30
0.0
 11
185.69704169456821
 21
673.60574195290997
 31
0.0
1001
GENIUS_GENREC_14
1002
{
1000
PYDIR
1011
185.69704169456821
1021
0.0
1031
0.0
1021
664.10574195290985
1031
0.0
1002
}
1002
{
1000
PXDIR
1011
252.1970416945683
1021
0.0
1031
0.0
1021
673.60574195290997
1031
0.0
1002
}
1002
{
1000
PORI
1011
185.69704169456821
1021
0.0
1031
0.0
1021
673.60574195290997
1031
0.0
1002
}
1002
{
1000
PINS
1011
185.69704169456821
1021
0.0
1031
0.0
1021
673.60574195290997
1031
0.0
1002
}
1002
{
1000
PINS2
1011
252.1970416945683
1021
0.0
1031
0.0
1021
664.10574195290985
1031
0.0
1002
}
1002
{
1000
C
1070
     1
1002
}
1001
GENIUS_GENODEF_13
1002
{
1000
HIER
1070
     0
1002
}
1002
{
1000
MANEDIT
1070
     0
1002
}
1002
{
1000
NOSEL
1070
     0
1002
}
1002
{
1000
BEHIND
1070
     0
1002
}
1002
{
1000
OTHER
1070
     0
1002
}
1002
{
1000
REACTOR
1002
}
1001
GENIUS_GENOBJ-N-REC_13
1002
{
1000
OWNER
1000
GEN
1002
}
  0
LINE
  5
1DAF3
  8
SU
 10
252.1970416945683
 20
703.60573901464045
 30
0.0
 11
185.69704169456821
 21
703.60573901464045
 31
0.0
  0
LINE
  5
1DAF5
  8
SU
 10
609.31596980819393
 20
368.98474779943427
 30
0.0
 11
609.31596980819393
 21
408.98474779943467
 31
0.0
  0
LINE
  5
1DAF6
  8
SU
 10
618.31596980819245
 20
405.98474779943461
 30
0.0
 11
609.31596980819393
 21
405.98474779943461
 31
0.0
  0
LINE
  5
1DAF9
  8
SU
 10
989.31596980819393
 20
190.98474779943399
 30
0.0
 11
998.31596980819393
 21
190.98474779943399
 31
0.0
  0
LINE
  5
1DAFC
  8
SU
 10
182.9471262440149
 20
126.18300739639059
 30
0.0
 11
182.9471262440149
 21
161.1010711605449
 31
0.0
  0
LINE
  5
1DAFD
  8
SU
 10
254.94712624401501
 20
126.18300739639059
 30
0.0
 11
254.94712624401501
 21
161.1010711605449
 31
0.0
  0
LINE
  5
1DAFE
  8
SU
 10
182.9471262440149
 20
158.1010711605449
 30
0.0
 11
254.94712624401501
 21
158.1010711605449
 31
0.0
  0
LINE
  5
1DB02
  8
SU
 10
329.94710624401699
 20
112.28300748772079
 30
0.0
 11
391.9471062440158
 21
112.28300748772079
 31
0.0
  0
LINE
  5
1DB03
  8
SU
 10
388.9471062440158
 20
124.28300748772079
 30
0.0
 11
388.9471062440158
 21
112.28300748772079
 31
0.0
  0
LINE
  5
1DB06
  8
SU
 10
822.31596980819302
 20
301.48474875116239
 30
0.0
 11
860.3159698081929
 21
301.48474875116239
 31
0.0
  0
LINE
  5
1DB07
  8
SU
 10
822.31596980819302
 20
268.4847497028934
 30
0.0
 11
860.3159698081929
 21
268.4847497028934
 31
0.0
  0
LINE
  5
1DB08
  8
SU
 10
857.31596980819302
 20
301.48474875116239
 30
0.0
 11
857.31596980819302
 21
268.4847497028934
 31
0.0
  0
LINE
  5
1DB0C
  8
SU
 10
857.31596980819324
 20
304.48474779943149
 30
0.0
 11
857.31596980819324
 21
301.48474875116801
 31
0.0
  0
LINE
  5
1DB0E
  8
SU
 10
822.31596980819302
 20
304.48474779943149
 30
0.0
 11
860.3159698081929
 21
304.48474779943149
 31
0.0
  0
LINE
  5
1DB0F
  8
SU
 10
822.31596980819302
 20
337.48474684770611
 30
0.0
 11
860.3159698081929
 21
337.48474684770611
 31
0.0
  0
LINE
  5
1DB10
  8
SU
 10
857.31596980819302
 20
304.48474779943149
 30
0.0
 11
857.31596980819302
 21
337.48474684770611
 31
0.0
  0
LINE
  5
1DB14
  8
SU
 10
192.44710624401699
 20
111.28300748772079
 30
0.0
 11
192.44710624401699
 21
68.044736933131844
 31
0.0
  0
LINE
  5
1DB15
  8
SU
 10
245.44710624401711
 20
111.28300748772079
 30
0.0
 11
245.44710624401711
 21
68.044736933131844
 31
0.0
  0
LINE
  5
1DB16
  8
SU
 10
192.44710624401699
 20
71.044736933131844
 30
0.0
 11
245.44710624401711
 21
71.044736933131844
 31
0.0
  0
LINE
  5
1DB1A
  8
SU
 10
217.44710624401699
 20
593.49351013864077
 30
0.0
 11
217.44710624401699
 21
573.92616117876787
 31
0.0
  0
LINE
  5
1DB1B
  8
SU
 10
220.44710624401711
 20
593.49351013864077
 30
0.0
 11
220.44710624401711
 21
573.92616117876787
 31
0.0
  0
LINE
  5
1DB1C
  8
SU
 10
217.44710624401699
 20
576.92616117876776
 30
0.0
 11
220.44710624401711
 21
576.92616117876776
 31
0.0
  0
LINE
  5
1DB20
  8
SU
 10
184.44709867741039
 20
576.92616117876776
 30
0.0
 11
217.44709867741059
 21
576.92616117876776
 31
0.0
  0
LINE
  5
1DB22
  8
SU
 10
194.74712624401511
 20
111.98300739639031
 30
0.0
 11
194.74712624401511
 21
88.403389818432061
 31
0.0
  0
LINE
  5
1DB23
  8
SU
 10
243.1471262440152
 20
111.98300739639031
 30
0.0
 11
243.1471262440152
 21
88.403389818432061
 31
0.0
  0
LINE
  5
1DB24
  8
SU
 10
194.74712624401511
 20
91.403389818432046
 30
0.0
 11
243.1471262440152
 21
91.403389818432046
 31
0.0
  0
LINE
  5
1DB28
  8
SU
 10
251.94712624401541
 20
126.88300739639089
 30
0.0
 11
351.94710624401711
 21
126.88300739639089
 31
0.0
  0
LINE
  5
1DB29
  8
SU
 10
348.94710624401699
 20
124.28300748772079
 30
0.0
 11
348.94710624401699
 21
114.6830074877208
 31
0.0
  0
LINE
  5
1DB2A
  8
SU
 10
348.94710624401699
 20
126.88300739639089
 30
0.0
 11
348.94710624401711
 21
160.8563407297242
 31
0.0
  0
LINE
  5
1DB2B
  8
SU
 10
348.94710624401699
 20
124.28300748772079
 30
0.0
 11
348.94710624401699
 21
126.88300739639089
 31
0.0
  0
LINE
  5
1DB2F
  8
SU
 10
368.9471062440158
 20
131.28300748772079
 30
0.0
 11
368.9471062440158
 21
124.28300748772079
 31
0.0
  0
LINE
  5
1DB32
  8
SU
 10
329.94710624401699
 20
124.28300748772079
 30
0.0
 11
391.9471062440158
 21
124.28300748772079
 31
0.0
  0
LINE
  5
1DB33
  8
SU
 10
388.94710624401591
 20
244.28300748772079
 30
0.0
 11
388.9471062440158
 21
124.28300748772079
 31
0.0
  0
LINE
  5
1DB35
  8
SU
 10
254.44710624401699
 20
131.28300748772079
 30
0.0
 11
371.94710624401591
 21
131.28300748772079
 31
0.0
  0
LINE
  5
1DB36
  8
SU
 10
368.9471062440158
 20
131.28300748772079
 30
0.0
 11
368.9471062440158
 21
244.28300748772079
 31
0.0
  0
LINE
  5
1DB39
  8
SU
 10
998.31596980819393
 20
236.9847477994343
 30
0.0
 11
998.31596980819393
 21
167.9847477994343
 31
0.0
  0
LINE
  5
1DB3A
  8
SU
 10
609.31596980819393
 20
236.9847477994343
 30
0.0
 11
609.31596980819393
 21
167.9847477994343
 31
0.0
  0
LINE
  5
1DB3B
  8
SU
 10
998.31596980819393
 20
170.9847477994343
 30
0.0
 11
609.31596980819393
 21
170.9847477994343
 31
0.0
  0
LINE
  5
1DB3D
  8
SU
 10
821.31596980819313
 20
303.48474779943149
 30
0.0
 11
821.31596980819313
 21
207.9847477994343
 31
0.0
  0
LINE
  5
1DB3E
  8
SU
 10
786.31596980819302
 20
210.9847477994343
 30
0.0
 11
821.31596980819313
 21
210.9847477994343
 31
0.0
  0
LINE
  5
1DB42
  8
SU
 10
989.31596980819393
 20
267.4847487511625
 30
0.0
 11
989.31596980819393
 21
187.9847477994343
 31
0.0
  0
LINE
  5
1DB43
  8
SU
 10
786.31596980819302
 20
267.4847487511625
 30
0.0
 11
786.31596980819302
 21
187.9847477994343
 31
0.0
  0
LINE
  5
1DB44
  8
SU
 10
989.31596980819393
 20
190.9847477994343
 30
0.0
 11
786.31596980819302
 21
190.9847477994343
 31
0.0
  0
LINE
  5
1DB48
  8
SU
 10
258.29709741032048
 20
623.60574394563082
 30
0.0
 11
351.94710624401591
 21
623.60574394563082
 31
0.0
  0
LINE
  5
1DB49
  8
SU
 10
348.94710624401591
 20
627.1057444254144
 30
0.0
 11
348.94710624401591
 21
623.60574394563082
 31
0.0
  0
LINE
  5
1DB4A
  8
SU
 10
348.94710624401591
 20
623.60574394563082
 30
0.0
 11
348.94710624401591
 21
599.23241061229749
 31
0.0
  0
LINE
  5
1DB4E
  8
SU
 10
257.49704231315133
 20
636.60574418643648
 30
0.0
 11
371.94710624401591
 21
636.60574418643648
 31
0.0
  0
LINE
  5
1DB4F
  8
SU
 10
368.94710624401591
 20
664.10574195291008
 30
0.0
 11
368.9471062440158
 21
636.60574418643648
 31
0.0
  0
LINE
  5
1DB53
  8
SU
 10
368.94710624401591
 20
636.60574418643648
 30
0.0
 11
368.94710624401591
 21
627.1057444254144
 31
0.0
  0
LINE
  5
1DB56
  8
SU
 10
190.94710624401679
 20
327.10574394672602
 30
0.0
 11
190.94710624401679
 21
292.1057439467258
 31
0.0
  0
LINE
  5
1DB57
  8
SU
 10
246.94710624401699
 20
327.1057439467258
 30
0.0
 11
246.94710624401699
 21
292.1057439467258
 31
0.0
  0
LINE
  5
1DB58
  8
SU
 10
190.94710624401679
 20
295.10574394672591
 30
0.0
 11
246.94710624401699
 21
295.10574394672591
 31
0.0
  0
LINE
  5
1DB5C
  8
SU
 10
242.4471062440864
 20
333.10573902738798
 30
0.0
 11
351.94710624401711
 21
333.10573902738798
 31
0.0
  0
LINE
  5
1DB5D
  8
SU
 10
348.94710624401699
 20
333.10573902738798
 30
0.0
 11
348.94710624401699
 21
328.10574394672591
 31
0.0
  0
LINE
  5
1DB5E
  8
SU
 10
348.94710624401699
 20
328.10574394672591
 30
0.0
 11
348.94710624401699
 21
312.03241061339253
 31
0.0
  0
LINE
  5
1DB62
  8
SU
 10
368.9471062440158
 20
337.1057439467258
 30
0.0
 11
368.9471062440158
 21
328.10574394672591
 31
0.0
  0
LINE
  5
1DB65
  8
SU
 10
329.94710624401699
 20
664.10574195291008
 30
0.0
 11
391.94710624401591
 21
664.10574195291008
 31
0.0
  0
LINE
  5
1DB66
  8
SU
 10
329.94710624401699
 20
328.10574394672591
 30
0.0
 11
391.9471062440158
 21
328.1057439467258
 31
0.0
  0
LINE
  5
1DB67
  8
SU
 10
388.94710624401591
 20
664.10574195291008
 30
0.0
 11
388.9471062440158
 21
328.1057439467258
 31
0.0
  0
LINE
  5
1DB69
  8
SU
 10
254.44710624401699
 20
337.1057439467258
 30
0.0
 11
371.94710624401569
 21
337.1057439467258
 31
0.0
  0
LINE
  5
1DB6A
  8
SU
 10
254.44709746233499
 20
627.10574520988223
 30
0.0
 11
371.9471062440158
 21
627.10574520988212
 31
0.0
  0
LINE
  5
1DB6B
  8
SU
 10
368.9471062440158
 20
337.1057439467258
 30
0.0
 11
368.9471062440158
 21
627.10574520988212
 31
0.0
  0
TEXT
  5
1DB6F
  8
SU
 10
823.18763847356195
 20
407.28474779943451
 30
0.0
 40
7.0
  1
9
 41
0.8299999999999999
  0
TEXT
  5
1DB70
  8
SU
 10
713.31430314152612
 20
407.28474779943429
 30
0.0
 40
7.0
  1
DW
 41
0.8299999999999999
  0
TEXT
  5
1DB73
  8
SU
 10
898.34030514022891
 20
407.28474779943451
 30
0.0
 40
7.0
  1
有効開口
 41
0.8299999999999999
  0
TEXT
  5
1DB76
  8
SU
 10
762.5642979104797
 20
560.2847477994336
 30
0.0
 40
7.0
  1
DW
 41
0.8299999999999999
  0
TEXT
  5
1DB78
  8
SU
 10
832.06430837257324
 20
560.2847477994336
 30
0.0
 40
7.0
  1
DW
 41
0.8299999999999999
  0
TEXT
  5
1DB79
  8
SU
 10
231.41376534407721
 20
578.22616117876782
 30
0.0
 40
7.0
  1
33
 41
0.8299999999999999
  0
TEXT
  5
1DB7C
  8
SU
 10
248.08037532614691
 20
707.10573901464045
 30
0.0
 40
7.0
  1
5.6
 41
0.8299999999999999
  0
TEXT
  5
1DB7F
  8
SU
 10
175.980375326147
 20
707.10573901464045
 30
0.0
 40
7.0
  1
5.6
 41
0.8299999999999999
  0
TEXT
  5
1DB80
  8
SU
 10
192.7585017456318
 20
598.22616117876782
 30
0.0
 40
7.0
  1
77.7
 41
0.8299999999999999
  0
TEXT
  5
1DB83
  8
SU
 10
148.72370953212439
 20
580.55949451210108
 30
0.0
 40
7.0
  1
(4.4)
 41
0.8299999999999999
  0
TEXT
  5
1DB86
  8
SU
 10
267.59037619879092
 20
580.55949451210108
 30
0.0
 40
7.0
  1
(4.4)
 41
0.8299999999999999
  0
TEXT
  5
1DB89
  8
SU
 10
209.12537502790161
 20
704.90573901464052
 30
0.0
 40
7.0
  1
66.5
 41
0.8299999999999999
  0
TEXT
  5
1DB8A
  8
SU
 10
611.1876364748598
 20
407.28474779943463
 30
0.0
 40
7.0
  1
9
 41
0.8299999999999999
  0
TEXT
  5
1DB8C
  8
SU
 10
991.18763647486048
 20
192.284747799434
 30
0.0
 40
7.0
  1
9
 41
0.8299999999999999
  0
TEXT
  5
1DB8E
  8
SU
 10
224.34774204558289
 20
159.401071160545
 30
0.0
 40
7.0
  1
72
 41
0.8299999999999999
  0
TEXT
  5
1DB91
  8
SU
 10
387.64710624401579
 20
112.3346741543875
 30
0.0
 40
7.0
  1
12
 50
90.0
 41
0.8299999999999999
  0
TEXT
  5
1DB93
  8
SU
 10
856.01596980819295
 20
279.45141589369467
 30
0.0
 40
7.0
  1
33
 50
90.0
 41
0.8299999999999999
  0
TEXT
  5
1DB96
  8
SU
 10
865.8159698081929
 20
305.41876213467998
 30
0.0
 40
7.0
  1
3
 50
90.0
 41
0.8299999999999999
  0
TEXT
  5
1DB97
  8
SU
 10
856.01596980819295
 20
315.45141399023561
 30
0.0
 40
7.0
  1
33
 50
90.0
 41
0.8299999999999999
  0
TEXT
  5
1DB9A
  8
SU
 10
212.27114648215769
 20
72.344736933131841
 30
0.0
 40
7.0
  1
53
 41
0.8299999999999999
  0
TEXT
  5
1DB9F
  8
SU
 10
222.91709867741039
 20
568.42616117876776
 30
0.0
 40
7.0
  1
3
 41
0.8299999999999999
  0
TEXT
  5
1DBA0
  8
SU
 10
195.41376534407709
 20
578.22616117876782
 30
0.0
 40
7.0
  1
33
 41
0.8299999999999999
  0
TEXT
  5
1DBA1
  8
SU
 10
209.38037102919819
 20
92.703389818432058
 30
0.0
 40
7.0
  1
48.4
 41
0.8299999999999999
  0
TEXT
  5
1DBA4
  8
SU
 10
347.64710624401698
 20
146.55300739639091
 30
0.0
 40
7.0
  1
2.6
 50
90.0
 41
0.8299999999999999
  0
TEXT
  5
1DBA7
  8
SU
 10
367.64710624401579
 20
125.0163408210541
 30
0.0
 40
7.0
  1
7
 50
90.0
 41
0.8299999999999999
  0
TEXT
  5
1DBA9
  8
SU
 10
387.64710624401579
 20
204.58610980498261
 30
0.0
 40
10.0
  1
H
 50
90.0
 41
0.8299999999999999
  0
TEXT
  5
1DBAA
  8
SU
 10
367.64710624401579
 20
202.20768790493631
 30
0.0
 40
7.0
  1
DH
 50
90.0
 41
0.8299999999999999
  0
TEXT
  5
1DBAC
  8
SU
 10
799.07311266533679
 20
172.28474779943431
 30
0.0
 40
10.0
  1
W
 41
0.8299999999999999
  0
TEXT
  5
1DBAD
  8
SU
 10
794.40930314152627
 20
223.951414466101
 30
0.0
 40
7.0
  1
(25)
 41
0.8299999999999999
  0
TEXT
  5
1DBAE
  8
SU
 10
798.28263647485949
 20
212.28474779943431
 30
0.0
 40
7.0
  1
35
 41
0.8299999999999999
  0
TEXT
  5
1DBB1
  8
SU
 10
881.31430314152681
 20
192.28474779943431
 30
0.0
 40
7.0
  1
DW
 41
0.8299999999999999
  0
TEXT
  5
1DBB4
  8
SU
 10
347.64710624401579
 20
599.7024106122974
 30
0.0
 40
7.0
  1
3.5
 50
90.0
 41
0.8299999999999999
  0
TEXT
  5
1DBB7
  8
SU
 10
367.64710624401579
 20
640.67240973633977
 30
0.0
 40
7.0
  1
27.5
 50
90.0
 41
0.8299999999999999
  0
TEXT
  5
1DBBA
  8
SU
 10
367.6471062440159
 20
603.20241109208109
 30
0.0
 40
7.0
  1
9.5
 50
90.0
 41
0.8299999999999999
  0
TEXT
  5
1DBBB
  8
SU
 10
213.46589076906909
 20
296.40574394672592
 30
0.0
 40
7.0
  1
56
 41
0.8299999999999999
  0
TEXT
  5
1DBBE
  8
SU
 10
347.64710624401698
 20
312.50241061339261
 30
0.0
 40
7.0
  1
5
 50
90.0
 41
0.8299999999999999
  0
TEXT
  5
1DBC1
  8
SU
 10
367.64710624401579
 20
329.97741061339252
 30
0.0
 40
7.0
  1
9
 50
90.0
 41
0.8299999999999999
  0
TEXT
  5
1DBC3
  8
SU
 10
387.64710624401579
 20
479.38309483871808
 30
0.0
 40
10.0
  1
H
 50
90.0
 41
0.8299999999999999
  0
TEXT
  5
1DBC4
  8
SU
 10
367.64710624401567
 20
476.15741124497072
 30
0.0
 40
7.0
  1
DH
 50
90.0
 41
0.8299999999999999
  0
ARC
  5
1DBC7
  8
SU
 10
821.31596980819313
 20
405.98474779943427
 30
0.0
 40
0.6000000000000229
 50
180.0
 51
0.0
  0
ARC
  5
1DBC8
  8
SU
 10
821.31596980819313
 20
405.98474779943427
 30
0.0
 40
0.6000000000000229
 50
0.0
 51
180.0
  0
ARC
  5
1DBC9
  8
SU
 10
618.31596980819245
 20
405.98474779943427
 30
0.0
 40
0.6000000000000229
 50
0.0
 51
180.0
  0
ARC
  5
1DBCA
  8
SU
 10
618.31596980819245
 20
405.98474779943427
 30
0.0
 40
0.6000000000000229
 50
180.0
 51
0.0
  0
ARC
  5
1DBCB
  8
SU
 10
830.3159738055972
 20
405.9847477994345
 30
0.0
 40
0.6000000000000229
 50
0.0
 51
180.0
  0
ARC
  5
1DBCC
  8
SU
 10
830.3159738055972
 20
405.9847477994345
 30
0.0
 40
0.6000000000000229
 50
180.0
 51
0.0
  0
ARC
  5
1DBCD
  8
SU
 10
992.31596980819381
 20
405.9847477994345
 30
0.0
 40
0.6000000000000229
 50
180.0
 51
0.0
  0
ARC
  5
1DBCE
  8
SU
 10
992.31596980819381
 20
405.9847477994345
 30
0.0
 40
0.6000000000000229
 50
0.0
 51
180.0
  0
ARC
  5
1DBCF
  8
SU
 10
803.81596980819324
 20
558.98474779943365
 30
0.0
 40
0.6000000000000229
 50
180.0
 51
0.0
  0
ARC
  5
1DBD0
  8
SU
 10
803.81596980819324
 20
558.98474779943365
 30
0.0
 40
0.6000000000000229
 50
0.0
 51
180.0
  0
ARC
  5
1DBD1
  8
SU
 10
257.79704229105891
 20
703.60573901464045
 30
0.0
 40
0.6000000000000229
 50
180.0
 51
0.0
  0
ARC
  5
1DBD2
  8
SU
 10
257.79704229105891
 20
703.60573901464045
 30
0.0
 40
0.6000000000000229
 50
0.0
 51
180.0
  0
ARC
  5
1DBD3
  8
SU
 10
252.1970416945683
 20
703.60573901464045
 30
0.0
 40
0.5999999999999944
 50
0.0
 51
180.0
  0
ARC
  5
1DBD4
  8
SU
 10
252.1970416945683
 20
703.60573901464045
 30
0.0
 40
0.5999999999999944
 50
180.0
 51
0.0
  0
ARC
  5
1DBD5
  8
SU
 10
180.0970422910591
 20
703.60573901464045
 30
0.0
 40
0.5999999999999944
 50
0.0
 51
180.0
  0
ARC
  5
1DBD6
  8
SU
 10
180.0970422910591
 20
703.60573901464045
 30
0.0
 40
0.5999999999999944
 50
180.0
 51
0.0
  0
ARC
  5
1DBD7
  8
SU
 10
185.69704169456821
 20
703.60573901464045
 30
0.0
 40
0.5999999999999944
 50
180.0
 51
0.0
  0
ARC
  5
1DBD8
  8
SU
 10
185.69704169456821
 20
703.60573901464045
 30
0.0
 40
0.5999999999999944
 50
0.0
 51
180.0
  0
ARC
  5
1DBD9
  8
SU
 10
257.79704286545763
 20
596.92616117876776
 30
0.0
 40
0.6000000000000229
 50
180.0
 51
0.0
  0
ARC
  5
1DBDA
  8
SU
 10
257.79704286545763
 20
596.92616117876776
 30
0.0
 40
0.6000000000000229
 50
0.0
 51
180.0
  0
ARC
  5
1DBDB
  8
SU
 10
180.09704286545769
 20
596.92616117876776
 30
0.0
 40
0.5999999999999944
 50
0.0
 51
180.0
  0
ARC
  5
1DBDC
  8
SU
 10
180.09704286545769
 20
596.92616117876776
 30
0.0
 40
0.5999999999999944
 50
180.0
 51
0.0
  0
ARC
  5
1DBDD
  8
SU
 10
180.09704286545769
 20
576.92616117876776
 30
0.0
 40
0.5999999999999944
 50
0.0
 51
180.0
  0
ARC
  5
1DBDE
  8
SU
 10
180.09704286545769
 20
576.92616117876776
 30
0.0
 40
0.5999999999999944
 50
180.0
 51
0.0
  0
ARC
  5
1DBDF
  8
SU
 10
184.44710624401699
 20
576.92616117876776
 30
0.0
 40
0.5999999999999944
 50
180.0
 51
0.0
  0
ARC
  5
1DBE0
  8
SU
 10
184.44710624401699
 20
576.92616117876776
 30
0.0
 40
0.5999999999999944
 50
0.0
 51
180.0
  0
ARC
  5
1DBE1
  8
SU
 10
257.79704286545763
 20
576.92616117876776
 30
0.0
 40
0.6000000000000229
 50
180.0
 51
0.0
  0
ARC
  5
1DBE2
  8
SU
 10
257.79704286545763
 20
576.92616117876776
 30
0.0
 40
0.6000000000000229
 50
0.0
 51
180.0
  0
ARC
  5
1DBE3
  8
SU
 10
253.44709746233499
 20
576.92616117876776
 30
0.0
 40
0.5999999999999944
 50
0.0
 51
180.0
  0
ARC
  5
1DBE4
  8
SU
 10
253.44709746233499
 20
576.92616117876776
 30
0.0
 40
0.5999999999999944
 50
180.0
 51
0.0
  0
ARC
  5
1DBE5
  8
SU
 10
609.31596980819393
 20
405.98474779943461
 30
0.0
 40
0.6000000000000229
 50
0.0
 51
180.0
  0
ARC
  5
1DBE6
  8
SU
 10
609.31596980819393
 20
405.98474779943461
 30
0.0
 40
0.6000000000000229
 50
180.0
 51
0.0
  0
ARC
  5
1DBE7
  8
SU
 10
998.31596980819393
 20
190.98474779943399
 30
0.0
 40
0.6000000000000229
 50
180.0
 51
0.0
  0
ARC
  5
1DBE8
  8
SU
 10
998.31596980819393
 20
190.98474779943399
 30
0.0
 40
0.6000000000000229
 50
0.0
 51
180.0
  0
ARC
  5
1DBE9
  8
SU
 10
254.94712624401501
 20
158.1010711605449
 30
0.0
 40
0.5999999999999944
 50
180.0
 51
0.0
  0
ARC
  5
1DBEA
  8
SU
 10
254.94712624401501
 20
158.1010711605449
 30
0.0
 40
0.5999999999999944
 50
0.0
 51
180.0
  0
ARC
  5
1DBEB
  8
SU
 10
182.9471262440149
 20
158.1010711605449
 30
0.0
 40
0.5999999999999944
 50
0.0
 51
180.0
  0
ARC
  5
1DBEC
  8
SU
 10
182.9471262440149
 20
158.1010711605449
 30
0.0
 40
0.5999999999999944
 50
180.0
 51
0.0
  0
ARC
  5
1DBED
  8
SU
 10
388.9471062440158
 20
112.28300748772079
 30
0.0
 40
0.5999999999999944
 50
90.0
 51
270.0
  0
ARC
  5
1DBEE
  8
SU
 10
388.9471062440158
 20
112.28300748772079
 30
0.0
 40
0.5999999999999944
 50
270.0
 51
90.0
  0
ARC
  5
1DBEF
  8
SU
 10
857.31596980819302
 20
268.4847497028934
 30
0.0
 40
0.6000000000000229
 50
90.0
 51
270.0
  0
ARC
  5
1DBF0
  8
SU
 10
857.31596980819302
 20
268.4847497028934
 30
0.0
 40
0.6000000000000229
 50
270.0
 51
90.0
  0
ARC
  5
1DBF1
  8
SU
 10
857.31596980819302
 20
301.48474875116239
 30
0.0
 40
0.6000000000000229
 50
270.0
 51
90.0
  0
ARC
  5
1DBF2
  8
SU
 10
857.31596980819302
 20
301.48474875116239
 30
0.0
 40
0.6000000000000229
 50
90.0
 51
270.0
  0
ARC
  5
1DBF3
  8
SU
 10
857.31596980819302
 20
337.48474684770611
 30
0.0
 40
0.6000000000000229
 50
270.0
 51
90.0
  0
ARC
  5
1DBF4
  8
SU
 10
857.31596980819302
 20
337.48474684770611
 30
0.0
 40
0.6000000000000229
 50
90.0
 51
270.0
  0
ARC
  5
1DBF5
  8
SU
 10
857.31596980819302
 20
304.48474779943149
 30
0.0
 40
0.6000000000000229
 50
90.0
 51
270.0
  0
ARC
  5
1DBF6
  8
SU
 10
857.31596980819302
 20
304.48474779943149
 30
0.0
 40
0.6000000000000229
 50
270.0
 51
90.0
  0
ARC
  5
1DBF7
  8
SU
 10
245.44710624401711
 20
71.044736933131844
 30
0.0
 40
0.5999999999999944
 50
180.0
 51
0.0
  0
ARC
  5
1DBF8
  8
SU
 10
245.44710624401711
 20
71.044736933131844
 30
0.0
 40
0.5999999999999944
 50
0.0
 51
180.0
  0
ARC
  5
1DBF9
  8
SU
 10
192.44710624401699
 20
71.044736933131844
 30
0.0
 40
0.5999999999999944
 50
0.0
 51
180.0
  0
ARC
  5
1DBFA
  8
SU
 10
192.44710624401699
 20
71.044736933131844
 30
0.0
 40
0.5999999999999944
 50
180.0
 51
0.0
  0
ARC
  5
1DBFB
  8
SU
 10
220.44710624401711
 20
576.92616117876776
 30
0.0
 40
0.5999999999999944
 50
180.0
 51
0.0
  0
ARC
  5
1DBFC
  8
SU
 10
220.44710624401711
 20
576.92616117876776
 30
0.0
 40
0.5999999999999944
 50
0.0
 51
180.0
  0
ARC
  5
1DBFD
  8
SU
 10
217.44710624401699
 20
576.92616117876776
 30
0.0
 40
0.5999999999999944
 50
0.0
 51
180.0
  0
ARC
  5
1DBFE
  8
SU
 10
217.44710624401699
 20
576.92616117876776
 30
0.0
 40
0.5999999999999944
 50
180.0
 51
0.0
  0
ARC
  5
1DBFF
  8
SU
 10
243.1471262440152
 20
91.403389818432046
 30
0.0
 40
0.5999999999999944
 50
180.0
 51
0.0
  0
ARC
  5
1DC00
  8
SU
 10
243.1471262440152
 20
91.403389818432046
 30
0.0
 40
0.5999999999999944
 50
0.0
 51
180.0
  0
ARC
  5
1DC01
  8
SU
 10
194.74712624401511
 20
91.403389818432046
 30
0.0
 40
0.5999999999999944
 50
0.0
 51
180.0
  0
ARC
  5
1DC02
  8
SU
 10
194.74712624401511
 20
91.403389818432046
 30
0.0
 40
0.5999999999999944
 50
180.0
 51
0.0
  0
ARC
  5
1DC03
  8
SU
 10
348.94710624401699
 20
126.88300739639089
 30
0.0
 40
0.5999999999999944
 50
90.0
 51
270.0
  0
ARC
  5
1DC04
  8
SU
 10
348.94710624401699
 20
126.88300739639089
 30
0.0
 40
0.5999999999999944
 50
270.0
 51
90.0
  0
ARC
  5
1DC05
  8
SU
 10
348.94710624401699
 20
124.28300748772079
 30
0.0
 40
0.5999999999999944
 50
270.0
 51
90.0
  0
ARC
  5
1DC06
  8
SU
 10
348.94710624401699
 20
124.28300748772079
 30
0.0
 40
0.5999999999999944
 50
90.0
 51
270.0
  0
ARC
  5
1DC07
  8
SU
 10
368.9471062440158
 20
124.28300748772079
 30
0.0
 40
0.5999999999999944
 50
90.0
 51
270.0
  0
ARC
  5
1DC08
  8
SU
 10
368.9471062440158
 20
124.28300748772079
 30
0.0
 40
0.5999999999999944
 50
270.0
 51
90.0
  0
ARC
  5
1DC09
  8
SU
 10
368.9471062440158
 20
131.28300748772079
 30
0.0
 40
0.5999999999999944
 50
90.0
 51
270.0
  0
ARC
  5
1DC0A
  8
SU
 10
368.9471062440158
 20
131.28300748772079
 30
0.0
 40
0.5999999999999944
 50
270.0
 51
90.0
  0
ARC
  5
1DC0B
  8
SU
 10
821.31596980819313
 20
210.9847477994343
 30
0.0
 40
0.6000000000000229
 50
180.0
 51
0.0
  0
ARC
  5
1DC0C
  8
SU
 10
821.31596980819313
 20
210.9847477994343
 30
0.0
 40
0.6000000000000229
 50
0.0
 51
180.0
  0
ARC
  5
1DC0D
  8
SU
 10
786.31596980819302
 20
210.9847477994343
 30
0.0
 40
0.6000000000000229
 50
0.0
 51
180.0
  0
ARC
  5
1DC0E
  8
SU
 10
786.31596980819302
 20
210.9847477994343
 30
0.0
 40
0.6000000000000229
 50
180.0
 51
0.0
  0
ARC
  5
1DC0F
  8
SU
 10
786.31596980819302
 20
190.9847477994343
 30
0.0
 40
0.6000000000000229
 50
0.0
 51
180.0
  0
ARC
  5
1DC10
  8
SU
 10
786.31596980819302
 20
190.9847477994343
 30
0.0
 40
0.6000000000000229
 50
180.0
 51
0.0
  0
ARC
  5
1DC11
  8
SU
 10
989.31596980819393
 20
190.9847477994343
 30
0.0
 40
0.6000000000000229
 50
180.0
 51
0.0
  0
ARC
  5
1DC12
  8
SU
 10
989.31596980819393
 20
190.9847477994343
 30
0.0
 40
0.6000000000000229
 50
0.0
 51
180.0
  0
ARC
  5
1DC13
  8
SU
 10
348.94710624401591
 20
623.60574394563082
 30
0.0
 40
0.6000000000000229
 50
90.0
 51
270.0
  0
ARC
  5
1DC14
  8
SU
 10
348.94710624401591
 20
623.60574394563082
 30
0.0
 40
0.6000000000000229
 50
270.0
 51
90.0
  0
ARC
  5
1DC15
  8
SU
 10
348.94710624401591
 20
627.1057444254144
 30
0.0
 40
0.6000000000000229
 50
270.0
 51
90.0
  0
ARC
  5
1DC16
  8
SU
 10
348.94710624401591
 20
627.1057444254144
 30
0.0
 40
0.6000000000000229
 50
90.0
 51
270.0
  0
ARC
  5
1DC17
  8
SU
 10
368.9471062440158
 20
636.60574418643648
 30
0.0
 40
0.6000000000000229
 50
90.0
 51
270.0
  0
ARC
  5
1DC18
  8
SU
 10
368.9471062440158
 20
636.60574418643648
 30
0.0
 40
0.6000000000000229
 50
270.0
 51
90.0
  0
ARC
  5
1DC19
  8
SU
 10
368.94710624401591
 20
664.10574195291008
 30
0.0
 40
0.6000000000000229
 50
270.0
 51
90.0
  0
ARC
  5
1DC1A
  8
SU
 10
368.94710624401591
 20
664.10574195291008
 30
0.0
 40
0.6000000000000229
 50
90.0
 51
270.0
  0
ARC
  5
1DC1B
  8
SU
 10
246.94710624401699
 20
295.10574394672591
 30
0.0
 40
0.5999999999999944
 50
180.0
 51
0.0
  0
ARC
  5
1DC1C
  8
SU
 10
246.94710624401699
 20
295.10574394672591
 30
0.0
 40
0.5999999999999944
 50
0.0
 51
180.0
  0
ARC
  5
1DC1D
  8
SU
 10
190.94710624401679
 20
295.10574394672591
 30
0.0
 40
0.5999999999999944
 50
0.0
 51
180.0
  0
ARC
  5
1DC1E
  8
SU
 10
190.94710624401679
 20
295.10574394672591
 30
0.0
 40
0.5999999999999944
 50
180.0
 51
0.0
  0
ARC
  5
1DC1F
  8
SU
 10
348.94710624401699
 20
328.10574394672591
 30
0.0
 40
0.6000000000000229
 50
90.0
 51
270.0
  0
ARC
  5
1DC20
  8
SU
 10
348.94710624401699
 20
328.10574394672591
 30
0.0
 40
0.6000000000000229
 50
270.0
 51
90.0
  0
ARC
  5
1DC21
  8
SU
 10
348.94710624401699
 20
333.10573902738798
 30
0.0
 40
0.6000000000000229
 50
270.0
 51
90.0
  0
ARC
  5
1DC22
  8
SU
 10
348.94710624401699
 20
333.10573902738798
 30
0.0
 40
0.6000000000000229
 50
90.0
 51
270.0
  0
ARC
  5
1DC23
  8
SU
 10
368.9471062440158
 20
328.10574394672591
 30
0.0
 40
0.6000000000000229
 50
90.0
 51
270.0
  0
ARC
  5
1DC24
  8
SU
 10
368.9471062440158
 20
328.10574394672591
 30
0.0
 40
0.6000000000000229
 50
270.0
 51
90.0
  0
ARC
  5
1DC25
  8
SU
 10
368.9471062440158
 20
627.10574520988212
 30
0.0
 40
0.6000000000000229
 50
270.0
 51
90.0
  0
ARC
  5
1DC26
  8
SU
 10
368.9471062440158
 20
627.10574520988212
 30
0.0
 40
0.6000000000000229
 50
90.0
 51
270.0
  0
ARC
  5
1DC27
  8
SU
 10
368.9471062440158
 20
337.1057439467258
 30
0.0
 40
0.6000000000000229
 50
90.0
 51
270.0
  0
ARC
  5
1DC28
  8
SU
 10
368.9471062440158
 20
337.1057439467258
 30
0.0
 40
0.6000000000000229
 50
270.0
 51
90.0
  0
ENDSEC
  0
EOF
