  0
SECTION
  2
HEADER
  9
$ACADVER
  1
AC1009
  9
$INSBASE
 10
0.0
 20
0.0
 30
0.0
  9
$EXTMIN
 10
19.300000000000001
 20
16.25
 30
0.0
  9
$EXTMAX
 10
1165.5
 20
830.74999999999989
 30
0.0
  9
$LIMMIN
 10
0.0
 20
0.0
  9
$LIMMAX
 10
1189.0
 20
841.0
  9
$ORTHOMODE
 70
     1
  9
$REGENMODE
 70
     1
  9
$FILLMODE
 70
     1
  9
$QTEXTMODE
 70
     0
  9
$MIRRTEXT
 70
     0
  9
$DRAGMODE
 70
     2
  9
$LTSCALE
 40
1.0
  9
$OSMODE
 70
  3071
  9
$ATTMODE
 70
     1
  9
$TEXTSIZE
 40
12.5
  9
$TRACEWID
 40
1.0
  9
$TEXTSTYLE
  7
STANDARD
  9
$CLAYER
  8
0
  9
$CELTYPE
  6
BYLAYER
  9
$CECOLOR
 62
   256
  9
$DIMSCALE
 40
1.0
  9
$DIMASZ
 40
7.0
  9
$DIMEXO
 40
1.0
  9
$DIMDLI
 40
7.0
  9
$DIMRND
 40
0.0
  9
$DIMDLE
 40
0.0
  9
$DIMEXE
 40
3.0
  9
$DIMTP
 40
0.1
  9
$DIMTM
 40
0.1
  9
$DIMTXT
 40
7.0
  9
$DIMCEN
 40
0.0
  9
$DIMTSZ
 40
0.0
  9
$DIMTOL
 70
     0
  9
$DIMLIM
 70
     0
  9
$DIMTIH
 70
     0
  9
$DIMTOH
 70
     0
  9
$DIMSE1
 70
     0
  9
$DIMSE2
 70
     0
  9
$DIMTAD
 70
     1
  9
$DIMZIN
 70
     8
  9
$DIMBLK
  1
DOTSMALL
  9
$DIMASO
 70
     1
  9
$DIMSHO
 70
     1
  9
$DIMPOST
  1

  9
$DIMAPOST
  1
"
  9
$DIMALT
 70
     0
  9
$DIMALTD
 70
     2
  9
$DIMALTF
 40
0.0393701
  9
$DIMLFAC
 40
1.0
  9
$DIMTOFL
 70
     1
  9
$DIMTVP
 40
0.0
  9
$DIMTIX
 70
     0
  9
$DIMSOXD
 70
     0
  9
$DIMSAH
 70
     0
  9
$DIMBLK1
  1

  9
$DIMBLK2
  1

  9
$DIMSTYLE
  2
SANKYO
  9
$DIMCLRD
 70
   256
  9
$DIMCLRE
 70
   256
  9
$DIMCLRT
 70
   256
  9
$DIMTFAC
 40
0.71
  9
$DIMGAP
 40
1.3
  9
$LUNITS
 70
     2
  9
$LUPREC
 70
     4
  9
$SKETCHINC
 40
1.0
  9
$FILLETRAD
 40
0.4
  9
$AUNITS
 70
     0
  9
$AUPREC
 70
     0
  9
$MENU
  1
.
  9
$ELEVATION
 40
0.0
  9
$PELEVATION
 40
0.0
  9
$THICKNESS
 40
0.0
  9
$LIMCHECK
 70
     0
  9
$BLIPMODE
 70
     0
  9
$CHAMFERA
 40
10.0
  9
$CHAMFERB
 40
10.0
  9
$SKPOLY
 70
     0
  9
$TDCREATE
 40
2455110.561913426
  9
$TDUPDATE
 40
2459033.4590269439
  9
$TDINDWG
 40
1.9448462384
  9
$TDUSRTIMER
 40
1.9446505903
  9
$USRTIMER
 70
     1
  9
$ANGBASE
 50
0.0
  9
$ANGDIR
 70
     0
  9
$PDMODE
 70
     0
  9
$PDSIZE
 40
0.0
  9
$PLINEWID
 40
0.0
  9
$COORDS
 70
     2
  9
$SPLFRAME
 70
     0
  9
$SPLINETYPE
 70
     6
  9
$SPLINESEGS
 70
     8
  9
$ATTDIA
 70
     1
  9
$ATTREQ
 70
     1
  9
$HANDLING
 70
     1
  9
$HANDSEED
  5
1CF59
  9
$SURFTAB1
 70
     6
  9
$SURFTAB2
 70
     6
  9
$SURFTYPE
 70
     6
  9
$SURFU
 70
     6
  9
$SURFV
 70
     6
  9
$UCSNAME
  2

  9
$UCSORG
 10
0.0
 20
0.0
 30
0.0
  9
$UCSXDIR
 10
1.0
 20
0.0
 30
0.0
  9
$UCSYDIR
 10
0.0
 20
1.0
 30
0.0
  9
$PUCSNAME
  2

  9
$PUCSORG
 10
0.0
 20
0.0
 30
0.0
  9
$PUCSXDIR
 10
1.0
 20
0.0
 30
0.0
  9
$PUCSYDIR
 10
0.0
 20
1.0
 30
0.0
  9
$USERI1
 70
     0
  9
$USERI2
 70
     0
  9
$USERI3
 70
     0
  9
$USERI4
 70
     0
  9
$USERI5
 70
     0
  9
$USERR1
 40
0.0
  9
$USERR2
 40
0.0
  9
$USERR3
 40
0.0
  9
$USERR4
 40
0.0
  9
$USERR5
 40
0.0
  9
$WORLDVIEW
 70
     1
  9
$SHADEDGE
 70
     3
  9
$SHADEDIF
 70
    70
  9
$TILEMODE
 70
     1
  9
$MAXACTVP
 70
    48
  9
$PLIMCHECK
 70
     0
  9
$PEXTMIN
 10
1.0000000000000000E+020
 20
1.0000000000000000E+020
 30
1.0000000000000000E+020
  9
$PEXTMAX
 10
-1.0000000000000000E+020
 20
-1.0000000000000000E+020
 30
-1.0000000000000000E+020
  9
$PLIMMIN
 10
0.0
 20
0.0
  9
$PLIMMAX
 10
420.0
 20
297.0
  9
$UNITMODE
 70
     0
  9
$VISRETAIN
 70
     1
  9
$PLINEGEN
 70
     0
  9
$PSLTSCALE
 70
     1
  0
ENDSEC
  0
SECTION
  2
TABLES
  0
TABLE
  2
VPORT
 70
     1
  0
VPORT
  2
*ACTIVE
 70
     0
 10
0.0
 20
0.0
 11
1.0
 21
1.0
 12
592.41359224346638
 22
423.48359113394218
 13
0.0
 23
0.0
 14
2.5
 24
2.5
 15
10.0
 25
10.0
 16
0.0
 26
0.0
 36
1.0
 17
0.0
 27
0.0
 37
0.0
 40
821.03423110230813
 41
2.050913838120104
 42
50.0
 43
0.0
 44
0.0
 50
0.0
 51
0.0
 71
     0
 72
   100
 73
     1
 74
     1
 75
     0
 76
     0
 77
     0
 78
     0
  0
ENDTAB
  0
TABLE
  2
LTYPE
 70
    26
  0
LTYPE
  2
CONTINUOUS
 70
     0
  3
Solid line
 72
    65
 73
     0
 40
0.0
  0
LTYPE
  2
CENTER
 70
     0
  3
Center ____ _ ____ _ ____ _ ____ _ ____ _ ____
 72
    65
 73
     4
 40
50.799999999999997
 49
31.75
 49
-6.3499999999999988
 49
6.3499999999999988
 49
-6.3499999999999988
  0
LTYPE
  2
CENTER2
 70
     0
  3
Center (.5x) ___ _ ___ _ ___ _ ___ _ ___ _ ___
 72
    65
 73
     4
 40
28.574999999999999
 49
19.050000000000001
 49
-3.1749999999999989
 49
3.1749999999999989
 49
-3.1749999999999989
  0
LTYPE
  2
PHANTOM
 70
     0
  3
Phantom ______  __  __  ______  __  __  ______
 72
    65
 73
     6
 40
63.5
 49
31.75
 49
-6.3499999999999988
 49
6.3499999999999988
 49
-6.3499999999999988
 49
6.3499999999999988
 49
-6.3499999999999988
  0
LTYPE
  2
PHANTOM2
 70
     0
  3
Phantom (.5x) ___ _ _ ___ _ _ ___ _ _ ___ _ _
 72
    65
 73
     6
 40
31.75
 49
15.875
 49
-3.1749999999999989
 49
3.1749999999999989
 49
-3.1749999999999989
 49
3.1749999999999989
 49
-3.1749999999999989
  0
LTYPE
  2
DASHED
 70
     0
  3
Dashed __ __ __ __ __ __ __ __ __ __ __ __ __ _
 72
    65
 73
     2
 40
19.050000000000001
 49
12.699999999999999
 49
-6.3499999999999988
  0
LTYPE
  2
DASHED2
 70
     0
  3
Dashed (.5x) _ _ _ _ _ _ _ _ _ _ _ _ _ _ _ _ _
 72
    65
 73
     2
 40
9.5249999999999986
 49
6.3499999999999988
 49
-3.1749999999999989
  0
LTYPE
  2
ZIGZAG
 70
     0
  3
Zig zag /\/\/\/\/\/\/\/\/\/\/\/\/\/\/\/\/\/\/\/
 72
    65
 73
     4
 40
20.32254
 49
0.00254
 49
-5.0800000000000001
 49
-10.16
 49
-5.0800000000000001
  0
LTYPE
  2
AM_ISO02W050
 70
     0
  3
__ __ __ __ __ __ __ __ __ __ __ __ __ __ __
 72
    65
 73
     2
 40
7.5
 49
6.0
 49
-1.5
  0
LTYPE
  2
AMCONSTR
 70
     0
  3
_______________________
 72
    65
 73
     2
 40
9999.0
 49
9999.0
 49
0.0
  0
LTYPE
  2
AMZIGZAG
 70
     0
  3
/\/-/\/-/\/-/\/-/\/-/\/
 72
    65
 73
     2
 40
11.0001
 49
0.0001
 49
-11.0
  0
LTYPE
  2
ACJISTGB
 70
     0
  3
__ . . __ . .
 72
    65
 73
     6
 40
9.0
 49
4.0
 49
-1.0
 49
1.0
 49
-1.0
 49
1.0
 49
-1.0
  0
LTYPE
  2
ACJISTGL
 70
     0
  3
_ _ _ _ _
 72
    65
 73
     2
 40
3.0
 49
2.0
 49
-1.0
  0
LTYPE
  2
ACISOWELD
 70
     0
  3
_ _ _ _ _
 72
    65
 73
     2
 40
2.0
 49
2.0
 49
-1.0
  0
LTYPE
  2
ACISOTGB
 70
     0
  3
__ . . __ . .
 72
    65
 73
     6
 40
9.0
 49
4.0
 49
-1.0
 49
1.0
 49
-1.0
 49
1.0
 49
-1.0
  0
LTYPE
  2
ACISOTGL
 70
     0
  3
_ _ _ _ _
 72
    65
 73
     2
 40
3.0
 49
2.0
 49
-1.0
  0
LTYPE
  2
HIDDEN
 70
     0
  3
Hidden __ __ __ __ __ __ __ __ __ __ __ __ __ _
 72
    65
 73
     2
 40
9.5249999999999986
 49
6.3499999999999988
 49
-3.1749999999999989
  0
LTYPE
  2
AM_ISO08W050
 70
     0
  3
____ . ____ . ____ . ____ . ____ . ____ . ____
 72
    65
 73
     4
 40
18.0
 49
12.0
 49
-1.5
 49
3.0
 49
-1.5
  0
LTYPE
  2
AM_ISO09W050
 70
     0
  3
_____ . . _____ . . _____ . . ____ .. ____
 72
    65
 73
     6
 40
22.5
 49
12.0
 49
-1.5
 49
3.0
 49
-1.5
 49
3.0
 49
-1.5
  0
LTYPE
  2
AM_ISO08W050X2
 70
     0
  3
__ . __ . __ . __ . __ . __
 72
    65
 73
     4
 40
9.0
 49
6.0
 49
-0.75
 49
1.5
 49
-0.75
  0
LTYPE
  2
AM_ISO02W050X2
 70
     0
  3
 _ _ _ _ _ _ _ _ _ _ _ _
 72
    65
 73
     2
 40
3.75
 49
3.0
 49
-0.75
  0
LTYPE
  2
DDM
 70
     0
  3
中点線
 72
    65
 73
     2
 40
3.0
 49
2.0
 49
-1.0
  0
LTYPE
  2
DD2
 70
     0
  3
二点鎖線
 72
    65
 73
     6
 40
12.0
 49
6.0
 49
-1.1999999999999991
 49
1.1999999999999991
 49
-1.1999999999999991
 49
1.1999999999999991
 49
-1.1999999999999991
  0
LTYPE
  2
HIDDEN2
 70
     0
  3
Hidden (.5x) _ _ _ _ _ _ _ _ _ _ _ _ _ _ _ _ _
 72
    65
 73
     2
 40
0.1875
 49
0.125
 49
-0.0625
  0
LTYPE
  2
ACANSTGB
 70
     0
  3
__ . . __ . .
 72
    65
 73
     6
 40
0.35433070866
 49
0.15748031496
 49
-0.03937007874
 49
0.03937007874
 49
-0.03937007874
 49
0.03937007874
 49
-0.03937007874
  0
LTYPE
  2
ACANSTGL
 70
     0
  3
_ _ _ _ _
 72
    65
 73
     2
 40
0.11811023622
 49
0.07874015748
 49
-0.03937007874
  0
ENDTAB
  0
TABLE
  2
LAYER
 70
    11
  0
LAYER
  2
0
 70
     0
 62
     7
  6
CONTINUOUS
  0
LAYER
  2
KI1
 70
     0
 62
     7
  6
CONTINUOUS
  0
LAYER
  2
SU
 70
     0
 62
     3
  6
CONTINUOUS
  0
LAYER
  2
MJ
 70
     0
 62
     2
  6
CONTINUOUS
  0
LAYER
  2
OS
 70
     0
 62
     2
  6
CONTINUOUS
  0
LAYER
  2
KI2
 70
     0
 62
     4
  6
CONTINUOUS
  0
LAYER
  2
PH
 70
     0
 62
     6
  6
PHANTOM2
  0
LAYER
  2
WK
 70
     4
 62
     7
  6
CONTINUOUS
  0
LAYER
  2
DEFPOINTS
 70
     1
 62
    -7
  6
CONTINUOUS
  0
LAYER
  2
TS
 70
     0
 62
     6
  6
DASHED2
  0
LAYER
  2
CL
 70
     0
 62
     4
  6
CENTER2
  0
ENDTAB
  0
TABLE
  2
STYLE
 70
     4
  0
STYLE
  2
STANDARD
 70
     0
 40
0.0
 41
0.8299999999999999
 50
0.0
 71
     0
 42
12.5
  3
romans.shx
  4
extfont.shx
  0
STYLE
  2

 70
     1
 40
0.0
 41
1.0
 50
0.0
 71
     0
 42
2.5
  3
ltypeshp.shx
  4

  0
STYLE
  2
ACISOGDT
 70
     0
 40
0.0
 41
1.0
 50
0.0
 71
     0
 42
2.5
  3
amgdt.shx
  4

  0
STYLE
  2
ACANSGDT
 70
     0
 40
0.0
 41
1.0
 50
0.0
 71
     0
 42
12.5
  3
amgdt.shx
  4

  0
ENDTAB
  0
TABLE
  2
VIEW
 70
     6
  0
VIEW
  2
AM_VIEW1
 70
     0
 40
297.5
 10
-194.33547008547001
 20
148.25
 41
457.32905982905982
 11
0.0
 21
0.0
 31
1.0
 12
0.0
 22
0.0
 32
0.0
 42
50.0
 43
0.0
 44
0.0
 50
0.0
 71
     0
  0
VIEW
  2
AM_VIEW2
 70
     0
 40
297.5
 10
189.33547008547001
 20
148.25
 41
457.32905982905982
 11
0.0
 21
0.0
 31
1.0
 12
0.0
 22
0.0
 32
0.0
 42
50.0
 43
0.0
 44
0.0
 50
0.0
 71
     0
  0
VIEW
  2
AM_VIEW3
 70
     0
 40
297.5
 10
-194.33547008547001
 20
-149.25
 41
457.32905982905982
 11
0.0
 21
0.0
 31
1.0
 12
0.0
 22
0.0
 32
0.0
 42
50.0
 43
0.0
 44
0.0
 50
0.0
 71
     0
  0
VIEW
  2
AM_VIEW4
 70
     0
 40
297.5
 10
189.33547008547001
 20
-149.25
 41
457.32905982905982
 11
0.0
 21
0.0
 31
1.0
 12
0.0
 22
0.0
 32
0.0
 42
50.0
 43
0.0
 44
0.0
 50
0.0
 71
     0
  0
VIEW
  2
AM_VIEW5
 70
     0
 40
297.5
 10
-2.5
 20
-0.5
 41
457.32905982905982
 11
0.0
 21
0.0
 31
1.0
 12
0.0
 22
0.0
 32
0.0
 42
50.0
 43
0.0
 44
0.0
 50
0.0
 71
     0
  0
VIEW
  2
AM_VIEW6
 70
     0
 40
594.99405000000002
 10
-2.5
 20
-0.5
 41
914.6489730769232
 11
0.0
 21
0.0
 31
1.0
 12
0.0
 22
0.0
 32
0.0
 42
50.0
 43
0.0
 44
0.0
 50
0.0
 71
     0
  0
ENDTAB
  0
TABLE
  2
UCS
 70
     0
  0
ENDTAB
  0
TABLE
  2
APPID
 70
    46
  0
APPID
  2
ACAD
 70
     0
  0
APPID
  2
MCAD_NO_VIS
 70
     0
  0
APPID
  2
ACAD_TEMP_GRAPHIC
 70
     0
  0
APPID
  2
ACATTRIBSERVICES
 70
     0
  0
APPID
  2
GENIUS_GENDIMSH_14
 70
     0
  0
APPID
  2
GENIUS_GENODEF_13
 70
     0
  0
APPID
  2
GENIUS_GENOENT_13
 70
     0
  0
APPID
  2
GENIUS_GENOBJ-N-TIT_13
 70
     0
  0
APPID
  2
GENIUS_GENOLIS_13
 70
     0
  0
APPID
  2
GENIUS_GENTITLE_13
 70
     0
  0
APPID
  2
GENIUS_GENOREF_13
 70
     0
  0
APPID
  2
GENIUS_GENSCREG_15
 70
     0
  0
APPID
  2
GENIUS_GENOBJ-N-SDF_13
 70
     0
  0
APPID
  2
GENIUS_GENOBJ-N-REV_13
 70
     0
  0
APPID
  2
GENIUS_GENOBJ-N-RSSYM_13
 70
     0
  0
APPID
  2
GENIUS_GENSYMENT_13
 70
     0
  0
APPID
  2
GENIUS_GENSCSYM_13
 70
     0
  0
APPID
  2
GENIUS_GENOBJ-N-CEN_13
 70
     0
  0
APPID
  2
GENIUS_GENOBJ-N-FIL_13
 70
     0
  0
APPID
  2
GENIUS_GENBH_13
 70
     0
  0
APPID
  2
GENIUS_GENOBJ-NBEHI-BHF_13
 70
     0
  0
APPID
  2
GENIUS_GENFIL_13
 70
     0
  0
APPID
  2
GENIUS_GENOBJ-N-CHA_13
 70
     0
  0
APPID
  2
GENIUS_GENOBJ-NBEHI-BHB_13
 70
     0
  0
APPID
  2
GENIUS_GENOBJ-N-CRS_13
 70
     0
  0
APPID
  2
GENIUS_GENDTOL_13
 70
     0
  0
APPID
  2
AD_DRAW
 70
     0
  0
APPID
  2
DESIGNERASSEMBLIES
 70
     0
  0
APPID
  2
ACADM_DIM_EDIT
 70
     0
  0
APPID
  2
AMDT_DM_ADJ
 70
     0
  0
APPID
  2
ACAD_PSEXT
 70
     0
  0
APPID
  2
ACAECLAYERSTANDARD
 70
     0
  0
APPID
  2
DCO15
 70
     0
  0
APPID
  2
GENIUS_GENOBJ-N-HTC_13
 70
     0
  0
APPID
  2
GENIUS_GENHATCH_13
 70
     0
  0
APPID
  2
ACAD_NAV_VCDISPLAY
 70
     0
  0
APPID
  2
ACAD_DSTYLE_DIMARC_LENGTH_
 70
     0
  0
APPID
  2
GENIUS_GENREC_14
 70
     0
  0
APPID
  2
GENIUS_GENOBJ-N-REC_13
 70
     0
  0
APPID
  2
GENIUS_GENCEN_19
 70
     0
  0
APPID
  2
ACAD_DSTYLE_DIMBREAK
 70
     0
  0
APPID
  2
ACAD_DSTYLE_DIMJAG
 70
     0
  0
APPID
  2
ACAD_DSTYLE_DIMINSPECT
 70
     0
  0
APPID
  2
ACAD_EXEMPT_FROM_CAD_STANDARDS
 70
     0
  0
APPID
  2
CONTENTBLOCKICON
 70
     0
  0
APPID
  2
ACAD_MLEADERVER
 70
     0
  0
ENDTAB
  0
TABLE
  2
DIMSTYLE
 70
    17
  0
DIMSTYLE
  2
SANKYO
 70
     0
  3

  4
"
  5
DOTSMALL
  6

  7

 40
1.0
 41
7.0
 42
1.0
 43
7.0
 44
3.0
 45
0.0
 46
0.0
 47
0.1
 48
0.1
140
7.0
141
0.0
142
0.0
143
0.0393701
144
1.0
145
0.0
146
0.71
147
1.3
 71
     0
 72
     0
 73
     0
 74
     0
 75
     0
 76
     0
 77
     1
 78
     8
170
     0
171
     2
172
     1
173
     0
174
     0
175
     0
176
   256
177
   256
178
   256
  0
DIMSTYLE
  2
AM_ISO
 70
     0
  3

  4
"
  5

  6

  7

 40
1.0
 41
1.6000000000000001
 42
1.0
 43
7.0
 44
1.0
 45
0.0
 46
0.0
 47
0.1
 48
0.1
140
2.5
141
0.0
142
0.0
143
0.0393701
144
1.0
145
0.0
146
0.71
147
0.625
 71
     0
 72
     0
 73
     0
 74
     0
 75
     0
 76
     0
 77
     1
 78
     8
170
     0
171
     2
172
     1
173
     0
174
     0
175
     0
176
   256
177
   256
178
   256
  0
DIMSTYLE
  2
AM_ISO$3
 70
     0
  3

  4
"
  5

  6

  7

 40
1.0
 41
1.6000000000000001
 42
1.0
 43
7.0
 44
1.0
 45
0.0
 46
0.0
 47
0.1
 48
0.1
140
2.5
141
0.0
142
0.0
143
0.0393701
144
1.0
145
0.0
146
0.71
147
0.625
 71
     0
 72
     0
 73
     0
 74
     0
 75
     0
 76
     0
 77
     1
 78
     8
170
     0
171
     2
172
     1
173
     0
174
     0
175
     0
176
   256
177
   256
178
   256
  0
DIMSTYLE
  2
AM_ISO$4
 70
     0
  3

  4
"
  5

  6

  7

 40
1.0
 41
1.6000000000000001
 42
1.0
 43
7.0
 44
1.0
 45
0.0
 46
0.0
 47
0.1
 48
0.1
140
2.5
141
0.0
142
0.0
143
0.0393701
144
1.0
145
0.0
146
0.71
147
0.625
 71
     0
 72
     0
 73
     0
 74
     0
 75
     0
 76
     0
 77
     1
 78
     8
170
     0
171
     2
172
     1
173
     0
174
     0
175
     0
176
   256
177
   256
178
   256
  0
DIMSTYLE
  2
AM_ISO$6
 70
     0
  3

  4
"
  5

  6

  7

 40
1.0
 41
1.6000000000000001
 42
1.0
 43
7.0
 44
1.0
 45
0.0
 46
0.0
 47
0.1
 48
0.1
140
2.5
141
0.0
142
0.0
143
0.0393701
144
1.0
145
0.0
146
0.71
147
0.625
 71
     0
 72
     0
 73
     0
 74
     0
 75
     0
 76
     0
 77
     0
 78
     8
170
     0
171
     2
172
     1
173
     0
174
     0
175
     0
176
   256
177
   256
178
   256
  0
DIMSTYLE
  2
AM_ISO$7
 70
     0
  3

  4
"
  5

  6

  7

 40
1.0
 41
1.6000000000000001
 42
1.0
 43
7.0
 44
1.0
 45
0.0
 46
0.0
 47
0.1
 48
0.1
140
2.5
141
0.0
142
0.0
143
0.0393701
144
1.0
145
0.0
146
0.71
147
0.625
 71
     0
 72
     0
 73
     0
 74
     0
 75
     0
 76
     0
 77
     1
 78
     8
170
     0
171
     2
172
     1
173
     0
174
     0
175
     0
176
   256
177
   256
178
   256
  0
DIMSTYLE
  2
AM_ISO$SF
 70
     0
  3

  4
"
  5

  6

  7

 40
1.0
 41
2.5
 42
1.0
 43
10.0
 44
1.0
 45
0.0
 46
0.0
 47
0.1
 48
0.1
140
3.5
141
0.0
142
0.0
143
0.0393701
144
1.0
145
0.0
146
0.71
147
1.5
 71
     0
 72
     0
 73
     0
 74
     0
 75
     1
 76
     1
 77
     1
 78
     8
170
     0
171
     2
172
     1
173
     0
174
     0
175
     0
176
   256
177
   256
178
     2
  0
DIMSTYLE
  2
AM_ISO$SH
 70
     0
  3

  4
"
  5

  6
GENAXEH
  7

 40
1.0
 41
2.5
 42
1.0
 43
10.0
 44
1.0
 45
0.0
 46
0.0
 47
0.1
 48
0.1
140
3.5
141
0.0
142
0.0
143
0.0393701
144
2.0
145
0.0
146
0.71
147
1.5
 71
     0
 72
     0
 73
     0
 74
     0
 75
     1
 76
     1
 77
     1
 78
     8
170
     0
171
     2
172
     1
173
     1
174
     0
175
     0
176
   256
177
   256
178
     2
  0
DIMSTYLE
  2
AM_ISO$2
 70
     0
  3

  4
"
  5

  6

  7

 40
1.0
 41
1.6000000000000001
 42
1.0
 43
7.0
 44
1.0
 45
0.0
 46
0.0
 47
0.1
 48
0.1
140
2.5
141
0.0
142
0.0
143
0.0393701
144
1.0
145
0.0
146
0.71
147
0.625
 71
     0
 72
     0
 73
     0
 74
     0
 75
     0
 76
     0
 77
     1
 78
     8
170
     0
171
     2
172
     1
173
     0
174
     0
175
     0
176
   256
177
   256
178
   256
  0
DIMSTYLE
  2
AM_ISO$0
 70
     0
  3

  4
"
  5

  6

  7

 40
1.0
 41
1.6000000000000001
 42
1.0
 43
7.0
 44
1.0
 45
0.0
 46
0.0
 47
0.1
 48
0.1
140
2.5
141
0.0
142
0.0
143
0.0393701
144
1.0
145
0.0
146
0.71
147
0.625
 71
     0
 72
     0
 73
     0
 74
     0
 75
     0
 76
     0
 77
     1
 78
     8
170
     0
171
     2
172
     1
173
     0
174
     0
175
     0
176
   256
177
   256
178
   256
  0
DIMSTYLE
  2
SANKYO$0
 70
     0
  3

  4
"
  5
DOTSMALL
  6

  7

 40
1.0
 41
7.0
 42
1.0
 43
7.0
 44
3.0
 45
0.0
 46
0.0
 47
0.1
 48
0.1
140
7.0
141
0.0
142
0.0
143
0.0393701
144
1.0
145
0.0
146
0.71
147
1.3
 71
     0
 72
     0
 73
     0
 74
     0
 75
     0
 76
     0
 77
     1
 78
     8
170
     0
171
     2
172
     1
173
     0
174
     0
175
     0
176
   256
177
   256
178
   256
  0
DIMSTYLE
  2
AM_ANSI
 70
     0
  3

  4
mm
  5

  6

  7

 40
1.0
 41
0.12
 42
0.05
 43
0.5
 44
0.1
 45
0.0
 46
0.0
 47
0.1
 48
0.1
140
0.12
141
0.0
142
0.0
143
25.399999999999999
144
1.0
145
0.0
146
0.71
147
0.06
 71
     0
 72
     0
 73
     1
 74
     1
 75
     0
 76
     0
 77
     0
 78
     7
170
     0
171
     2
172
     0
173
     0
174
     0
175
     0
176
   256
177
   256
178
     2
  0
DIMSTYLE
  2
AM_ANSI$3
 70
     0
  3

  4
mm
  5

  6

  7

 40
1.0
 41
0.12
 42
0.05
 43
0.5
 44
0.1
 45
0.0
 46
0.0
 47
0.1
 48
0.1
140
0.12
141
0.0
142
0.0
143
25.399999999999999
144
1.0
145
0.0
146
0.71
147
0.06
 71
     0
 72
     0
 73
     1
 74
     1
 75
     0
 76
     0
 77
     0
 78
     7
170
     0
171
     2
172
     0
173
     0
174
     0
175
     0
176
   256
177
   256
178
     2
  0
DIMSTYLE
  2
AM_ANSI$4
 70
     0
  3

  4
mm
  5

  6

  7

 40
1.0
 41
0.12
 42
0.05
 43
0.5
 44
0.1
 45
0.0
 46
0.0
 47
0.1
 48
0.1
140
0.12
141
0.0
142
0.0
143
25.399999999999999
144
1.0
145
0.0
146
0.71
147
0.06
 71
     0
 72
     0
 73
     1
 74
     1
 75
     0
 76
     0
 77
     0
 78
     7
170
     0
171
     2
172
     0
173
     0
174
     0
175
     0
176
   256
177
   256
178
     2
  0
DIMSTYLE
  2
AM_ANSI$7
 70
     0
  3

  4
mm
  5

  6

  7

 40
1.0
 41
0.12
 42
0.05
 43
0.5
 44
0.1
 45
0.0
 46
0.0
 47
0.1
 48
0.1
140
0.12
141
0.0
142
0.0
143
25.399999999999999
144
1.0
145
0.0
146
0.71
147
0.06
 71
     0
 72
     0
 73
     1
 74
     1
 75
     0
 76
     0
 77
     0
 78
     7
170
     0
171
     2
172
     0
173
     0
174
     0
175
     0
176
   256
177
   256
178
     2
  0
DIMSTYLE
  2
AM_ANSI$SF
 70
     0
  3

  4
mm
  5

  6

  7

 40
1.0
 41
0.12
 42
0.05
 43
0.5
 44
0.1
 45
0.0
 46
0.0
 47
0.1
 48
0.1
140
0.12
141
0.0
142
0.0
143
25.399999999999999
144
1.0
145
0.0
146
0.71
147
0.06
 71
     0
 72
     0
 73
     1
 74
     1
 75
     1
 76
     1
 77
     0
 78
     7
170
     0
171
     2
172
     0
173
     0
174
     0
175
     0
176
   256
177
   256
178
     2
  0
DIMSTYLE
  2
AM_ANSI$SH
 70
     0
  3

  4
mm
  5

  6
GENAXEH
  7

 40
1.0
 41
0.12
 42
0.05
 43
0.5
 44
0.1
 45
0.0
 46
0.0
 47
0.1
 48
0.1
140
0.12
141
0.0
142
0.0
143
25.399999999999999
144
1.0
145
0.0
146
0.71
147
0.06
 71
     0
 72
     0
 73
     1
 74
     1
 75
     1
 76
     1
 77
     0
 78
     7
170
     0
171
     2
172
     0
173
     1
174
     0
175
     0
176
   256
177
   256
178
     2
  0
ENDTAB
  0
ENDSEC
  0
SECTION
  2
BLOCKS
  0
BLOCK
  8
0
  2
$MODEL_SPACE
 70
     0
 10
0.0
 20
0.0
 30
0.0
  3
$MODEL_SPACE
  1

  0
ENDBLK
  5
1A
  8
0
  0
BLOCK
 67
     1
  8
0
  2
$PAPER_SPACE
 70
     0
 10
0.0
 20
0.0
 30
0.0
  3
$PAPER_SPACE
  1

  0
ENDBLK
  5
17
 67
     1
  8
0
  0
BLOCK
  8
0
  2
GENAXEH
 70
     0
 10
0.0
 20
0.0
 30
0.0
  3
GENAXEH
  1

  0
LINE
  5
102
  8
0
 10
-1.0
 20
0.0
 30
0.0
 11
1.0
 21
0.0
 31
0.0
  0
ENDBLK
  5
104
  8
0
  0
BLOCK
  8
0
  2
_OPEN
 70
     0
 10
0.0
 20
0.0
 30
0.0
  3
_OPEN
  1

  0
LINE
  5
30B
  8
0
  6
BYBLOCK
 62
     0
 10
-1.0
 20
0.1666666666666666
 30
0.0
 11
0.0
 21
0.0
 31
0.0
  0
LINE
  5
30C
  8
0
  6
BYBLOCK
 62
     0
 10
-1.0
 20
-0.1666666666666666
 30
0.0
 11
0.0
 21
0.0
 31
0.0
  0
LINE
  5
30D
  8
0
  6
BYBLOCK
 62
     0
 10
0.0
 20
0.0
 30
0.0
 11
-1.0
 21
0.0
 31
0.0
  0
ENDBLK
  5
30F
  8
0
  0
BLOCK
  8
0
  2
_DOTSMALL
 70
     0
 10
0.0
 20
0.0
 30
0.0
  3
_DOTSMALL
  1

  0
POLYLINE
  5
A331
  8
0
  6
BYBLOCK
 62
     0
 66
     1
 10
0.0
 20
0.0
 30
0.0
 70
     1
 40
0.5
 41
0.5
  0
VERTEX
  5
1CF3F
  8
0
  6
BYBLOCK
 62
     0
 10
-0.0625
 20
0.0
 30
0.0
 42
1.0
  0
VERTEX
  5
1CF40
  8
0
  6
BYBLOCK
 62
     0
 10
0.0625
 20
0.0
 30
0.0
 42
1.0
  0
SEQEND
  5
1CF41
  8
0
  6
BYBLOCK
 62
     0
  0
ENDBLK
  5
A333
  8
0
  0
ENDSEC
  0
SECTION
  2
ENTITIES
  0
LINE
  5
9B1A
  8
WK
 10
23.5
 20
16.25
 30
0.0
 11
1165.5
 21
16.25
 31
0.0
  0
LINE
  5
9B1C
  8
WK
 10
23.5
 20
824.75
 30
0.0
 11
23.5
 21
16.25
 31
0.0
  0
TEXT
  5
9BE2
  8
WK
 10
22.5
 20
16.25
 30
0.0
 40
3.2000000000000002
  1
A0
 50
90.0
 41
0.8299999999999999
  0
LINE
  5
9C31
  8
WK
 10
1085.5
 20
34.25
 30
0.0
 11
1085.5
 21
16.25
 31
0.0
  0
LINE
  5
9C32
  8
WK
 10
890.49999999999989
 20
34.25
 30
0.0
 11
890.49999999999989
 21
16.25
 31
0.0
  0
LINE
  5
9C34
  8
WK
 10
1045.5
 20
34.25
 30
0.0
 11
1045.5
 21
16.25
 31
0.0
  0
LINE
  5
9C35
  8
WK
 10
1065.5
 20
34.25
 30
0.0
 11
1065.5
 21
16.25
 31
0.0
  0
LINE
  5
9C37
  8
WK
 10
1005.5
 20
34.25
 30
0.0
 11
1005.5
 21
16.25
 31
0.0
  0
LINE
  5
9C38
  8
WK
 10
985.5
 20
34.25
 30
0.0
 11
985.5
 21
16.25
 31
0.0
  0
LINE
  5
9C3A
  8
WK
 10
890.49999999999989
 20
34.25
 30
0.0
 11
1165.5
 21
34.25
 31
0.0
  0
LINE
  5
9C3B
  8
WK
 10
899.5
 20
26.25
 30
0.0
 11
972.49999999999989
 21
26.25
 31
0.0
  0
LINE
  5
9C3E
  8
WK
 10
1005.5
 20
22.25
 30
0.0
 11
1045.5
 21
22.25
 31
0.0
  0
LINE
  5
9C3F
  8
WK
 10
1005.5
 20
28.25
 30
0.0
 11
1045.5
 21
28.25
 31
0.0
  0
LINE
  5
9C46
  8
WK
 10
1151.8094750193111
 20
25.25
 30
0.0
 11
1163.8094750193111
 21
25.25
 31
0.0
  0
CIRCLE
  5
9C47
  8
WK
 10
1157.8094750193111
 20
25.25
 30
0.0
 40
6.0
  0
TEXT
  5
9C56
  8
WK
 10
992.52780952380954
 20
20.649999643948512
 30
0.0
 40
3.2000000000000002
  1
1:1
 41
0.8299999999999999
 72
     4
 11
995.5
 21
22.249999643948509
 31
0.0
  0
TEXT
  5
9C57
  8
WK
 10
1087.8031333333331
 20
30.150000000000009
 30
0.0
 40
3.2000000000000002
  1
図番
 41
0.8299999999999999
  0
TEXT
  5
9C58
  8
WK
 10
1067.9290000000001
 20
30.150000000000009
 30
0.0
 40
3.2000000000000002
  1
検図
 41
0.8299999999999999
  0
TEXT
  5
9C59
  8
WK
 10
1047.9290000000001
 20
30.150000000000009
 30
0.0
 40
3.2000000000000002
  1
作図
 41
0.8299999999999999
  0
TEXT
  5
9C5A
  8
WK
 10
1006.5535725057121
 20
29.149999999999999
 30
0.0
 40
3.2000000000000002
  1
作成
 41
0.8299999999999999
  0
TEXT
  5
9C5B
  8
WK
 10
1006.5535725057121
 20
23.149999999999999
 30
0.0
 40
3.2000000000000002
  1
制定
 41
0.8299999999999999
  0
TEXT
  5
9C5C
  8
WK
 10
1006.5535725057121
 20
17.149999999999999
 30
0.0
 40
3.2000000000000002
  1
廃止
 41
0.8299999999999999
  0
TEXT
  5
9C5D
  8
WK
 10
986.42899999999997
 20
30.149999999999999
 30
0.0
 40
3.2000000000000002
  1
尺度
 41
0.8299999999999999
  0
TEXT
  5
9C5E
  8
WK
 10
973.49999999999989
 20
18.25
 30
0.0
 40
4.0
  1
基準図
 41
0.8
  0
TEXT
  5
9C77
  8
WK
 10
892.30313333333345
 20
30.150000000000009
 30
0.0
 40
3.2000000000000002
  1
図名
 41
0.8299999999999999
  0
LINE
  5
9E0D
  8
WK
 10
23.5
 20
824.75
 30
0.0
 11
1165.5
 21
824.75
 31
0.0
  0
LINE
  5
9E18
  8
WK
 10
1165.5
 20
824.75
 30
0.0
 11
1165.5
 21
16.25
 31
0.0
  0
TEXT
  5
12887
  8
WK
 10
1130.0726417273511
 20
826.75
 30
0.0
 40
4.0
  1
大栄建材株式会社
 41
0.9
 72
     2
 11
1163.672641727351
 21
826.75
 31
0.0
  0
TEXT
  5
13021
  8
MJ
 10
1005.5
 20
42.25
 30
0.0
 40
7.0
  1
cl11a002
 41
0.8299999999999999
  0
TEXT
  5
13022
  8
MJ
 10
1005.5
 20
69.25
 30
0.0
 40
7.0
  1
クレーヴァ25・35　Ｙレール引戸
 41
0.8299999999999999
  0
TEXT
  5
13023
  8
MJ
 10
1005.5
 20
60.25
 30
0.0
 40
7.0
  1
片引き戸2枚建
 41
0.8299999999999999
  0
TEXT
  5
13024
  8
MJ
 10
1005.5
 20
78.25
 30
0.0
 40
7.0
  1
スーパースクリーン　クレーヴァ
 41
0.8299999999999999
  0
TEXT
  5
13025
  8
MJ
 10
1005.5
 20
51.25
 30
0.0
 40
7.0
  1
たて横断面
 41
0.8299999999999999
  0
LINE
  5
159D0
  8
KI1
 10
189.447046085409
 20
627.10574473009865
 30
0.0
 11
222.44703730372731
 21
627.10574473009865
 31
0.0
  0
LINE
  5
159D3
  8
KI2
 10
202.4470460854775
 20
333.11057788732762
 30
0.0
 11
204.9470460854775
 21
331.61057788732751
 31
0.0
  0
LINE
  5
159D4
  8
KI2
 10
202.4470460854775
 20
335.60574394672591
 30
0.0
 11
202.4470460854775
 21
333.11057788732762
 31
0.0
  0
LINE
  5
159D5
  8
KI2
 10
206.9470460854775
 20
330.11057788732762
 30
0.0
 11
205.9470460854775
 21
330.11057788732762
 31
0.0
  0
LINE
  5
159D6
  8
KI2
 10
204.9470460854775
 20
330.11057788732762
 30
0.0
 11
205.9470460854775
 21
330.11057788732762
 31
0.0
  0
LINE
  5
159D7
  8
KI2
 10
209.4470460854775
 20
333.11057788732762
 30
0.0
 11
206.9470460854775
 21
331.61057788732751
 31
0.0
  0
LINE
  5
159D8
  8
KI2
 10
209.4470460854775
 20
335.60574394672591
 30
0.0
 11
209.4470460854775
 21
333.11057788732762
 31
0.0
  0
LINE
  5
159D9
  8
KI2
 10
206.9470460854775
 20
335.60574394672591
 30
0.0
 11
206.9470460854775
 21
330.11057788732762
 31
0.0
  0
LINE
  5
159DA
  8
KI2
 10
204.9470460854775
 20
335.60574394672591
 30
0.0
 11
204.9470460854775
 21
330.11057788732762
 31
0.0
  0
LINE
  5
159DB
  8
KI2
 10
190.94704608547841
 20
335.6057439467258
 30
0.0
 11
220.94704608547841
 21
335.60574394672602
 31
0.0
  0
LINE
  5
159DC
  8
KI1
 10
189.44704608547841
 20
337.1057439467258
 30
0.0
 11
222.44704608540911
 21
337.1057439467258
 31
0.0
  0
ARC
  5
159DD
  8
KI2
 10
190.94704608547841
 20
337.1057439467258
 30
0.0
 40
1.5
 50
180.0
 51
270.0
  0
ARC
  5
159DE
  8
KI2
 10
220.94704608547841
 20
337.1057439467258
 30
0.0
 40
1.5
 50
270.0
 51
0.0
  0
LINE
  5
159E0
  8
PH
 10
583.81596980819381
 20
327.98474779943717
 30
0.0
 11
753.81596980819313
 21
327.98474779943808
 31
0.0
  0
LINE
  5
159E1
  8
PH
 10
753.81596980819313
 20
294.98474779943808
 30
0.0
 11
583.81596980819381
 21
294.98474779943717
 31
0.0
  0
LINE
  5
159E2
  8
PH
 10
583.81596980819381
 20
327.98474779943763
 30
0.0
 11
583.81596980819381
 21
294.98474779943763
 31
0.0
  0
LINE
  5
159E3
  8
KI2
 10
580.8159698081937
 20
309.38474875116498
 30
0.0
 11
718.81596980819324
 21
309.38474875116498
 31
0.0
  0
LINE
  5
159E4
  8
KI2
 10
888.81596980819347
 20
309.3847487511652
 30
0.0
 11
1026.8159698081929
 21
309.3847487511652
 31
0.0
  0
LINE
  5
159E5
  8
KI2
 10
580.8159698081937
 20
321.48474875116489
 30
0.0
 11
718.81596980819324
 21
321.48474875116489
 31
0.0
  0
LINE
  5
159E6
  8
KI2
 10
888.81596980819347
 20
321.48474875116489
 30
0.0
 11
1026.8159698081929
 21
321.48474875116489
 31
0.0
  0
LINE
  5
159E7
  8
KI2
 10
580.8159698081937
 20
313.5847487511648
 30
0.0
 11
718.81596980819324
 21
313.5847487511648
 31
0.0
  0
LINE
  5
159E8
  8
KI2
 10
888.81596980819347
 20
313.5847487511648
 30
0.0
 11
1026.8159698081929
 21
313.5847487511648
 31
0.0
  0
LINE
  5
159E9
  8
PH
 10
753.81596980819313
 20
327.98474779943803
 30
0.0
 11
753.81596980819313
 21
294.98474875116329
 31
0.0
  0
LINE
  5
159EA
  8
KI1
 10
189.447046085409
 20
627.10574473009865
 30
0.0
 11
189.447046085409
 21
337.1057439467258
 31
0.0
  0
LINE
  5
159EB
  8
KI1
 10
222.44704608540911
 20
627.10574473009865
 30
0.0
 11
222.44704608540911
 21
337.1057439467258
 31
0.0
  0
LINE
  5
159EC
  8
PH
 10
583.81596980819359
 20
291.98474779943717
 30
0.0
 11
753.81596980819313
 21
291.98474779943808
 31
0.0
  0
LINE
  5
159ED
  8
PH
 10
753.81596980819313
 20
258.98474779943808
 30
0.0
 11
583.81596980819359
 21
258.98474779943717
 31
0.0
  0
LINE
  5
159EE
  8
PH
 10
583.81596980819359
 20
291.98474779943763
 30
0.0
 11
583.81596980819359
 21
258.98474779943763
 31
0.0
  0
LINE
  5
159EF
  8
KI2
 10
580.8159698081937
 20
273.38474875116498
 30
0.0
 11
853.81597131918249
 21
273.38474875116509
 31
0.0
  0
LINE
  5
159F0
  8
KI2
 10
580.8159698081937
 20
277.58474875116491
 30
0.0
 11
853.81597233456694
 21
277.58474875116491
 31
0.0
  0
LINE
  5
159F1
  8
KI1
 10
853.81596980819347
 20
291.98474779943803
 30
0.0
 11
1023.815969808193
 21
291.98474779943803
 31
0.0
  0
LINE
  5
159F3
  8
KI1
 10
1023.815969808193
 20
258.98474875116329
 30
0.0
 11
853.81596980819347
 21
258.98474875116329
 31
0.0
  0
LINE
  5
159F4
  8
KI1
 10
853.81596980819347
 20
258.98474875116329
 30
0.0
 11
853.81596980819347
 21
291.98474779943803
 31
0.0
  0
LINE
  5
159F5
  8
PH
 10
753.81596980819313
 20
291.98474779943803
 30
0.0
 11
753.81596980819313
 21
258.98474875116329
 31
0.0
  0
LINE
  5
159F7
  8
KI2
 10
580.8159698081937
 20
265.4847490003981
 30
0.0
 11
853.81596980819324
 21
265.4847490003981
 31
0.0
  0
LINE
  5
159F8
  8
KI1
 10
718.81596980819324
 20
327.98474779943803
 30
0.0
 11
888.81596980819347
 21
327.98474779943803
 31
0.0
  0
LINE
  5
159F9
  8
KI1
 10
888.81596980819347
 20
327.98474779943803
 30
0.0
 11
888.81596980819347
 21
294.98474875116329
 31
0.0
  0
LINE
  5
159FA
  8
KI1
 10
888.81596980819347
 20
294.98474875116329
 30
0.0
 11
718.81596980819324
 21
294.98474875116329
 31
0.0
  0
LINE
  5
159FB
  8
KI1
 10
718.81596980819324
 20
294.98474875116329
 30
0.0
 11
718.81596980819324
 21
327.98474779943803
 31
0.0
  0
LINE
  5
159FF
  8
KI1
 10
225.447046085409
 20
627.10574473009865
 30
0.0
 11
258.44703730372731
 21
627.10574473009865
 31
0.0
  0
LINE
  5
15A01
  8
KI2
 10
238.4470460854775
 20
333.11057788732762
 30
0.0
 11
240.9470460854775
 21
331.61057788732751
 31
0.0
  0
LINE
  5
15A02
  8
KI2
 10
238.4470460854775
 20
335.60574394672591
 30
0.0
 11
238.4470460854775
 21
333.11057788732762
 31
0.0
  0
LINE
  5
15A03
  8
KI2
 10
245.4470460854775
 20
333.11057788732762
 30
0.0
 11
242.9470460854775
 21
331.61057788732751
 31
0.0
  0
LINE
  5
15A04
  8
KI2
 10
245.4470460854775
 20
335.60574394672591
 30
0.0
 11
245.4470460854775
 21
333.11057788732762
 31
0.0
  0
LINE
  5
15A05
  8
KI2
 10
242.9470460854775
 20
335.60574394672591
 30
0.0
 11
242.9470460854775
 21
330.11057788732762
 31
0.0
  0
LINE
  5
15A06
  8
KI2
 10
240.9470460854775
 20
335.60574394672591
 30
0.0
 11
240.9470460854775
 21
330.11057788732762
 31
0.0
  0
LINE
  5
15A07
  8
KI2
 10
226.94704608547841
 20
335.6057439467258
 30
0.0
 11
256.94704608547841
 21
335.60574394672602
 31
0.0
  0
LINE
  5
15A08
  8
KI1
 10
225.44704608547841
 20
337.1057439467258
 30
0.0
 11
258.447046085409
 21
337.1057439467258
 31
0.0
  0
ARC
  5
15A09
  8
KI2
 10
226.94704608547841
 20
337.1057439467258
 30
0.0
 40
1.5
 50
180.0
 51
270.0
  0
ARC
  5
15A0A
  8
KI2
 10
256.94704608547841
 20
337.1057439467258
 30
0.0
 40
1.5
 50
270.0
 51
0.0
  0
LINE
  5
15A0B
  8
KI1
 10
225.447046085409
 20
627.10574473009865
 30
0.0
 11
225.447046085409
 21
337.1057439467258
 31
0.0
  0
LINE
  5
15A0C
  8
KI1
 10
258.447046085409
 20
627.10574473009865
 30
0.0
 11
258.447046085409
 21
337.1057439467258
 31
0.0
  0
LINE
  5
15A11
  8
OS
 10
80.447110634857836
 20
112.28300748772079
 30
0.0
 11
324.44711063485778
 21
112.28300748772079
 31
0.0
  0
LINE
  5
15A15
  8
OS
 10
80.447110634857836
 20
114.28300748772079
 30
0.0
 11
197.447046085409
 21
114.28300748772079
 31
0.0
  0
LINE
  5
15A16
  8
OS
 10
250.447046085409
 20
114.28300748772079
 30
0.0
 11
324.44711063485778
 21
114.28300748772079
 31
0.0
  0
LINE
  5
15A17
  8
OS
 10
80.447110634857836
 20
118.28300748772079
 30
0.0
 11
197.447046085409
 21
118.28300748772079
 31
0.0
  0
LINE
  5
15A18
  8
OS
 10
250.447046085409
 20
118.28300748772079
 30
0.0
 11
324.44711063485778
 21
118.28300748772079
 31
0.0
  0
LINE
  5
15A19
  8
OS
 10
80.447110634857836
 20
122.28300748772079
 30
0.0
 11
197.447046085409
 21
122.28300748772079
 31
0.0
  0
LINE
  5
15A1A
  8
OS
 10
250.447046085409
 20
122.28300748772079
 30
0.0
 11
324.44711063485778
 21
122.28300748772079
 31
0.0
  0
LINE
  5
15A1C
  8
OS
 10
80.447110634857836
 20
116.28300748772079
 30
0.0
 11
197.447046085409
 21
116.2830074877206
 31
0.0
  0
LINE
  5
15A1D
  8
OS
 10
250.447046085409
 20
116.2830074877206
 30
0.0
 11
324.44711063485778
 21
116.2830074877203
 31
0.0
  0
LINE
  5
15A1E
  8
OS
 10
80.447110634857836
 20
120.28300748772079
 30
0.0
 11
197.447046085409
 21
120.28300748772089
 31
0.0
  0
LINE
  5
15A1F
  8
OS
 10
250.447046085409
 20
120.28300748772079
 30
0.0
 11
324.44711063485778
 21
120.28300748772079
 31
0.0
  0
LINE
  5
15A20
  8
OS
 10
80.447110634857836
 20
124.28300748772079
 30
0.0
 11
197.447046085409
 21
124.28300748772079
 31
0.0
  0
LINE
  5
15A21
  8
OS
 10
250.447046085409
 20
124.28300748772079
 30
0.0
 11
324.44711063485778
 21
124.28300748772079
 31
0.0
  0
LINE
  5
15A25
  8
KI2
 10
238.4470460854775
 20
126.0711938844105
 30
0.0
 11
240.9470460854775
 21
124.5711938844105
 31
0.0
  0
LINE
  5
15A26
  8
KI2
 10
238.4470460854775
 20
129.78300748772091
 30
0.0
 11
238.4470460854775
 21
126.0711938844105
 31
0.0
  0
LINE
  5
15A27
  8
KI2
 10
242.9470460854775
 20
123.0711938844105
 30
0.0
 11
241.9470460854775
 21
123.0711938844105
 31
0.0
  0
LINE
  5
15A28
  8
KI2
 10
240.9470460854775
 20
123.0711938844105
 30
0.0
 11
241.9470460854775
 21
123.0711938844105
 31
0.0
  0
LINE
  5
15A29
  8
KI2
 10
245.4470460854775
 20
126.0711938844105
 30
0.0
 11
242.9470460854775
 21
124.5711938844105
 31
0.0
  0
LINE
  5
15A2A
  8
KI2
 10
245.4470460854775
 20
129.78300748772091
 30
0.0
 11
245.4470460854775
 21
126.0711938844105
 31
0.0
  0
LINE
  5
15A2B
  8
KI2
 10
242.9470460854775
 20
129.78300748772091
 30
0.0
 11
242.9470460854775
 21
123.0711938844105
 31
0.0
  0
LINE
  5
15A2C
  8
KI2
 10
240.9470460854775
 20
129.78300748772091
 30
0.0
 11
240.9470460854775
 21
123.0711938844105
 31
0.0
  0
LINE
  5
15A2D
  8
KI2
 10
226.94704608547841
 20
129.78300748772079
 30
0.0
 11
256.94704608547841
 21
129.78300748772091
 31
0.0
  0
LINE
  5
15A2E
  8
KI1
 10
225.44704608547841
 20
131.28300748772079
 30
0.0
 11
258.447046085409
 21
131.28300748772079
 31
0.0
  0
ARC
  5
15A2F
  8
KI2
 10
226.94704608547841
 20
131.28300748772079
 30
0.0
 40
1.5
 50
180.0
 51
270.0
  0
ARC
  5
15A30
  8
KI2
 10
256.94704608547841
 20
131.28300748772079
 30
0.0
 40
1.5
 50
270.0
 51
0.0
  0
LINE
  5
15A31
  8
KI1
 10
225.447046085409
 20
244.28300748772091
 30
0.0
 11
225.447046085409
 21
131.28300748772079
 31
0.0
  0
LINE
  5
15A32
  8
KI1
 10
258.447046085409
 20
244.28300748772091
 30
0.0
 11
258.447046085409
 21
131.28300748772079
 31
0.0
  0
LINE
  5
15A33
  8
OS
 10
250.447046085409
 20
124.28300748772079
 30
0.0
 11
250.447046085409
 21
112.28300748772079
 31
0.0
  0
LINE
  5
15A34
  8
KI2
 10
202.4470460854775
 20
126.0711938844105
 30
0.0
 11
204.9470460854775
 21
124.5711938844105
 31
0.0
  0
LINE
  5
15A35
  8
KI2
 10
202.4470460854775
 20
129.78300748772091
 30
0.0
 11
202.4470460854775
 21
126.0711938844105
 31
0.0
  0
LINE
  5
15A36
  8
KI2
 10
206.9470460854775
 20
123.0711938844105
 30
0.0
 11
205.9470460854775
 21
123.0711938844105
 31
0.0
  0
LINE
  5
15A37
  8
KI2
 10
204.9470460854775
 20
123.0711938844105
 30
0.0
 11
205.9470460854775
 21
123.0711938844105
 31
0.0
  0
LINE
  5
15A38
  8
KI2
 10
209.4470460854775
 20
126.0711938844105
 30
0.0
 11
206.9470460854775
 21
124.5711938844105
 31
0.0
  0
LINE
  5
15A39
  8
KI2
 10
209.4470460854775
 20
129.78300748772091
 30
0.0
 11
209.4470460854775
 21
126.0711938844105
 31
0.0
  0
LINE
  5
15A3A
  8
KI2
 10
206.9470460854775
 20
129.78300748772091
 30
0.0
 11
206.9470460854775
 21
123.0711938844105
 31
0.0
  0
LINE
  5
15A3B
  8
KI2
 10
204.9470460854775
 20
129.78300748772091
 30
0.0
 11
204.9470460854775
 21
123.0711938844105
 31
0.0
  0
LINE
  5
15A3C
  8
KI2
 10
190.94704608547841
 20
129.78300748772079
 30
0.0
 11
220.94704608547841
 21
129.78300748772091
 31
0.0
  0
LINE
  5
15A3D
  8
KI1
 10
189.44704608547841
 20
131.28300748772079
 30
0.0
 11
222.44704608540911
 21
131.28300748772079
 31
0.0
  0
ARC
  5
15A3E
  8
KI2
 10
190.94704608547841
 20
131.28300748772079
 30
0.0
 40
1.5
 50
180.0
 51
270.0
  0
ARC
  5
15A3F
  8
KI2
 10
220.94704608547841
 20
131.28300748772079
 30
0.0
 40
1.5
 50
270.0
 51
0.0
  0
LINE
  5
15A40
  8
KI1
 10
189.447046085409
 20
244.28300748772091
 30
0.0
 11
189.447046085409
 21
131.28300748772079
 31
0.0
  0
LINE
  5
15A41
  8
KI1
 10
222.44704608540911
 20
244.28300748772091
 30
0.0
 11
222.44704608540911
 21
131.28300748772079
 31
0.0
  0
LINE
  5
15A42
  8
OS
 10
197.447046085409
 20
124.28300748772079
 30
0.0
 11
197.447046085409
 21
112.28300748772079
 31
0.0
  0
LINE
  5
15A5F
  8
OS
 10
562.31596980819381
 20
367.48474779943513
 30
0.0
 11
516.3159673596648
 21
321.48467815573758
 31
0.0
  0
LINE
  5
15A60
  8
OS
 10
516.3159673596648
 20
239.9847477994351
 30
0.0
 11
562.31596980819381
 21
239.9847477994351
 31
0.0
  0
LINE
  5
15A61
  8
OS
 10
516.3159673596648
 20
237.9847477994351
 30
0.0
 11
574.81596980819381
 21
237.9847477994351
 31
0.0
  0
LINE
  5
15A62
  8
OS
 10
516.3159673596648
 20
231.9847477994351
 30
0.0
 11
580.8159698081937
 21
231.9847477994351
 31
0.0
  0
LINE
  5
15A63
  8
OS
 10
516.3159673596648
 20
308.48492125943608
 30
0.0
 11
562.31596980819381
 21
262.48474779943513
 31
0.0
  0
LINE
  5
15A64
  8
OS
 10
516.3159673596648
 20
248.4847477994351
 30
0.0
 11
562.31596980819381
 21
248.4847477994351
 31
0.0
  0
LINE
  5
15A65
  8
OS
 10
516.3159673596648
 20
250.4847477994351
 30
0.0
 11
562.31596980820188
 21
250.4847477994351
 31
0.0
  0
LINE
  5
15A66
  8
OS
 10
516.3159673596648
 20
262.48474779943513
 30
0.0
 11
562.31596980820188
 21
262.48474779943513
 31
0.0
  0
LINE
  5
15A67
  8
OS
 10
516.3159673596648
 20
389.98474779943513
 30
0.0
 11
741.31596980819324
 21
389.98474779943513
 31
0.0
  0
LINE
  5
15A68
  8
OS
 10
516.3159673596648
 20
391.98474779943518
 30
0.0
 11
753.81596980819347
 21
391.98474779943518
 31
0.0
  0
LINE
  5
15A69
  8
OS
 10
516.3159673596648
 20
397.98474779943518
 30
0.0
 11
759.81596980819359
 21
397.98474779943518
 31
0.0
  0
LINE
  5
15A6A
  8
OS
 10
516.3159673596648
 20
381.48474779943513
 30
0.0
 11
741.31596980819324
 21
381.48474779943518
 31
0.0
  0
LINE
  5
15A6B
  8
OS
 10
516.3159673596648
 20
379.48474779943513
 30
0.0
 11
741.31596980819324
 21
379.48474779943513
 31
0.0
  0
LINE
  5
15A6C
  8
OS
 10
516.3159673596648
 20
367.48474779943513
 30
0.0
 11
562.31596980819381
 21
367.48474779943513
 31
0.0
  0
LINE
  5
15A6D
  8
OS
 10
562.31596980819381
 20
349.48474779943513
 30
0.0
 11
741.31596980819324
 21
349.48474779943513
 31
0.0
  0
LINE
  5
15A6E
  8
OS
 10
562.31596980819381
 20
336.98474779943501
 30
0.0
 11
753.81596980819347
 21
336.98474779943513
 31
0.0
  0
LINE
  5
15A6F
  8
OS
 10
580.8159698081937
 20
330.98474779943501
 30
0.0
 11
759.81596980819359
 21
330.98474779943513
 31
0.0
  0
LINE
  5
15A70
  8
OS
 10
562.31596980819381
 20
379.48474779943513
 30
0.0
 11
562.31596980819381
 21
237.9847477994351
 31
0.0
  0
LINE
  5
15A71
  8
OS
 10
564.3159698081937
 20
336.9847497994366
 30
0.0
 11
564.3159698081937
 21
237.9847477994351
 31
0.0
  0
LINE
  5
15A72
  8
OS
 10
574.81596980819381
 20
336.98474779943501
 30
0.0
 11
574.81596980819381
 21
237.9847477994351
 31
0.0
  0
LINE
  5
15A73
  8
OS
 10
572.8159698081937
 20
336.98474779943501
 30
0.0
 11
572.8159698081937
 21
237.9847477994351
 31
0.0
  0
LINE
  5
15A74
  8
OS
 10
580.8159698081937
 20
330.98474779943501
 30
0.0
 11
580.8159698081937
 21
231.9847477994351
 31
0.0
  0
LINE
  5
15A75
  8
OS
 10
592.31596980819381
 20
379.48474779943513
 30
0.0
 11
592.31596980819381
 21
349.48474779943501
 31
0.0
  0
LINE
  5
15A76
  8
OS
 10
592.31596980819381
 20
349.48474779943513
 30
0.0
 11
562.31596980819381
 21
379.48474779943513
 31
0.0
  0
LINE
  5
15A77
  8
OS
 10
711.31596980819336
 20
379.48474779943513
 30
0.0
 11
711.31596980819336
 21
349.48474779943501
 31
0.0
  0
LINE
  5
15A78
  8
OS
 10
711.31596980819336
 20
379.48474779943513
 30
0.0
 11
741.31596980819324
 21
349.48474779943513
 31
0.0
  0
LINE
  5
15A79
  8
OS
 10
562.31596980819381
 20
347.4847477994349
 30
0.0
 11
741.31596980819324
 21
347.48474779943501
 31
0.0
  0
LINE
  5
15A7A
  8
OS
 10
562.31596980819381
 20
338.98474779943513
 30
0.0
 11
741.31596980819324
 21
338.98474779943513
 31
0.0
  0
LINE
  5
15A7B
  8
OS
 10
753.81596980819347
 20
336.98474779943513
 30
0.0
 11
753.81596980819347
 21
391.98474779943518
 31
0.0
  0
LINE
  5
15A7C
  8
OS
 10
759.81596980819359
 20
330.98474779943513
 30
0.0
 11
759.81596980819359
 21
397.98474779943518
 31
0.0
  0
LINE
  5
15A7D
  8
OS
 10
751.81596980819359
 20
336.98474779943513
 30
0.0
 11
751.81596980819359
 21
391.98474779943518
 31
0.0
  0
LINE
  5
15A7E
  8
OS
 10
741.31596980819324
 20
336.98474779943513
 30
0.0
 11
741.31596980819324
 21
391.98474779943518
 31
0.0
  0
LINE
  5
15A7F
  8
OS
 10
743.31596980819324
 20
336.98474779943513
 30
0.0
 11
743.31596980819324
 21
391.98474779943518
 31
0.0
  0
TEXT
  5
15A81
  8
SU
 10
689.84822573607403
 20
415.86158451676721
 30
0.0
 40
7.9999999999999982
  1
巾木
 41
0.9
  0
LINE
  5
15A8D
  8
OS
 10
190.6969815359603
 20
664.10574354355197
 30
0.0
 11
80.447110634857836
 21
664.10574354355197
 31
0.0
  0
LINE
  5
15A8E
  8
OS
 10
190.6969815359603
 20
673.60574354355185
 30
0.0
 11
80.447110634857836
 21
673.60574354355185
 31
0.0
  0
LINE
  5
15A8F
  8
OS
 10
271.44704169456833
 20
748.60574354355185
 30
0.0
 11
271.44704169456833
 21
673.60574354355185
 31
0.0
  0
LINE
  5
15A90
  8
OS
 10
166.44704169456821
 20
748.60574354355185
 30
0.0
 11
166.44704169456821
 21
673.60574354355185
 31
0.0
  0
LINE
  5
15A91
  8
OS
 10
324.44711063485778
 20
671.60574354355197
 30
0.0
 11
257.19698153595982
 21
671.60574354355185
 31
0.0
  0
LINE
  5
15A92
  8
OS
 10
190.6969815359603
 20
671.60574354355185
 30
0.0
 11
80.447110634857836
 21
671.60574354355185
 31
0.0
  0
LINE
  5
15A93
  8
OS
 10
324.44711063485778
 20
666.10574354355208
 30
0.0
 11
257.19698153595982
 21
666.10574354355197
 31
0.0
  0
LINE
  5
15A94
  8
OS
 10
190.6969815359603
 20
666.10574354355197
 30
0.0
 11
80.447110634857836
 21
666.10574354355197
 31
0.0
  0
LINE
  5
15A95
  8
OS
 10
121.4471574509666
 20
718.60574354355185
 30
0.0
 11
121.4471574509666
 21
673.60574354355185
 31
0.0
  0
LINE
  5
15A96
  8
OS
 10
121.4471574509666
 20
718.60574354355185
 30
0.0
 11
166.44704169456821
 21
718.60574354355185
 31
0.0
  0
LINE
  5
15A97
  8
OS
 10
121.4471574509666
 20
673.60574354355185
 30
0.0
 11
166.44704169456821
 21
718.60574354355185
 31
0.0
  0
LINE
  5
15A98
  8
OS
 10
316.44544045182153
 20
718.60821927559493
 30
0.0
 11
316.44658310944942
 21
673.60821929010217
 31
0.0
  0
LINE
  5
15A99
  8
OS
 10
316.44544045182153
 20
718.60821927559493
 30
0.0
 11
271.44555622272668
 21
718.60707662090624
 31
0.0
  0
LINE
  5
15A9A
  8
OS
 10
271.44704169456833
 20
673.60574354355185
 30
0.0
 11
316.44544045182153
 21
718.60821927559493
 31
0.0
  0
LINE
  5
15A9B
  8
OS
 10
324.44711063485778
 20
664.10574354355219
 30
0.0
 11
257.19698153595982
 21
664.10574354355197
 31
0.0
  0
LINE
  5
15A9C
  8
OS
 10
324.44711063485778
 20
673.60574354355208
 30
0.0
 11
257.19698153595982
 21
673.60574354355185
 31
0.0
  0
LINE
  5
15A9E
  8
OS
 10
190.6969815359603
 20
664.10574354355197
 30
0.0
 11
257.19698153595982
 21
673.60574354355185
 31
0.0
  0
LINE
  5
15A9F
  8
OS
 10
279.447046085409
 20
664.10574354355197
 30
0.0
 11
279.447046085409
 21
590.10574394563002
 31
0.0
  0
LINE
  5
15AA0
  8
OS
 10
279.447046085409
 20
575.10574394563002
 30
0.0
 11
279.447046085409
 21
388.10574394672591
 31
0.0
  0
LINE
  5
15AA1
  8
OS
 10
125.447046085409
 20
664.10574354355197
 30
0.0
 11
125.447046085409
 21
388.10574394672591
 31
0.0
  0
LINE
  5
15AA2
  8
OS
 10
180.447046085409
 20
664.10574354355197
 30
0.0
 11
180.447046085409
 21
388.10574394672591
 31
0.0
  0
LINE
  5
15AA3
  8
OS
 10
189.447046085409
 20
388.10574394672591
 30
0.0
 11
119.4470460854095
 21
388.10574394672591
 31
0.0
  0
LINE
  5
15AA4
  8
TS
 10
180.447046085409
 20
388.10574394672591
 30
0.0
 11
180.447046085409
 21
328.10574394672591
 31
0.0
  0
LINE
  5
15AA5
  8
OS
 10
186.44704608540951
 20
388.10574394672591
 30
0.0
 11
186.447046085409
 21
328.10574394672591
 31
0.0
  0
LINE
  5
15AA6
  8
TS
 10
125.447046085409
 20
388.10574394672591
 30
0.0
 11
125.447046085409
 21
328.10574394672591
 31
0.0
  0
LINE
  5
15AA7
  8
OS
 10
119.447046085409
 20
388.10574394672591
 30
0.0
 11
119.447046085409
 21
328.10574394672591
 31
0.0
  0
TEXT
  5
15AA9
  8
SU
 10
88.488143616214529
 20
386.48318990815261
 30
0.0
 40
7.9999999999999956
  1
巾木
 41
0.9
  0
LINE
  5
15AAA
  8
OS
 10
285.447046085409
 20
388.1057439467258
 30
0.0
 11
258.447046085409
 21
388.1057439467258
 31
0.0
  0
LINE
  5
15AAB
  8
TS
 10
279.447046085409
 20
388.1057439467258
 30
0.0
 11
279.447046085409
 21
328.10574394672591
 31
0.0
  0
LINE
  5
15AAC
  8
OS
 10
285.447046085409
 20
388.1057439467258
 30
0.0
 11
285.447046085409
 21
328.10574394672591
 31
0.0
  0
LINE
  5
15AB0
  8
OS
 10
279.447046085409
 20
244.28300748772091
 30
0.0
 11
279.447046085409
 21
184.28300748772079
 31
0.0
  0
LINE
  5
15AB1
  8
OS
 10
125.447046085409
 20
244.28300748772091
 30
0.0
 11
125.447046085409
 21
184.28300748772079
 31
0.0
  0
LINE
  5
15AB2
  8
OS
 10
180.447046085409
 20
244.28300748772091
 30
0.0
 11
180.447046085409
 21
184.28300748772079
 31
0.0
  0
LINE
  5
15AB3
  8
OS
 10
189.447046085409
 20
184.28300748772079
 30
0.0
 11
119.4470460854095
 21
184.28300748772079
 31
0.0
  0
LINE
  5
15AB4
  8
TS
 10
180.447046085409
 20
184.28300748772079
 30
0.0
 11
180.447046085409
 21
124.28300748772089
 31
0.0
  0
LINE
  5
15AB5
  8
OS
 10
186.44704608540951
 20
184.28300748772079
 30
0.0
 11
186.447046085409
 21
124.28300748772089
 31
0.0
  0
LINE
  5
15AB6
  8
TS
 10
125.447046085409
 20
184.28300748772079
 30
0.0
 11
125.447046085409
 21
124.28300748772089
 31
0.0
  0
LINE
  5
15AB7
  8
OS
 10
119.447046085409
 20
184.28300748772079
 30
0.0
 11
119.447046085409
 21
124.28300748772089
 31
0.0
  0
TEXT
  5
15AB9
  8
SU
 10
88.488143616214529
 20
182.6604534491475
 30
0.0
 40
7.9999999999999956
  1
巾木
 41
0.9
  0
LINE
  5
15ABA
  8
OS
 10
285.447046085409
 20
184.28300748772079
 30
0.0
 11
258.447046085409
 21
184.28300748772079
 31
0.0
  0
LINE
  5
15ABB
  8
TS
 10
279.447046085409
 20
184.28300748772079
 30
0.0
 11
279.447046085409
 21
124.28300748772079
 31
0.0
  0
LINE
  5
15ABC
  8
OS
 10
285.447046085409
 20
184.28300748772079
 30
0.0
 11
285.447046085409
 21
124.28300748772079
 31
0.0
  0
LINE
  5
15ABD
  8
OS
 10
241.4467628725674
 20
748.60574354355185
 30
0.0
 11
166.44704169456821
 21
673.60574354355185
 31
0.0
  0
LINE
  5
15AC4
  8
KI2
 10
242.9470460854775
 20
330.11057788732762
 30
0.0
 11
241.9470460854775
 21
330.11057788732762
 31
0.0
  0
LINE
  5
15AC5
  8
KI2
 10
240.9470460854775
 20
330.11057788732762
 30
0.0
 11
241.9470460854775
 21
330.11057788732762
 31
0.0
  0
LINE
  5
15AC6
  8
KI1
 10
212.4970660854062
 20
126.88300739639089
 30
0.0
 11
235.3970660854072
 21
126.88300739639089
 31
0.0
  0
LINE
  5
15AC7
  8
KI1
 10
213.69706608540611
 20
125.5830073963907
 30
0.0
 11
234.19706608540741
 21
125.5830073963907
 31
0.0
  0
LINE
  5
15AC8
  8
KI1
 10
187.9470660854069
 20
125.18300739639059
 30
0.0
 11
191.94706608540741
 21
126.88300739639089
 31
0.0
  0
LINE
  5
15AC9
  8
KI1
 10
192.2118552566692
 20
125.5830073963907
 30
0.0
 11
189.1530317272593
 21
124.2830073963905
 31
0.0
  0
LINE
  5
15ACA
  8
KI1
 10
187.9470660854069
 20
124.2830073963905
 30
0.0
 11
187.9470660854069
 21
125.18300739639059
 31
0.0
  0
LINE
  5
15ACB
  8
KI1
 10
187.9470660854069
 20
124.2830073963905
 30
0.0
 11
189.1530317272593
 21
124.2830073963905
 31
0.0
  0
LINE
  5
15ACC
  8
KI1
 10
195.4470660854083
 20
125.5830073963907
 30
0.0
 11
198.19706608540741
 21
125.5830073963907
 31
0.0
  0
ARC
  5
15ACD
  8
KI1
 10
194.9470660854083
 20
124.5830073963907
 30
0.0
 40
0.5000000000000142
 50
180.0
 51
0.0
  0
LINE
  5
15ACE
  8
KI1
 10
194.4470660854083
 20
124.5830073963907
 30
0.0
 11
194.44706608540741
 21
125.5830073963907
 31
0.0
  0
LINE
  5
15ACF
  8
KI1
 10
195.4470660854083
 20
125.5830073963907
 30
0.0
 11
195.4470660854083
 21
124.5830073963907
 31
0.0
  0
ARC
  5
15AD0
  8
KI1
 10
200.44706608540741
 20
125.5830073963907
 30
0.0
 40
0.5000000000000142
 50
0.0
 51
90.0
  0
ARC
  5
15AD1
  8
KI1
 10
198.69706608540741
 20
125.38300739639089
 30
0.0
 40
0.5000000000000142
 50
180.0
 51
270.0
  0
LINE
  5
15AD2
  8
KI1
 10
198.19706608540741
 20
125.5830073963907
 30
0.0
 11
198.19706608540741
 21
125.38300739639089
 31
0.0
  0
LINE
  5
15AD3
  8
KI1
 10
198.69706608540741
 20
124.8830073963904
 30
0.0
 11
199.74706608540711
 21
124.8830073963904
 31
0.0
  0
LINE
  5
15AD4
  8
KI1
 10
199.3970660854072
 20
126.0830073963907
 30
0.0
 11
199.3970660854072
 21
126.88300739639089
 31
0.0
  0
LINE
  5
15AD5
  8
KI1
 10
200.44706608540741
 20
126.0830073963907
 30
0.0
 11
199.3970660854072
 21
126.0830073963907
 31
0.0
  0
LINE
  5
15AD6
  8
KI1
 10
191.94706608540741
 20
126.88300739639089
 30
0.0
 11
199.3970660854072
 21
126.88300739639089
 31
0.0
  0
LINE
  5
15AD7
  8
KI1
 10
192.2118552566692
 20
125.5830073963907
 30
0.0
 11
194.44706608540741
 21
125.5830073963907
 31
0.0
  0
ARC
  5
15AD8
  8
KI1
 10
211.44706608540741
 20
125.5830073963907
 30
0.0
 40
0.5000000000000993
 50
90.0
 51
180.0
  0
ARC
  5
15AD9
  8
KI1
 10
213.1970660854065
 20
125.38300739639089
 30
0.0
 40
0.5000000000000993
 50
270.0
 51
0.0
  0
LINE
  5
15ADA
  8
KI1
 10
212.1470660854072
 20
124.8830073963904
 30
0.0
 11
213.1970660854065
 21
124.8830073963904
 31
0.0
  0
LINE
  5
15ADB
  8
KI1
 10
213.69706608540611
 20
125.38300739639089
 30
0.0
 11
213.69706608540611
 21
125.5830073963907
 31
0.0
  0
LINE
  5
15ADC
  8
KI1
 10
212.4970660854062
 20
126.88300739639089
 30
0.0
 11
212.4970660854062
 21
126.0830073963907
 31
0.0
  0
LINE
  5
15ADD
  8
KI1
 10
212.4970660854062
 20
126.0830073963907
 30
0.0
 11
211.44706608540741
 21
126.0830073963907
 31
0.0
  0
LINE
  5
15ADE
  8
KI1
 10
255.6822769141443
 20
125.5830073963907
 30
0.0
 11
258.74110044355638
 21
124.2830073963905
 31
0.0
  0
ARC
  5
15ADF
  8
KI1
 10
236.44706608540741
 20
125.5830073963907
 30
0.0
 40
0.5000000000000142
 50
0.0
 51
90.0
  0
ARC
  5
15AE0
  8
KI1
 10
234.69706608540741
 20
125.38300739639089
 30
0.0
 40
0.5000000000000142
 50
180.0
 51
270.0
  0
LINE
  5
15AE1
  8
KI1
 10
234.19706608540741
 20
125.5830073963907
 30
0.0
 11
234.19706608540741
 21
125.38300739639089
 31
0.0
  0
LINE
  5
15AE2
  8
KI1
 10
234.69706608540741
 20
124.8830073963904
 30
0.0
 11
235.7470660854072
 21
124.8830073963904
 31
0.0
  0
LINE
  5
15AE3
  8
KI1
 10
235.3970660854072
 20
126.0830073963907
 30
0.0
 11
235.3970660854072
 21
126.88300739639089
 31
0.0
  0
LINE
  5
15AE4
  8
KI1
 10
236.44706608540741
 20
126.0830073963907
 30
0.0
 11
235.3970660854072
 21
126.0830073963907
 31
0.0
  0
LINE
  5
15AE5
  8
KI1
 10
253.44706608540741
 20
125.5830073963907
 30
0.0
 11
255.6822769141443
 21
125.5830073963907
 31
0.0
  0
LINE
  5
15AE6
  8
KI1
 10
253.44706608540741
 20
124.5830073963907
 30
0.0
 11
253.44706608540741
 21
125.5830073963907
 31
0.0
  0
LINE
  5
15AE7
  8
KI1
 10
252.44706608540699
 20
125.5830073963907
 30
0.0
 11
252.44706608540699
 21
124.5830073963907
 31
0.0
  0
ARC
  5
15AE8
  8
KI1
 10
252.94706608540741
 20
124.5830073963907
 30
0.0
 40
0.4999999999999716
 50
180.0
 51
0.0
  0
LINE
  5
15AE9
  8
KI1
 10
248.4970660854062
 20
126.88300739639089
 30
0.0
 11
255.94706608540741
 21
126.88300739639089
 31
0.0
  0
ARC
  5
15AEA
  8
KI1
 10
247.44706608540741
 20
125.5830073963907
 30
0.0
 40
0.5000000000000993
 50
90.0
 51
180.0
  0
LINE
  5
15AEB
  8
KI1
 10
248.1470660854072
 20
124.8830073963904
 30
0.0
 11
249.1970660854065
 21
124.8830073963904
 31
0.0
  0
ARC
  5
15AEC
  8
KI1
 10
249.1970660854065
 20
125.38300739639089
 30
0.0
 40
0.5000000000000993
 50
270.0
 51
0.0
  0
LINE
  5
15AED
  8
KI1
 10
249.69706608540599
 20
125.38300739639089
 30
0.0
 11
249.69706608540599
 21
125.5830073963907
 31
0.0
  0
LINE
  5
15AEE
  8
KI1
 10
248.4970660854062
 20
126.88300739639089
 30
0.0
 11
248.4970660854062
 21
126.0830073963907
 31
0.0
  0
LINE
  5
15AEF
  8
KI1
 10
248.4970660854062
 20
126.0830073963907
 30
0.0
 11
247.44706608540741
 21
126.0830073963907
 31
0.0
  0
LINE
  5
15AF1
  8
KI1
 10
249.69706608540599
 20
125.5830073963907
 30
0.0
 11
252.44706608540699
 21
125.5830073963907
 31
0.0
  0
LINE
  5
15AF2
  8
KI1
 10
246.94706608540741
 20
114.18300739639059
 30
0.0
 11
246.94706608540741
 21
119.98321446736141
 31
0.0
  0
LINE
  5
15AF3
  8
KI1
 10
236.94706608540741
 20
114.18300739639059
 30
0.0
 11
236.94706608540741
 21
119.98321446736141
 31
0.0
  0
LINE
  5
15AF4
  8
KI1
 10
235.7470660854072
 20
112.98300739639031
 30
0.0
 11
235.7470660854072
 21
124.8830073963904
 31
0.0
  0
LINE
  5
15AF6
  8
KI1
 10
248.1470660854072
 20
112.98300739639031
 30
0.0
 11
248.1470660854072
 21
124.8830073963904
 31
0.0
  0
LINE
  5
15AF7
  8
KI1
 10
242.40532365490321
 20
114.18300739639059
 30
0.0
 11
246.94706608540741
 21
114.18300739639059
 31
0.0
  0
LINE
  5
15AF8
  8
KI1
 10
236.54706608540781
 20
112.98300739639031
 30
0.0
 11
247.34706608540839
 21
112.98300739639031
 31
0.0
  0
ARC
  5
15AF9
  8
KI1
 10
241.94706608540699
 20
114.3830073963904
 30
0.0
 40
0.4999999999992742
 50
203.57817847820709
 51
336.42182152183841
  0
ARC
  5
15AFA
  8
KI1
 10
236.1470660854072
 20
112.98300739639031
 30
0.0
 40
0.3999999999998492
 50
180.0
 51
0.0
  0
LINE
  5
15AFB
  8
KI1
 10
236.94706608540741
 20
114.18300739639059
 30
0.0
 11
241.4888085159121
 21
114.18300739639059
 31
0.0
  0
ARC
  5
15AFC
  8
KI1
 10
247.74706608540711
 20
112.98300739639031
 30
0.0
 40
0.39999999999921
 50
180.0
 51
0.0
  0
ARC
  5
15AFD
  8
KI1
 10
236.84706609335919
 20
120.4731124175419
 30
0.0
 40
0.5000000000002347
 50
281.53695810277611
 51
0.0102186204097569
  0
LINE
  5
15AFE
  8
KI1
 10
236.94706608540741
 20
121.1730073963908
 30
0.0
 11
237.34706608540711
 21
120.47320159182659
 31
0.0
  0
LINE
  5
15AFF
  8
KI1
 10
236.94706608540741
 20
121.1730073963908
 30
0.0
 11
236.94706608540741
 21
125.5830073963907
 31
0.0
  0
ARC
  5
15B00
  8
KI1
 10
247.04706607745419
 20
120.4731124175419
 30
0.0
 40
0.5000000000001135
 50
179.9897813795902
 51
258.46304189731683
  0
LINE
  5
15B01
  8
KI1
 10
246.54706608540641
 20
120.47320159182659
 30
0.0
 11
246.94706608540741
 21
121.1730073963908
 31
0.0
  0
LINE
  5
15B02
  8
KI1
 10
246.94706608540741
 20
121.1730073963908
 30
0.0
 11
246.94706608540741
 21
125.5830073963907
 31
0.0
  0
LINE
  5
15B03
  8
KI1
 10
200.54706608540729
 20
112.98300739639031
 30
0.0
 11
211.34706608540839
 21
112.98300739639031
 31
0.0
  0
LINE
  5
15B04
  8
KI1
 10
200.94706608540741
 20
114.18300739639059
 30
0.0
 11
205.4888085159121
 21
114.18300739639059
 31
0.0
  0
LINE
  5
15B05
  8
KI1
 10
200.94706608540741
 20
114.18300739639059
 30
0.0
 11
200.94706608540611
 21
119.98321446736141
 31
0.0
  0
LINE
  5
15B07
  8
KI1
 10
199.74706608540711
 20
112.98300739639031
 30
0.0
 11
199.74706608540711
 21
124.8830073963904
 31
0.0
  0
ARC
  5
15B08
  8
KI1
 10
200.1470660854072
 20
112.98300739639031
 30
0.0
 40
0.3999999999998492
 50
180.0
 51
0.0
  0
ARC
  5
15B09
  8
KI1
 10
200.84706609335919
 20
120.4731124175419
 30
0.0
 40
0.500000000000056
 50
281.53695810268317
 51
0.0102186204097569
  0
LINE
  5
15B0A
  8
KI1
 10
200.94706608540611
 20
121.1730073963908
 30
0.0
 11
201.34706608540699
 21
120.47320159182659
 31
0.0
  0
LINE
  5
15B0B
  8
KI1
 10
200.94706608540611
 20
121.1730073963908
 30
0.0
 11
200.94706608540741
 21
125.5830073963907
 31
0.0
  0
LINE
  5
15B0C
  8
KI1
 10
210.94706608540741
 20
114.18300739639059
 30
0.0
 11
210.94706608540741
 21
119.98321446736141
 31
0.0
  0
LINE
  5
15B0D
  8
KI1
 10
212.1470660854072
 20
112.98300739639031
 30
0.0
 11
212.1470660854072
 21
124.8830073963904
 31
0.0
  0
LINE
  5
15B0E
  8
KI1
 10
206.40532365490321
 20
114.18300739639059
 30
0.0
 11
210.94706608540741
 21
114.18300739639059
 31
0.0
  0
ARC
  5
15B0F
  8
KI1
 10
205.94706608540699
 20
114.3830073963904
 30
0.0
 40
0.4999999999992742
 50
203.57817847820709
 51
336.42182152183841
  0
ARC
  5
15B10
  8
KI1
 10
211.74706608540711
 20
112.98300739639031
 30
0.0
 40
0.39999999999921
 50
180.0
 51
0.0
  0
ARC
  5
15B11
  8
KI1
 10
211.04706607745419
 20
120.4731124175419
 30
0.0
 40
0.5000000000001135
 50
179.9897813795902
 51
258.46304189731683
  0
LINE
  5
15B12
  8
KI1
 10
210.54706608540641
 20
120.47320159182659
 30
0.0
 11
210.94706608540741
 21
121.1730073963908
 31
0.0
  0
LINE
  5
15B13
  8
KI1
 10
210.94706608540741
 20
121.1730073963908
 30
0.0
 11
210.94706608540741
 21
125.5830073963907
 31
0.0
  0
LINE
  5
15B14
  8
KI1
 10
259.94706608540702
 20
125.18300739639059
 30
0.0
 11
259.94706608540702
 21
124.2830073963905
 31
0.0
  0
LINE
  5
15B15
  8
KI1
 10
258.74110044355638
 20
124.2830073963905
 30
0.0
 11
259.94706608540702
 21
124.2830073963905
 31
0.0
  0
LINE
  5
15B16
  8
KI1
 10
255.94706608540741
 20
126.88300739639089
 30
0.0
 11
259.94706608540702
 21
125.18300739639059
 31
0.0
  0
LINE
  5
15B24
  8
OS
 10
225.447046085409
 20
388.10574394672591
 30
0.0
 11
222.44704608540911
 21
388.10574394672591
 31
0.0
  0
LINE
  5
15B25
  8
OS
 10
225.447046085409
 20
184.28300748772079
 30
0.0
 11
222.44704608540911
 21
184.28300748772079
 31
0.0
  0
ARC
  5
16312
  8
KI1
 10
201.27250179423709
 20
331.40573902738771
 30
0.0
 40
0.5
 50
90.0
 51
130.40000551602071
  0
LINE
  5
16313
  8
KI1
 10
202.34705102831461
 20
333.10573902738793
 30
0.0
 11
200.6470234888516
 21
333.10573902738793
 31
0.0
  0
LINE
  5
16314
  8
KI1
 10
197.1470460854093
 20
328.55126617303608
 30
0.0
 11
197.1470460854093
 21
328.10574394672608
 31
0.0
  0
LINE
  5
16315
  8
KI1
 10
195.947046085409
 20
329.10574394672699
 30
0.0
 11
195.947046085409
 21
328.10574394672608
 31
0.0
  0
LINE
  5
16316
  8
KI1
 10
197.1470460854093
 20
328.10574394672608
 30
0.0
 11
195.947046085409
 21
328.10574394672608
 31
0.0
  0
LINE
  5
16317
  8
KI1
 10
200.94844180704879
 20
331.7865081499578
 30
0.0
 11
197.1470460854093
 21
328.55126617303608
 31
0.0
  0
LINE
  5
16318
  8
KI1
 10
200.6470234888516
 20
333.10573902738793
 30
0.0
 11
195.947046085409
 21
329.10574394672699
 31
0.0
  0
LINE
  5
16319
  8
KI1
 10
236.6932018262205
 20
328.10574394672608
 30
0.0
 11
223.94704608540911
 21
328.10574394672608
 31
0.0
  0
LINE
  5
1631A
  8
KI1
 10
229.1470460854093
 20
331.60574400564218
 30
0.0
 11
234.8470525232633
 21
331.60574400564218
 31
0.0
  0
LINE
  5
1631B
  8
KI1
 10
237.1470425549733
 20
332.80573652058609
 30
0.0
 11
210.74704961584581
 21
332.80573652058609
 31
0.0
  0
LINE
  5
1631C
  8
KI1
 10
224.22988479977769
 20
329.30573646167181
 30
0.0
 11
236.5470434843464
 21
329.30573646167181
 31
0.0
  0
LINE
  5
1631D
  8
KI1
 10
228.24704608540921
 20
331.60574400564218
 30
0.0
 11
228.24704608540921
 21
330.05573652058609
 31
0.0
  0
ARC
  5
1631E
  8
KI1
 10
228.69704608540911
 20
330.05573652058609
 30
0.0
 40
0.4499999999999992
 50
180.0
 51
0.0
  0
LINE
  5
1631F
  8
KI1
 10
229.1470460854093
 20
331.60574400564218
 30
0.0
 11
229.1470460854093
 21
330.05573652058609
 31
0.0
  0
ARC
  5
16320
  8
KI1
 10
223.94704847153341
 20
329.30573646167181
 30
0.0
 40
0.3
 50
180.0
 51
0.0
  0
ARC
  5
16321
  8
KI1
 10
219.197046085409
 20
330.05573652058609
 30
0.0
 40
0.4499999999999992
 50
180.0
 51
0.0
  0
LINE
  5
16322
  8
KI1
 10
218.74704608540921
 20
331.60574400564218
 30
0.0
 11
218.74704608540921
 21
330.05573652058609
 31
0.0
  0
LINE
  5
16323
  8
KI1
 10
219.6470460854093
 20
331.60574400564218
 30
0.0
 11
219.6470460854093
 21
330.05573652058609
 31
0.0
  0
LINE
  5
16324
  8
KI1
 10
219.6470460854093
 20
331.60574400564218
 30
0.0
 11
228.24704608540921
 21
331.60574400564218
 31
0.0
  0
ARC
  5
16325
  8
KI1
 10
211.20089034459761
 20
329.10574394672608
 30
0.0
 40
1.0
 50
199.72084247195721
 51
270.0
  0
LINE
  5
16326
  8
KI1
 10
210.2595424871358
 20
328.7683062321002
 30
0.0
 11
210.16772001414009
 21
329.0244628040391
 31
0.0
  0
LINE
  5
16327
  8
KI1
 10
209.13454968368231
 20
328.7683062321002
 30
0.0
 11
209.226372156678
 21
329.0244628040391
 31
0.0
  0
ARC
  5
16328
  8
KI1
 10
209.69704608540911
 20
328.85574394672608
 30
0.0
 40
0.5
 50
19.72084247195728
 51
160.2791575280427
  0
ARC
  5
16329
  8
KI1
 10
210.24705367650949
 20
332.80573902738729
 30
0.0
 40
0.3
 50
0.0
 51
90.0
  0
LINE
  5
1632A
  8
KI1
 10
210.24705367650949
 20
333.10573902738793
 30
0.0
 11
209.54704114250441
 21
333.10573902738793
 31
0.0
  0
LINE
  5
1632B
  8
KI1
 10
211.3470486864735
 20
330.60574148705678
 30
0.0
 11
211.3470486864735
 21
329.30573646167181
 31
0.0
  0
LINE
  5
1632C
  8
KI1
 10
211.74704869825649
 20
330.60574148705678
 30
0.0
 11
211.3470486864735
 21
330.60574148705678
 31
0.0
  0
ARC
  5
1632D
  8
KI1
 10
211.74704869825649
 20
330.90574148705701
 30
0.0
 40
0.3
 50
270.0
 51
0.0
  0
LINE
  5
1632E
  8
KI1
 10
212.0470486982563
 20
331.00574400564102
 30
0.0
 11
212.0470486982563
 21
330.90574148705701
 31
0.0
  0
ARC
  5
1632F
  8
KI1
 10
211.4470486982564
 20
331.00574400564102
 30
0.0
 40
0.6
 50
0.0
 51
90.0
  0
LINE
  5
16330
  8
KI1
 10
212.14704963941131
 20
331.60574400564218
 30
0.0
 11
210.54705367650971
 21
331.60574400564218
 31
0.0
  0
LINE
  5
16331
  8
KI1
 10
210.54705367650971
 20
332.80573902738729
 30
0.0
 11
210.54705367650971
 21
331.60574400564218
 31
0.0
  0
LINE
  5
16332
  8
KI1
 10
213.21330103332139
 20
330.1674446719137
 30
0.0
 11
212.93084580991399
 21
330.57294102618312
 31
0.0
  0
LINE
  5
16333
  8
KI1
 10
213.05667138993661
 20
329.6924596744268
 30
0.0
 11
213.1391541292424
 21
329.75019759193918
 31
0.0
  0
LINE
  5
16334
  8
KI1
 10
213.0470571598139
 20
330.97968075083207
 30
0.0
 11
213.0470571598139
 21
331.60574400564218
 31
0.0
  0
LINE
  5
16335
  8
KI1
 10
212.93084580991399
 20
330.57294102618312
 30
0.0
 11
213.0470571598139
 21
330.97968075083207
 31
0.0
  0
LINE
  5
16337
  8
KI1
 10
212.14704963941131
 20
331.60574400564218
 30
0.0
 11
212.14704963941131
 21
331.10573399021968
 31
0.0
  0
LINE
  5
16338
  8
KI1
 10
212.14704963941131
 20
331.10573399021968
 30
0.0
 11
212.01248544221019
 21
330.63472427549573
 31
0.0
  0
LINE
  5
16339
  8
KI1
 10
210.74704961584581
 20
332.80573652058609
 30
0.0
 11
210.74704961584581
 21
331.60574400564218
 31
0.0
  0
LINE
  5
1633A
  8
KI1
 10
212.0836202377632
 20
330.21062990230189
 30
0.0
 11
212.36031392800081
 21
329.8153431949579
 31
0.0
  0
ARC
  5
1633B
  8
KI1
 10
212.9671312103055
 20
329.99598214526048
 30
0.0
 40
0.3000000099360252
 50
304.99198913572991
 51
34.858993530263596
  0
ARC
  5
1633C
  8
KI1
 10
212.76994317536401
 20
330.10208892178912
 30
0.0
 40
0.4999999937576218
 50
214.99197387695901
 51
304.99198913572991
  0
ARC
  5
1633D
  8
KI1
 10
212.49323197286779
 20
330.49735811687492
 30
0.0
 40
0.4999999937576218
 50
164.0549926757796
 51
214.9919891357321
  0
ARC
  5
1633E
  8
KI1
 10
203.6470460854093
 20
329.10574394672699
 30
0.0
 40
1.0
 50
180.0
 51
270.0
  0
LINE
  5
1633F
  8
KI1
 10
202.34704608540909
 20
333.10573902738793
 30
0.0
 11
203.8470460854092
 21
331.84708958062203
 31
0.0
  0
ARC
  5
16340
  8
KI1
 10
202.34704608540909
 20
331.14762809338868
 30
0.0
 40
0.3
 50
0.0
 51
50.000000000010331
  0
LINE
  5
16341
  8
KI1
 10
201.7282966871571
 20
331.9057390273872
 30
0.0
 11
201.27250179423709
 21
331.9057390273872
 31
0.0
  0
LINE
  5
16342
  8
KI1
 10
202.04969049200051
 20
331.78876124894742
 30
0.0
 11
202.5398823683158
 21
331.37744142632499
 31
0.0
  0
ARC
  5
16343
  8
KI1
 10
201.7282966871571
 20
331.40573902738771
 30
0.0
 40
0.5
 50
50.000000000010331
 51
90.0
  0
LINE
  5
16344
  8
KI1
 10
202.6470460854093
 20
329.10574394672699
 30
0.0
 11
202.6470460854093
 21
331.14762809338868
 31
0.0
  0
LINE
  5
16345
  8
KI1
 10
203.8470460854092
 20
329.30574394672681
 30
0.0
 11
203.8470460854092
 21
331.84708958062203
 31
0.0
  0
LINE
  5
16346
  8
KI1
 10
203.8470460854092
 20
329.30574394672681
 30
0.0
 11
205.94704608540911
 21
329.30574394672681
 31
0.0
  0
LINE
  5
16347
  8
KI1
 10
208.1932018262205
 20
328.10574394672608
 30
0.0
 11
203.6470460854093
 21
328.10574394672699
 31
0.0
  0
LINE
  5
16348
  8
KI1
 10
208.04704608540899
 20
329.30574394672681
 30
0.0
 11
208.04704608540899
 21
331.84708958062203
 31
0.0
  0
LINE
  5
16349
  8
KI1
 10
208.04704608540899
 20
329.30574394672681
 30
0.0
 11
205.94704608540911
 21
329.30574394672681
 31
0.0
  0
ARC
  5
1634A
  8
KI1
 10
208.1932018262205
 20
329.10574394672608
 30
0.0
 40
1.0
 50
270.0
 51
340.27915752804267
  0
LINE
  5
1634B
  8
KI1
 10
209.54704608540899
 20
333.10573902738793
 30
0.0
 11
208.04704608540899
 21
331.84708958062203
 31
0.0
  0
LINE
  5
1634D
  8
KI1
 10
211.20089034459761
 20
328.10574394672608
 30
0.0
 11
223.94704608540911
 21
328.10574394672608
 31
0.0
  0
LINE
  5
1634E
  8
KI1
 10
223.66420737104141
 20
329.30573646167181
 30
0.0
 11
211.3470486864735
 21
329.30573646167181
 31
0.0
  0
LINE
  5
1634F
  8
KI1
 10
213.0470571598139
 20
331.60574400564218
 30
0.0
 11
218.74704608540921
 21
331.60574400564218
 31
0.0
  0
LINE
  5
16350
  8
KI1
 10
251.947046085409
 20
329.10574394672699
 30
0.0
 11
251.947046085409
 21
328.10574394672608
 31
0.0
  0
LINE
  5
16351
  8
KI1
 10
250.74704608540921
 20
328.55126617303608
 30
0.0
 11
250.74704608540921
 21
328.10574394672608
 31
0.0
  0
LINE
  5
16353
  8
KI1
 10
251.947046085409
 20
328.10574394672608
 30
0.0
 11
250.74704608540921
 21
328.10574394672608
 31
0.0
  0
ARC
  5
16355
  8
KI1
 10
245.74704608540921
 20
331.05436656175812
 30
0.0
 40
0.5
 50
129.99999999998971
 51
180.0
  0
LINE
  5
16356
  8
KI1
 10
245.84440167881851
 20
331.78876124894742
 30
0.0
 11
245.42565228056679
 21
331.43738878331692
 31
0.0
  0
ARC
  5
16357
  8
KI1
 10
246.16579548366241
 20
331.40573902738771
 30
0.0
 40
0.5
 50
90.0
 51
129.99999999998971
  0
LINE
  5
16358
  8
KI1
 10
246.62159037658151
 20
331.9057390273872
 30
0.0
 11
246.16579548366241
 21
331.9057390273872
 31
0.0
  0
ARC
  5
16359
  8
KI1
 10
246.62159037658151
 20
331.40573902738771
 30
0.0
 40
0.5
 50
49.599994483979224
 51
90.0
  0
LINE
  5
1635A
  8
KI1
 10
245.54704114250441
 20
333.10573902738793
 30
0.0
 11
247.24706868196739
 21
333.10573902738793
 31
0.0
  0
LINE
  5
1635B
  8
KI1
 10
245.24704608540929
 20
329.10574394672699
 30
0.0
 11
245.24704608540929
 21
331.05436656175812
 31
0.0
  0
ARC
  5
1635C
  8
KI1
 10
244.24704608540921
 20
329.10574394672699
 30
0.0
 40
1.0
 50
270.0
 51
0.0
  0
LINE
  5
1635E
  8
KI1
 10
245.54704608540899
 20
333.10573902738793
 30
0.0
 11
244.04704608540899
 21
331.84708958062203
 31
0.0
  0
LINE
  5
1635F
  8
KI1
 10
244.04704608540899
 20
331.84708958062203
 30
0.0
 11
244.04704608540899
 21
329.30574394672681
 31
0.0
  0
LINE
  5
16360
  8
KI1
 10
244.04704608540899
 20
329.30574394672681
 30
0.0
 11
241.94704608541039
 21
329.30574394672681
 31
0.0
  0
ARC
  5
16361
  8
KI1
 10
236.6932018262205
 20
329.10574394672608
 30
0.0
 40
1.0
 50
270.0
 51
340.27915752804267
  0
ARC
  5
16362
  8
KI1
 10
239.70089034459761
 20
329.10574394672608
 30
0.0
 40
1.0
 50
199.72084247195721
 51
270.0
  0
LINE
  5
16363
  8
KI1
 10
238.7595424871358
 20
328.7683062321002
 30
0.0
 11
238.66772001414
 21
329.02446280403899
 31
0.0
  0
LINE
  5
16364
  8
KI1
 10
237.63454968368231
 20
328.7683062321002
 30
0.0
 11
237.72637215667811
 21
329.02446280403899
 31
0.0
  0
ARC
  5
16365
  8
KI1
 10
238.19704608540911
 20
328.85574394672608
 30
0.0
 40
0.5
 50
19.72084247195728
 51
160.2791575280427
  0
LINE
  5
16366
  8
KI1
 10
235.74706004366681
 20
331.60574400564218
 30
0.0
 11
237.3470384943094
 21
331.60574400564218
 31
0.0
  0
LINE
  5
16368
  8
KI1
 10
236.5470434843464
 20
330.60574148705678
 30
0.0
 11
236.5470434843464
 21
329.30573646167181
 31
0.0
  0
LINE
  5
16369
  8
KI1
 10
236.1470434725625
 20
330.60574148705678
 30
0.0
 11
236.5470434843464
 21
330.60574148705678
 31
0.0
  0
ARC
  5
1636A
  8
KI1
 10
236.1470434725625
 20
330.90574148705701
 30
0.0
 40
0.3
 50
180.0
 51
270.0
  0
LINE
  5
1636B
  8
KI1
 10
235.81048944531449
 20
330.21062990230189
 30
0.0
 11
235.53379575507779
 21
329.8153431949579
 31
0.0
  0
LINE
  5
1636C
  8
KI1
 10
235.74706004366681
 20
331.10573399021968
 30
0.0
 11
235.8816417531275
 21
330.63472427549573
 31
0.0
  0
LINE
  5
1636D
  8
KI1
 10
235.74706004366681
 20
331.60574400564218
 30
0.0
 11
235.74706004366681
 21
331.10573399021968
 31
0.0
  0
LINE
  5
1636E
  8
KI1
 10
234.6808261620144
 20
330.1674446719137
 30
0.0
 11
234.9632638731623
 21
330.57294102618312
 31
0.0
  0
LINE
  5
1636F
  8
KI1
 10
234.8374382931415
 20
329.6924596744268
 30
0.0
 11
234.75493804157759
 21
329.75019759193918
 31
0.0
  0
LINE
  5
16370
  8
KI1
 10
234.8470525232633
 20
330.97968075083207
 30
0.0
 11
234.8470525232633
 21
331.60574400564218
 31
0.0
  0
LINE
  5
16371
  8
KI1
 10
234.9632638731623
 20
330.57294102618312
 30
0.0
 11
234.8470525232633
 21
330.97968075083207
 31
0.0
  0
ARC
  5
16372
  8
KI1
 10
235.40086019795081
 20
330.49735811687492
 30
0.0
 40
0.4999999937576218
 50
325.00799560546028
 51
15.94499206543791
  0
ARC
  5
16373
  8
KI1
 10
234.92697847277259
 20
329.99598214526048
 30
0.0
 40
0.3000000099360252
 50
145.14099121094179
 51
235.0079956054567
  0
ARC
  5
16374
  8
KI1
 10
235.12416650771459
 20
330.10208892178912
 30
0.0
 40
0.4999999937576218
 50
235.0079956054567
 51
325.00799560546028
  0
LINE
  5
16375
  8
KI1
 10
235.8470434725636
 20
331.00574400564102
 30
0.0
 11
235.8470434725636
 21
330.90574148705701
 31
0.0
  0
ARC
  5
16376
  8
KI1
 10
236.4470434725626
 20
331.00574400564102
 30
0.0
 40
0.6
 50
90.0
 51
180.0
  0
LINE
  5
16378
  8
KI1
 10
238.34704608540909
 20
333.10573902738793
 30
0.0
 11
239.84704608540909
 21
331.84708958062203
 31
0.0
  0
LINE
  5
16379
  8
KI1
 10
239.84704608540909
 20
329.30574394672681
 30
0.0
 11
239.84704608540909
 21
331.84708958062203
 31
0.0
  0
LINE
  5
1637A
  8
KI1
 10
237.3470384943094
 20
332.80573902738729
 30
0.0
 11
237.3470384943094
 21
331.60574400564218
 31
0.0
  0
ARC
  5
1637C
  8
KI1
 10
237.6470384943095
 20
332.80573902738729
 30
0.0
 40
0.3
 50
90.0
 51
180.0
  0
LINE
  5
1637D
  8
KI1
 10
237.1470425549733
 20
331.60574400564218
 30
0.0
 11
237.1470425549733
 21
332.80573652058609
 31
0.0
  0
LINE
  5
1637E
  8
KI1
 10
237.6470384943095
 20
333.10573902738793
 30
0.0
 11
238.34705102831461
 21
333.10573902738793
 31
0.0
  0
LINE
  5
1637F
  8
KI1
 10
244.24704608540921
 20
328.10574394672608
 30
0.0
 11
239.70089034459761
 21
328.10574394672608
 31
0.0
  0
LINE
  5
16380
  8
KI1
 10
239.84704608540909
 20
329.30574394672681
 30
0.0
 11
241.94704608541039
 21
329.30574394672681
 31
0.0
  0
LINE
  5
16381
  8
KI1
 10
246.94565036377159
 20
331.7865081499578
 30
0.0
 11
250.74704608540921
 21
328.55126617303608
 31
0.0
  0
LINE
  5
16382
  8
KI1
 10
247.24706868196739
 20
333.10573902738793
 30
0.0
 11
251.947046085409
 21
329.10574394672699
 31
0.0
  0
LINE
  5
163FA
  8
SU
 10
117.947046085409
 20
365.70382015807922
 30
0.0
 11
107.3413223736602
 21
384.07347247786652
 31
0.0
210
0.0
220
0.0
230
-1.0
1001
ACAD
1000
DSTYLE
1002
{
1070
    41
1040
1.5
1070
    77
1070
     0
1070
   371
1070
    13
1002
}
  0
LINE
  5
163FB
  8
SU
 10
107.3413223736602
 20
384.07347247786652
 30
0.0
 11
85.979659687360254
 21
384.07347247786652
 31
0.0
210
0.0
220
0.0
230
-1.0
1001
ACAD
1000
DSTYLE
1002
{
1070
    41
1040
1.5
1070
    77
1070
     0
1070
   371
1070
    13
1002
}
  0
LINE
  5
163FC
  8
SU
 10
716.60028860464729
 20
397.03168324028621
 30
0.0
 11
707.98562156320509
 21
413.45186708648089
 31
0.0
1001
ACAD
1000
DSTYLE
1002
{
1070
   371
1070
    13
1070
   176
1070
   256
1070
    41
1040
1.5
1070
   147
1040
1.0
1070
    77
1070
     0
1002
}
  0
LINE
  5
163FD
  8
SU
 10
707.98562156320509
 20
413.45186708648089
 30
0.0
 11
686.62395887690514
 21
413.45186708648089
 31
0.0
1001
ACAD
1000
DSTYLE
1002
{
1070
   371
1070
    13
1070
   176
1070
   256
1070
    41
1040
1.5
1070
   147
1040
1.0
1070
    77
1070
     0
1002
}
  0
LINE
  5
166EA
  8
SU
 10
117.947046085409
 20
161.8810836990742
 30
0.0
 11
107.3413223736602
 21
180.25073601886149
 31
0.0
210
0.0
220
0.0
230
-1.0
1001
ACAD
1000
DSTYLE
1002
{
1070
    41
1040
1.5
1070
    77
1070
     0
1070
   371
1070
    13
1002
}
  0
LINE
  5
166EB
  8
SU
 10
107.3413223736602
 20
180.25073601886149
 30
0.0
 11
85.979659687360254
 21
180.25073601886149
 31
0.0
210
0.0
220
0.0
230
-1.0
1001
ACAD
1000
DSTYLE
1002
{
1070
    41
1040
1.5
1070
    77
1070
     0
1070
   371
1070
    13
1002
}
  0
LINE
  5
166EC
  8
SU
 10
117.5140333835168
 20
161.6310836990742
 30
0.0
 11
119.447046085409
 21
159.28300748772091
 31
0.0
210
0.0
220
0.0
230
-1.0
  0
LINE
  5
166ED
  8
SU
 10
118.38005878730129
 20
162.1310836990742
 30
0.0
 11
119.447046085409
 21
159.28300748772091
 31
0.0
210
0.0
220
0.0
230
-1.0
  0
LINE
  5
166EE
  8
SU
 10
119.447046085409
 20
159.28300748772091
 30
0.0
 11
117.947046085409
 21
161.8810836990742
 31
0.0
210
0.0
220
0.0
230
-1.0
  0
LINE
  5
166EF
  8
SU
 10
717.04305334163257
 20
397.26397484082793
 30
0.0
 11
717.99403820789735
 21
394.3750948183735
 31
0.0
  0
LINE
  5
166F0
  8
SU
 10
716.15752386766178
 20
396.7993916397445
 30
0.0
 11
717.99403820789735
 21
394.3750948183735
 31
0.0
  0
LINE
  5
166F1
  8
SU
 10
717.99403820789735
 20
394.3750948183735
 30
0.0
 11
716.60028860464729
 21
397.03168324028621
 31
0.0
  0
LINE
  5
166F5
  8
SU
 10
117.5140333835168
 20
365.45382015807922
 30
0.0
 11
119.447046085409
 21
363.10574394672591
 31
0.0
210
0.0
220
0.0
230
-1.0
  0
LINE
  5
166F6
  8
SU
 10
118.38005878730129
 20
365.95382015807922
 30
0.0
 11
119.447046085409
 21
363.10574394672591
 31
0.0
210
0.0
220
0.0
230
-1.0
  0
LINE
  5
166F7
  8
SU
 10
119.447046085409
 20
363.10574394672591
 30
0.0
 11
117.947046085409
 21
365.70382015807922
 31
0.0
210
0.0
220
0.0
230
-1.0
  0
LINE
  5
19B62
  8
KI1
 10
220.196981014583
 20
662.40574236161649
 30
0.0
 11
211.446981014583
 21
662.40574197500223
 31
0.0
  0
LINE
  5
19B63
  8
KI1
 10
212.7469821545431
 20
636.60574203244209
 30
0.0
 11
218.04698215454309
 21
636.60574226661993
 31
0.0
  0
LINE
  5
19B64
  8
KI1
 10
213.89698210373101
 20
637.75574208325429
 30
0.0
 11
217.39698210373101
 21
637.75574223789988
 31
0.0
  0
LINE
  5
19B65
  8
KI1
 10
219.5469810653951
 20
661.25574233289672
 30
0.0
 11
192.3469810653952
 21
661.25574113107814
 31
0.0
  0
ARC
  5
19B66
  8
KI1
 10
220.69698096156159
 20
663.60574238370884
 30
0.0
 40
0.5
 50
0.0000025315855514
 51
180.00000253158549
  0
ARC
  5
19B67
  8
KI1
 10
220.62198207810391
 20
638.33574238039512
 30
0.0
 40
0.575000000000003
 50
180.00000253158549
 51
0.0000025315855514
  0
LINE
  5
19B68
  8
KI1
 10
221.19698207810401
 20
638.33574240580106
 30
0.0
 11
221.19698096156159
 21
663.60574240580115
 31
0.0
  0
ARC
  5
19B69
  8
KI1
 10
217.89698197117741
 20
640.75574225999219
 30
0.0
 40
0.5
 50
90.000002531585565
 51
180.00000253158549
  0
LINE
  5
19B6A
  8
KI1
 10
220.19698096156159
 20
663.60574236161665
 30
0.0
 11
220.196981014583
 21
662.40574236161649
 31
0.0
  0
LINE
  5
19B6B
  8
KI1
 10
217.89698194908519
 20
641.2557422599923
 30
0.0
 11
220.04698194908519
 21
641.25574235498891
 31
0.0
  0
LINE
  5
19B6C
  8
KI1
 10
220.0469819998973
 20
640.10574235498893
 30
0.0
 11
218.5469819998973
 21
640.10574228871224
 31
0.0
  0
LINE
  5
19B6D
  8
KI1
 10
220.04698194908519
 20
641.25574235498891
 30
0.0
 11
220.0469810874873
 21
660.75574235498891
 31
0.0
  0
LINE
  5
19B6E
  8
KI1
 10
220.04698207810389
 20
638.33574235498895
 30
0.0
 11
220.0469819998973
 21
640.10574235498893
 31
0.0
  0
ARC
  5
19B6F
  8
KI1
 10
219.5469810874873
 20
660.75574233289672
 30
0.0
 40
0.4999999999999999
 50
0.0000025315855514
 51
90.000002531585565
  0
ARC
  5
19B70
  8
KI1
 10
218.04698213245081
 20
637.10574226661993
 30
0.0
 40
0.5
 50
270.00000253158549
 51
0.0000025315855514
  0
LINE
  5
19B71
  8
KI1
 10
218.54698213245081
 20
637.10574228871224
 30
0.0
 11
218.5469819998973
 21
640.10574228871224
 31
0.0
  0
LINE
  5
19B72
  8
KI1
 10
217.39698197117741
 20
640.75574223789988
 30
0.0
 11
217.39698210373101
 21
637.75574223789988
 31
0.0
  0
LINE
  5
19B73
  8
KI1
 10
185.59698211035871
 20
637.60574083283268
 30
0.0
 11
190.6969821103587
 21
637.60574105817375
 31
0.0
  0
LINE
  5
19B74
  8
KI1
 10
186.39698215454311
 20
636.60574086818042
 30
0.0
 11
199.14698215454311
 21
636.60574143153281
 31
0.0
  0
LINE
  5
19B75
  8
KI1
 10
201.39698211035861
 20
637.60574153094785
 30
0.0
 11
199.4469821103587
 21
637.60574144478812
 31
0.0
  0
LINE
  5
19B76
  8
KI1
 10
201.3957176418352
 20
645.05574153089185
 30
0.0
 11
199.44698178118409
 21
645.05574144478805
 31
0.0
  0
ARC
  5
19B77
  8
KI1
 10
201.19571767055521
 20
644.40574152205511
 30
0.0
 40
0.5
 50
270.00000253158549
 51
0.0000025315855514
  0
LINE
  5
19B78
  8
KI1
 10
201.3969819910605
 20
640.30574153094767
 30
0.0
 11
201.19698199106051
 21
640.30574152211091
 31
0.0
  0
ARC
  5
19B79
  8
KI1
 10
200.94698096156159
 20
663.60574151106493
 30
0.0
 40
0.5
 50
0.0000025315855514
 51
180.00000253158549
  0
LINE
  5
19B7A
  8
KI1
 10
210.446981014583
 20
662.40574193081773
 30
0.0
 11
201.446981014583
 21
662.4057415331572
 31
0.0
  0
LINE
  5
19B7B
  8
KI1
 10
210.69571769264741
 20
643.90574194180783
 30
0.0
 11
212.24698183199629
 21
643.90574201034974
 31
0.0
  0
LINE
  5
19B7C
  8
KI1
 10
210.4969821103586
 20
637.60574193302682
 30
0.0
 11
212.4469821103587
 21
637.60574201918655
 31
0.0
  0
LINE
  5
19B7D
  8
KI1
 10
210.4957176418352
 20
645.05574193297093
 30
0.0
 11
212.44698178118409
 21
645.0557420191866
 31
0.0
  0
LINE
  5
19B7E
  8
KI1
 10
211.34698203524499
 20
639.30574197058365
 30
0.0
 11
210.69698199106051
 21
640.30574194186374
 31
0.0
  0
ARC
  5
19B7F
  8
KI1
 10
210.94698096156159
 20
663.60574195290985
 30
0.0
 40
0.5
 50
0.0000025315855514
 51
180.00000253158549
  0
LINE
  5
19B80
  8
KI1
 10
211.44698096156159
 20
663.60574197500227
 30
0.0
 11
211.446981014583
 21
662.40574197500223
 31
0.0
  0
ARC
  5
19B81
  8
KI1
 10
213.02198174915031
 20
645.7807420445929
 30
0.0
 40
0.5749999999999959
 50
0.0000025315855514
 51
180.00000253158549
  0
ARC
  5
19B82
  8
KI1
 10
212.74698214128779
 20
636.90574203244216
 30
0.0
 40
0.3
 50
180.00000253158549
 51
270.00000253158549
  0
LINE
  5
19B83
  8
KI1
 10
213.59698209047559
 20
638.05574206999893
 30
0.0
 11
213.59698174915039
 21
645.78074206999895
 31
0.0
  0
ARC
  5
19B84
  8
KI1
 10
213.8969820904756
 20
638.05574208325424
 30
0.0
 40
0.3
 50
180.00000253158549
 51
270.00000253158549
  0
LINE
  5
19B85
  8
KI1
 10
212.24698183199629
 20
643.90574201034974
 30
0.0
 11
212.44698189827309
 21
642.40574201918662
 31
0.0
  0
LINE
  5
19B86
  8
KI1
 10
212.4469820529188
 20
638.90574201918662
 30
0.0
 11
212.44698189827309
 21
642.40574201918662
 31
0.0
  0
LINE
  5
19B87
  8
KI1
 10
211.3469820529188
 20
638.90574197058356
 30
0.0
 11
212.4469820529188
 21
638.90574201918662
 31
0.0
  0
LINE
  5
19B88
  8
KI1
 10
211.34698203524499
 20
639.30574197058365
 30
0.0
 11
211.3469820529188
 21
638.90574197058356
 31
0.0
  0
LINE
  5
19B89
  8
KI1
 10
212.44698174915041
 20
645.78074201918673
 30
0.0
 11
212.44698178118409
 21
645.0557420191866
 31
0.0
  0
LINE
  5
19B8A
  8
KI1
 10
212.4469821412878
 20
636.90574201918673
 30
0.0
 11
212.4469821103587
 21
637.60574201918655
 31
0.0
  0
LINE
  5
19B8B
  8
KI1
 10
210.44698096156159
 20
663.60574193081766
 30
0.0
 11
210.446981014583
 21
662.40574193081773
 31
0.0
  0
ARC
  5
19B8C
  8
KI1
 10
210.49698209710331
 20
637.90574193302666
 30
0.0
 40
0.3
 50
180.00000253158549
 51
270.00000253158549
  0
ARC
  5
19B8D
  8
KI1
 10
210.4957176550906
 20
644.75574193297098
 30
0.0
 40
0.3
 50
90.000002531585565
 51
180.00000253158549
  0
LINE
  5
19B8E
  8
KI1
 10
210.19571765509059
 20
644.75574191971555
 30
0.0
 11
210.19571767055521
 21
644.40574191971564
 31
0.0
  0
LINE
  5
19B8F
  8
KI1
 10
210.19698200431591
 20
640.00574191977148
 30
0.0
 11
210.1969820971033
 21
637.90574191977134
 31
0.0
  0
ARC
  5
19B90
  8
KI1
 10
210.49698200431581
 20
640.00574193302668
 30
0.0
 40
0.3
 50
90.000002531585565
 51
180.00000253158549
  0
LINE
  5
19B91
  8
KI1
 10
210.49698199106049
 20
640.30574193302675
 30
0.0
 11
210.69698199106051
 21
640.30574194186374
 31
0.0
  0
ARC
  5
19B92
  8
KI1
 10
210.6957176705551
 20
644.40574194180783
 30
0.0
 40
0.5
 50
180.00000253158549
 51
270.00000253158549
  0
LINE
  5
19B93
  8
KI1
 10
201.44698096156159
 20
663.60574153315724
 30
0.0
 11
201.446981014583
 21
662.4057415331572
 31
0.0
  0
ARC
  5
19B94
  8
KI1
 10
201.39698209710329
 20
637.90574153094769
 30
0.0
 40
0.3
 50
270.00000253158549
 51
0.0000025315855514
  0
ARC
  5
19B95
  8
KI1
 10
201.39571765509049
 20
644.75574153089201
 30
0.0
 40
0.3
 50
0.0000025315855514
 51
90.000002531585565
  0
LINE
  5
19B96
  8
KI1
 10
201.69571765509059
 20
644.75574154414721
 30
0.0
 11
201.69571767055521
 21
644.4057415441473
 31
0.0
  0
LINE
  5
19B97
  8
KI1
 10
201.69698200431591
 20
640.00574154420326
 30
0.0
 11
201.6969820971033
 21
637.90574154420324
 31
0.0
  0
ARC
  5
19B98
  8
KI1
 10
201.39698200431579
 20
640.00574153094783
 30
0.0
 40
0.3
 50
0.0000025315855514
 51
90.000002531585565
  0
LINE
  5
19B99
  8
KI1
 10
197.99698210373089
 20
637.75574138072056
 30
0.0
 11
191.84698210373099
 21
637.75574110898594
 31
0.0
  0
LINE
  5
19B9A
  8
KI1
 10
191.696981014583
 20
662.40574110235832
 30
0.0
 11
200.446981014583
 21
662.40574148897258
 31
0.0
  0
ARC
  5
19B9B
  8
KI1
 10
197.9969820904756
 20
638.05574138072075
 30
0.0
 40
0.3
 50
270.00000253158549
 51
0.0000025315855514
  0
LINE
  5
19B9C
  8
KI1
 10
200.44698096156159
 20
663.60574148897274
 30
0.0
 11
200.446981014583
 21
662.40574148897258
 31
0.0
  0
LINE
  5
19B9D
  8
KI1
 10
201.19571769264741
 20
643.90574152205511
 30
0.0
 11
199.64698183199619
 21
643.90574145362496
 31
0.0
  0
LINE
  5
19B9E
  8
KI1
 10
200.54698205291879
 20
638.90574149339102
 30
0.0
 11
199.4469820529188
 21
638.90574144478796
 31
0.0
  0
LINE
  5
19B9F
  8
KI1
 10
200.54698203524501
 20
639.305741493391
 30
0.0
 11
200.54698205291879
 21
638.90574149339102
 31
0.0
  0
LINE
  5
19BA0
  8
KI1
 10
200.54698203524501
 20
639.305741493391
 30
0.0
 11
201.19698199106051
 21
640.30574152211091
 31
0.0
  0
LINE
  5
19BA1
  8
KI1
 10
199.64698183199619
 20
643.90574145362496
 30
0.0
 11
199.44698189827309
 21
642.40574144478796
 31
0.0
  0
LINE
  5
19BA2
  8
KI1
 10
199.4469820529188
 20
638.90574144478796
 30
0.0
 11
199.44698189827309
 21
642.40574144478796
 31
0.0
  0
LINE
  5
19BA3
  8
KI1
 10
198.29698209047561
 20
638.05574139397606
 30
0.0
 11
198.29698174915029
 21
645.78074139397609
 31
0.0
  0
LINE
  5
19BA4
  8
KI1
 10
199.44698174915041
 20
645.78074144478819
 30
0.0
 11
199.44698178118409
 21
645.05574144478805
 31
0.0
  0
ARC
  5
19BA5
  8
KI1
 10
198.87198174915031
 20
645.78074141938214
 30
0.0
 40
0.5749999999999959
 50
0.0000025315855514
 51
180.00000253158549
  0
LINE
  5
19BA6
  8
KI1
 10
199.4469821412878
 20
636.90574144478808
 30
0.0
 11
199.4469821103587
 21
637.60574144478812
 31
0.0
  0
ARC
  5
19BA7
  8
KI1
 10
199.14698214128779
 20
636.90574143153276
 30
0.0
 40
0.3
 50
270.00000253158549
 51
0.0000025315855514
  0
ARC
  5
19BA8
  8
KI1
 10
191.19698096156159
 20
663.60574108026594
 30
0.0
 40
0.5
 50
0.0000025315855514
 51
180.00000253158549
  0
LINE
  5
19BA9
  8
KI1
 10
191.69698096156159
 20
663.60574110235825
 30
0.0
 11
191.696981014583
 21
662.40574110235832
 31
0.0
  0
LINE
  5
19BAA
  8
KI1
 10
191.84698210373099
 20
637.75574110898594
 30
0.0
 11
191.84698108748739
 21
660.75574110898594
 31
0.0
  0
ARC
  5
19BAB
  8
KI1
 10
192.34698108748739
 20
660.75574113107814
 30
0.0
 40
0.4999999999999999
 50
90.000002531585565
 51
180.00000253158549
  0
LINE
  5
19BAC
  8
KI1
 10
190.6969821103587
 20
637.60574105817375
 30
0.0
 11
190.69698096156159
 21
663.60574105817375
 31
0.0
  0
ARC
  5
19BAD
  8
KI1
 10
185.5969821324509
 20
637.10574083283279
 30
0.0
 40
0.5
 50
90.000002531585565
 51
180.00000253158549
  0
LINE
  5
19BAE
  8
KI1
 10
185.0969821324509
 20
637.1057408107406
 30
0.0
 11
185.09698270684939
 21
624.1057408107406
 31
0.0
  0
ARC
  5
19BAF
  8
KI1
 10
186.39698216779851
 20
636.30574086818035
 30
0.0
 40
0.3
 50
90.000002531585565
 51
180.00000253158549
  0
LINE
  5
19BB0
  8
KI1
 10
186.0969821677985
 20
636.30574085492515
 30
0.0
 11
186.09698270684939
 21
624.10574085492499
 31
0.0
  0
ARC
  5
19BB1
  8
KI1
 10
185.5969827068495
 20
624.10574083283291
 30
0.0
 40
0.5
 50
180.00000253158549
 51
0.0000025315855514
  0
LINE
  5
19BB2
  8
KI1
 10
233.996982103731
 20
637.75574297136257
 30
0.0
 11
227.84698210373091
 21
637.75574269962794
 31
0.0
  0
LINE
  5
19BB3
  8
KI1
 10
235.14698215454311
 20
636.60574302217492
 30
0.0
 11
218.76698215454309
 21
636.60574229843269
 31
0.0
  0
LINE
  5
19BB4
  8
KI1
 10
227.69698101458289
 20
662.40574269300021
 30
0.0
 11
236.44698101458289
 21
662.40574307961458
 31
0.0
  0
LINE
  5
19BB5
  8
KI1
 10
228.34698106539511
 20
661.25574272172025
 30
0.0
 11
255.5469810653951
 21
661.25574392353872
 31
0.0
  0
LINE
  5
19BB6
  8
KI1
 10
226.6969821037309
 20
637.75574264881584
 30
0.0
 11
219.96698210373091
 21
637.75574235145405
 31
0.0
  0
ARC
  5
19BB7
  8
KI1
 10
219.36698204850029
 20
639.00574232494341
 30
0.0
 40
0.5999999999999996
 50
0.0000025315855514
 51
180.00000253158549
  0
LINE
  5
19BB8
  8
KI1
 10
218.7669820485003
 20
639.00574229843266
 30
0.0
 11
218.76698215454309
 21
636.60574229843269
 31
0.0
  0
LINE
  5
19BB9
  8
KI1
 10
219.96698204850031
 20
639.00574235145405
 30
0.0
 11
219.96698210373091
 21
637.75574235145405
 31
0.0
  0
ARC
  5
19BBA
  8
KI1
 10
227.19698096156151
 20
663.60574267090794
 30
0.0
 40
0.5
 50
0.0000025315855514
 51
180.00000253158549
  0
LINE
  5
19BBB
  8
KI1
 10
226.6969821037309
 20
637.75574264881584
 30
0.0
 11
226.69698096156151
 21
663.60574264881575
 31
0.0
  0
LINE
  5
19BBC
  8
KI1
 10
227.69698096156151
 20
663.60574269300025
 30
0.0
 11
227.69698101458289
 21
662.40574269300021
 31
0.0
  0
LINE
  5
19BBD
  8
KI1
 10
227.84698210373091
 20
637.75574269962794
 30
0.0
 11
227.84698108748739
 21
660.75574269962794
 31
0.0
  0
ARC
  5
19BBE
  8
KI1
 10
228.34698108748739
 20
660.75574272172025
 30
0.0
 40
0.4999999999999999
 50
90.000002531585565
 51
180.00000253158549
  0
LINE
  5
19BBF
  8
KI1
 10
261.4969821545431
 20
636.60574418643648
 30
0.0
 11
248.7469821545431
 21
636.60574362308409
 31
0.0
  0
LINE
  5
19BC0
  8
KI1
 10
262.2969821103585
 20
637.60574422178411
 30
0.0
 11
257.19698211035848
 21
637.60574399644315
 31
0.0
  0
LINE
  5
19BC1
  8
KI1
 10
246.4969821103586
 20
637.60574352366882
 30
0.0
 11
248.4469821103585
 21
637.60574360982855
 31
0.0
  0
LINE
  5
19BC2
  8
KI1
 10
246.49824592053301
 20
645.05574352372469
 30
0.0
 11
248.44698178118401
 21
645.0557436098286
 31
0.0
  0
ARC
  5
19BC3
  8
KI1
 10
246.69824594925279
 20
644.40574353256159
 30
0.0
 40
0.5
 50
180.00000253158549
 51
270.00000253158549
  0
LINE
  5
19BC4
  8
KI1
 10
246.49698199106049
 20
640.30574352366875
 30
0.0
 11
246.6969819910604
 21
640.30574353250574
 31
0.0
  0
ARC
  5
19BC5
  8
KI1
 10
246.94698096156151
 20
663.60574354355185
 30
0.0
 40
0.5
 50
0.0000025315855514
 51
180.00000253158549
  0
LINE
  5
19BC6
  8
KI1
 10
237.1982459713451
 20
643.90574311280875
 30
0.0
 11
235.6469818319963
 21
643.90574304426696
 31
0.0
  0
LINE
  5
19BC7
  8
KI1
 10
237.39698211035861
 20
637.60574312158985
 30
0.0
 11
235.4469821103585
 21
637.60574303543001
 31
0.0
  0
LINE
  5
19BC8
  8
KI1
 10
237.39824592053299
 20
645.05574312164572
 30
0.0
 11
235.44698178118401
 21
645.05574303543005
 31
0.0
  0
LINE
  5
19BC9
  8
KI1
 10
236.54698203524489
 20
639.305743084033
 30
0.0
 11
237.1969819910604
 21
640.30574311275279
 31
0.0
  0
ARC
  5
19BCA
  8
KI1
 10
236.94698096156151
 20
663.60574310170693
 30
0.0
 40
0.5
 50
0.0000025315855514
 51
180.00000253158549
  0
LINE
  5
19BCB
  8
KI1
 10
236.44698096156151
 20
663.60574307961474
 30
0.0
 11
236.44698101458289
 21
662.40574307961458
 31
0.0
  0
ARC
  5
19BCC
  8
KI1
 10
234.87198174915031
 20
645.78074301002414
 30
0.0
 40
0.5749999999999959
 50
0.0000025315855514
 51
180.00000253158549
  0
ARC
  5
19BCD
  8
KI1
 10
235.14698214128771
 20
636.90574302217476
 30
0.0
 40
0.2999999999999999
 50
270.00000253158549
 51
0.0000025315855514
  0
LINE
  5
19BCE
  8
KI1
 10
234.2969820904755
 20
638.05574298461795
 30
0.0
 11
234.29698174915029
 21
645.78074298461797
 31
0.0
  0
ARC
  5
19BCF
  8
KI1
 10
233.9969820904756
 20
638.05574297136275
 30
0.0
 40
0.2999999999999999
 50
270.00000253158549
 51
0.0000025315855514
  0
LINE
  5
19BD0
  8
KI1
 10
235.6469818319963
 20
643.90574304426696
 30
0.0
 11
235.44698189827301
 21
642.40574303542996
 31
0.0
  0
LINE
  5
19BD1
  8
KI1
 10
235.44698205291871
 20
638.90574303542996
 30
0.0
 11
235.44698189827301
 21
642.40574303542996
 31
0.0
  0
LINE
  5
19BD2
  8
KI1
 10
236.54698205291871
 20
638.90574308403302
 30
0.0
 11
235.44698205291871
 21
638.90574303542996
 31
0.0
  0
LINE
  5
19BD3
  8
KI1
 10
236.54698205291871
 20
638.90574308403302
 30
0.0
 11
236.54698203524489
 21
639.305743084033
 31
0.0
  0
LINE
  5
19BD4
  8
KI1
 10
235.44698174915021
 20
645.78074303543019
 30
0.0
 11
235.44698178118401
 21
645.05574303543005
 31
0.0
  0
LINE
  5
19BD5
  8
KI1
 10
235.44698214128769
 20
636.90574303543019
 30
0.0
 11
235.4469821103585
 21
637.60574303543001
 31
0.0
  0
LINE
  5
19BD6
  8
KI1
 10
237.44698096156151
 20
663.60574312379924
 30
0.0
 11
237.44698101458289
 21
662.4057431237992
 31
0.0
  0
ARC
  5
19BD7
  8
KI1
 10
237.39698209710329
 20
637.90574312158981
 30
0.0
 40
0.2999999999999999
 50
270.00000253158549
 51
0.0000025315855514
  0
ARC
  5
19BD8
  8
KI1
 10
237.3982459337883
 20
644.75574312164565
 30
0.0
 40
0.2999999999999999
 50
0.0000025315855514
 51
90.000002531585565
  0
LINE
  5
19BD9
  8
KI1
 10
237.69824593378829
 20
644.75574313490108
 30
0.0
 11
237.69824594925279
 21
644.40574313490094
 31
0.0
  0
LINE
  5
19BDA
  8
KI1
 10
237.69698200431569
 20
640.00574313484515
 30
0.0
 11
237.69698209710319
 21
637.90574313484524
 31
0.0
  0
ARC
  5
19BDB
  8
KI1
 10
237.39698200431579
 20
640.00574312158983
 30
0.0
 40
0.2999999999999999
 50
0.0000025315855514
 51
90.000002531585565
  0
LINE
  5
19BDC
  8
KI1
 10
237.39698199106039
 20
640.30574312158979
 30
0.0
 11
237.1969819910604
 21
640.30574311275279
 31
0.0
  0
ARC
  5
19BDD
  8
KI1
 10
237.19824594925279
 20
644.40574311280875
 30
0.0
 40
0.5
 50
270.00000253158549
 51
0.0000025315855514
  0
LINE
  5
19BDE
  8
KI1
 10
246.4469810145828
 20
662.40574352145973
 30
0.0
 11
237.44698101458289
 21
662.4057431237992
 31
0.0
  0
LINE
  5
19BDF
  8
KI1
 10
246.44698096156139
 20
663.60574352145966
 30
0.0
 11
246.4469810145828
 21
662.40574352145973
 31
0.0
  0
ARC
  5
19BE0
  8
KI1
 10
246.4969820971032
 20
637.90574352366878
 30
0.0
 40
0.2999999999999999
 50
180.00000253158549
 51
270.00000253158549
  0
ARC
  5
19BE1
  8
KI1
 10
246.4982459337883
 20
644.75574352372473
 30
0.0
 40
0.2999999999999999
 50
90.000002531585565
 51
180.00000253158549
  0
LINE
  5
19BE2
  8
KI1
 10
246.19824593378829
 20
644.7557435104693
 30
0.0
 11
246.19824594925279
 21
644.40574351046916
 31
0.0
  0
LINE
  5
19BE3
  8
KI1
 10
246.1969820043158
 20
640.00574351041348
 30
0.0
 11
246.19698209710319
 21
637.90574351041334
 31
0.0
  0
ARC
  5
19BE4
  8
KI1
 10
246.49698200431581
 20
640.00574352366868
 30
0.0
 40
0.2999999999999999
 50
90.000002531585565
 51
180.00000253158549
  0
LINE
  5
19BE5
  8
KI1
 10
249.89698210373089
 20
637.75574367389618
 30
0.0
 11
256.0469821037309
 21
637.75574394563091
 31
0.0
  0
LINE
  5
19BE6
  8
KI1
 10
256.19698101458289
 20
662.40574395225849
 30
0.0
 11
247.44698101458289
 21
662.40574356564423
 31
0.0
  0
ARC
  5
19BE7
  8
KI1
 10
249.89698209047549
 20
638.05574367389625
 30
0.0
 40
0.2999999999999999
 50
180.00000253158549
 51
270.00000253158549
  0
LINE
  5
19BE8
  8
KI1
 10
247.44698096156151
 20
663.60574356564416
 30
0.0
 11
247.44698101458289
 21
662.40574356564423
 31
0.0
  0
LINE
  5
19BE9
  8
KI1
 10
246.6982459713451
 20
643.90574353256147
 30
0.0
 11
248.24698183199621
 21
643.90574360099174
 31
0.0
  0
LINE
  5
19BEA
  8
KI1
 10
247.3469820529188
 20
638.90574356122556
 30
0.0
 11
248.44698205291871
 21
638.90574360982862
 31
0.0
  0
LINE
  5
19BEB
  8
KI1
 10
247.3469820529188
 20
638.90574356122556
 30
0.0
 11
247.34698203524499
 21
639.30574356122565
 31
0.0
  0
LINE
  5
19BEC
  8
KI1
 10
247.34698203524499
 20
639.30574356122565
 30
0.0
 11
246.6969819910604
 21
640.30574353250574
 31
0.0
  0
LINE
  5
19BED
  8
KI1
 10
248.24698183199621
 20
643.90574360099174
 30
0.0
 11
248.4469818982729
 21
642.40574360982862
 31
0.0
  0
LINE
  5
19BEE
  8
KI1
 10
248.44698205291871
 20
638.90574360982862
 30
0.0
 11
248.4469818982729
 21
642.40574360982862
 31
0.0
  0
LINE
  5
19BEF
  8
KI1
 10
249.59698209047559
 20
638.05574366064093
 30
0.0
 11
249.5969817491503
 21
645.78074366064095
 31
0.0
  0
LINE
  5
19BF0
  8
KI1
 10
248.44698174915021
 20
645.78074360982873
 30
0.0
 11
248.44698178118401
 21
645.0557436098286
 31
0.0
  0
ARC
  5
19BF1
  8
KI1
 10
249.02198174915031
 20
645.78074363523478
 30
0.0
 40
0.5749999999999959
 50
0.0000025315855514
 51
180.00000253158549
  0
LINE
  5
19BF2
  8
KI1
 10
248.44698214128769
 20
636.90574360982873
 30
0.0
 11
248.4469821103585
 21
637.60574360982855
 31
0.0
  0
ARC
  5
19BF3
  8
KI1
 10
248.74698214128779
 20
636.90574362308405
 30
0.0
 40
0.2999999999999999
 50
180.00000253158549
 51
270.00000253158549
  0
ARC
  5
19BF4
  8
KI1
 10
256.69698096156139
 20
663.60574397435084
 30
0.0
 40
0.5
 50
0.0000025315855514
 51
180.00000253158549
  0
LINE
  5
19BF5
  8
KI1
 10
256.19698096156139
 20
663.60574395225865
 30
0.0
 11
256.19698101458289
 21
662.40574395225849
 31
0.0
  0
LINE
  5
19BF6
  8
KI1
 10
256.0469821037309
 20
637.75574394563091
 30
0.0
 11
256.04698108748732
 21
660.75574394563091
 31
0.0
  0
ARC
  5
19BF7
  8
KI1
 10
255.5469810874873
 20
660.75574392353872
 30
0.0
 40
0.4999999999999999
 50
0.0000025315855514
 51
90.000002531585565
  0
LINE
  5
19BF8
  8
KI1
 10
257.19698211035848
 20
637.60574399644315
 30
0.0
 11
257.19698096156151
 21
663.60574399644315
 31
0.0
  0
ARC
  5
19BF9
  8
KI1
 10
262.29698213245081
 20
637.10574422178411
 30
0.0
 40
0.5
 50
0.0000025315855514
 51
90.000002531585565
  0
ARC
  5
19BFA
  8
KI1
 10
261.49698216779848
 20
636.30574418643653
 30
0.0
 40
0.2999999999999999
 50
0.0000025315855514
 51
90.000002531585565
  0
LINE
  5
19BFB
  8
KI1
 10
261.79698216779838
 20
636.30574419969184
 30
0.0
 11
261.79698270684941
 21
624.10574419969191
 31
0.0
  0
LINE
  5
19BFC
  8
KI1
 10
262.79698213245081
 20
637.10574424387642
 30
0.0
 11
262.79698270684929
 21
624.10574424387642
 31
0.0
  0
ARC
  5
19BFD
  8
KI1
 10
262.29698270684941
 20
624.10574422178411
 30
0.0
 40
0.5
 50
180.00000253158549
 51
0.0000025315855514
  0
LINE
  5
19BFE
  8
KI2
 10
201.94703730388571
 20
644.80574473009847
 30
0.0
 11
209.94703730388571
 21
644.80574473009847
 31
0.0
  0
LINE
  5
19BFF
  8
KI2
 10
200.0470373038857
 20
640.99574473009852
 30
0.0
 11
211.84703730388571
 21
640.99574473009852
 31
0.0
  0
LINE
  5
19C00
  8
KI2
 10
200.0470373038857
 20
642.99574473009852
 30
0.0
 11
211.84703730388571
 21
642.99574473009852
 31
0.0
  0
LINE
  5
19C01
  8
KI2
 10
201.94703730388571
 20
644.80574473009847
 30
0.0
 11
201.94703730388571
 21
642.99574473009852
 31
0.0
  0
LINE
  5
19C02
  8
KI2
 10
200.0470373038857
 20
642.99574473009852
 30
0.0
 11
200.0470373038857
 21
640.99574473009852
 31
0.0
  0
LINE
  5
19C03
  8
KI2
 10
208.94703730388571
 20
640.99574473009852
 30
0.0
 11
208.94703730388571
 21
627.10574473009865
 31
0.0
  0
LINE
  5
19C04
  8
KI2
 10
202.94703730388571
 20
640.99574473009852
 30
0.0
 11
202.94703730388571
 21
627.10574473009865
 31
0.0
  0
LINE
  5
19C05
  8
KI2
 10
202.94703730388571
 20
638.48574473009853
 30
0.0
 11
208.94703730388571
 21
638.48574473009853
 31
0.0
  0
LINE
  5
19C06
  8
KI2
 10
204.22703730388571
 20
653.20574473009844
 30
0.0
 11
207.66703730388579
 21
653.20574473009844
 31
0.0
  0
LINE
  5
19C07
  8
KI2
 10
208.16703730388571
 20
652.70574473009844
 30
0.0
 11
203.72703730388571
 21
652.70574473009844
 31
0.0
  0
LINE
  5
19C08
  8
KI2
 10
203.72703730388571
 20
652.70574473009844
 30
0.0
 11
203.72703730388571
 21
644.80574473009847
 31
0.0
  0
LINE
  5
19C09
  8
KI2
 10
204.22703730388571
 20
653.20574473009844
 30
0.0
 11
203.72703730388571
 21
652.70574473009844
 31
0.0
  0
LINE
  5
19C0A
  8
KI2
 10
208.16703730388571
 20
652.70574473009844
 30
0.0
 11
208.16703730388571
 21
644.80574473009847
 31
0.0
  0
LINE
  5
19C0B
  8
KI2
 10
208.16703730388571
 20
652.70574473009844
 30
0.0
 11
207.66703730388579
 21
653.20574473009844
 31
0.0
  0
LINE
  5
19C0C
  8
KI2
 10
209.94703730388571
 20
644.80574473009847
 30
0.0
 11
209.94703730388571
 21
642.99574473009852
 31
0.0
  0
LINE
  5
19C0D
  8
KI2
 10
211.84703730388571
 20
642.99574473009852
 30
0.0
 11
211.84703730388571
 21
640.99574473009852
 31
0.0
  0
LINE
  5
19C0E
  8
KI2
 10
237.94703730388571
 20
644.80574473009847
 30
0.0
 11
245.94703730388579
 21
644.80574473009847
 31
0.0
  0
LINE
  5
19C0F
  8
KI2
 10
236.0470373038857
 20
640.99574473009852
 30
0.0
 11
247.84703730388571
 21
640.99574473009852
 31
0.0
  0
LINE
  5
19C10
  8
KI2
 10
236.0470373038857
 20
642.99574473009852
 30
0.0
 11
247.84703730388571
 21
642.99574473009852
 31
0.0
  0
LINE
  5
19C11
  8
KI2
 10
237.94703730388571
 20
644.80574473009847
 30
0.0
 11
237.94703730388571
 21
642.99574473009852
 31
0.0
  0
LINE
  5
19C12
  8
KI2
 10
236.0470373038857
 20
642.99574473009852
 30
0.0
 11
236.0470373038857
 21
640.99574473009852
 31
0.0
  0
LINE
  5
19C13
  8
KI2
 10
244.94703730388571
 20
640.99574473009852
 30
0.0
 11
244.94703730388571
 21
627.10574473009865
 31
0.0
  0
LINE
  5
19C14
  8
KI2
 10
238.94703730388571
 20
640.99574473009852
 30
0.0
 11
238.94703730388571
 21
627.10574473009865
 31
0.0
  0
LINE
  5
19C15
  8
KI2
 10
238.94703730388571
 20
638.48574473009853
 30
0.0
 11
244.94703730388571
 21
638.48574473009853
 31
0.0
  0
LINE
  5
19C16
  8
KI2
 10
240.22703730388571
 20
653.20574473009844
 30
0.0
 11
243.66703730388571
 21
653.20574473009844
 31
0.0
  0
LINE
  5
19C17
  8
KI2
 10
244.16703730388571
 20
652.70574473009844
 30
0.0
 11
239.72703730388571
 21
652.70574473009844
 31
0.0
  0
LINE
  5
19C18
  8
KI2
 10
239.72703730388571
 20
652.70574473009844
 30
0.0
 11
239.72703730388571
 21
644.80574473009847
 31
0.0
  0
LINE
  5
19C19
  8
KI2
 10
240.22703730388571
 20
653.20574473009844
 30
0.0
 11
239.72703730388571
 21
652.70574473009844
 31
0.0
  0
LINE
  5
19C1A
  8
KI2
 10
244.16703730388571
 20
652.70574473009844
 30
0.0
 11
244.16703730388571
 21
644.80574473009847
 31
0.0
  0
LINE
  5
19C1B
  8
KI2
 10
244.16703730388571
 20
652.70574473009844
 30
0.0
 11
243.66703730388571
 21
653.20574473009844
 31
0.0
  0
LINE
  5
19C1C
  8
KI2
 10
245.94703730388579
 20
644.80574473009847
 30
0.0
 11
245.94703730388579
 21
642.99574473009852
 31
0.0
  0
LINE
  5
19C1D
  8
KI2
 10
247.84703730388571
 20
642.99574473009852
 30
0.0
 11
247.84703730388571
 21
640.99574473009852
 31
0.0
  0
LINE
  5
19C1E
  8
KI2
 10
237.3470660854077
 20
126.0830073963906
 30
0.0
 11
238.3470660854077
 21
126.0830073963906
 31
0.0
  0
LINE
  5
19C1F
  8
KI2
 10
238.4470660854077
 20
118.9830073963906
 30
0.0
 11
237.3470660854077
 21
122.0230073963906
 31
0.0
  0
LINE
  5
19C20
  8
KI2
 10
237.7470660854076
 20
116.0830073963906
 30
0.0
 11
238.4470660854077
 21
116.0830073963906
 31
0.0
  0
LINE
  5
19C21
  8
KI2
 10
238.4470660854077
 20
117.5830073963906
 30
0.0
 11
237.8470660854077
 21
116.8830073963906
 31
0.0
  0
ARC
  5
19C22
  8
KI2
 10
237.3470660854077
 20
125.7830073963906
 30
0.0
 40
0.3
 50
90.0
 51
180.0
  0
LINE
  5
19C23
  8
KI2
 10
237.04706608540781
 20
122.3830073963906
 30
0.0
 11
237.3470660854077
 21
122.0230073963906
 31
0.0
  0
LINE
  5
19C24
  8
KI2
 10
237.2470660854076
 20
116.8830073963906
 30
0.0
 11
237.2470660854076
 21
116.5830073963906
 31
0.0
  0
ARC
  5
19C25
  8
KI2
 10
237.7470660854076
 20
116.5830073963906
 30
0.0
 40
0.5
 50
180.0
 51
270.0
  0
LINE
  5
19C26
  8
KI2
 10
237.2470660854076
 20
116.8830073963906
 30
0.0
 11
237.8470660854077
 21
116.8830073963906
 31
0.0
  0
LINE
  5
19C27
  8
KI2
 10
237.04706608540781
 20
125.7830073963906
 30
0.0
 11
237.04706608540781
 21
122.3830073963906
 31
0.0
  0
ARC
  5
19C28
  8
KI2
 10
246.54706608540781
 20
125.7830073963906
 30
0.0
 40
0.3
 50
0.0
 51
90.0
  0
ARC
  5
19C29
  8
KI2
 10
244.3470660854077
 20
124.6844656521782
 30
0.0
 40
0.3
 50
130.00000000000179
 51
180.0
  0
LINE
  5
19C2A
  8
KI2
 10
244.1542298025017
 20
124.9142789851138
 30
0.0
 11
245.54706608540781
 21
126.0830073963906
 31
0.0
  0
LINE
  5
19C2B
  8
KI2
 10
246.54706608540781
 20
126.0830073963906
 30
0.0
 11
245.54706608540781
 21
126.0830073963906
 31
0.0
  0
LINE
  5
19C2C
  8
KI2
 10
246.8470660854077
 20
122.3830073963906
 30
0.0
 11
246.54706608540781
 21
122.0230073963906
 31
0.0
  0
ARC
  5
19C2D
  8
KI2
 10
244.14706608540769
 20
122.3330073963906
 30
0.0
 40
0.75
 50
270.0
 51
90.0
  0
LINE
  5
19C2E
  8
KI2
 10
244.09863164914509
 20
121.2830073963906
 30
0.0
 11
244.09863164914509
 21
121.5830073963906
 31
0.0
  0
LINE
  5
19C2F
  8
KI2
 10
244.09863164914509
 20
121.5830073963906
 30
0.0
 11
244.14706608540769
 21
121.5830073963906
 31
0.0
  0
LINE
  5
19C30
  8
KI2
 10
244.14706608540769
 20
123.0830073963906
 30
0.0
 11
244.04706608540781
 21
123.0830073963906
 31
0.0
  0
LINE
  5
19C31
  8
KI2
 10
245.44706608540761
 20
118.9830073963906
 30
0.0
 11
245.44706608540761
 21
117.5830073963906
 31
0.0
  0
POINT
  5
19C32
  8
KI2
 10
245.44706608540761
 20
118.46891912357501
 30
0.0
  0
LINE
  5
19C33
  8
KI2
 10
245.44706608540761
 20
118.9830073963906
 30
0.0
 11
246.54706608540781
 21
122.0230073963906
 31
0.0
  0
ARC
  5
19C34
  8
KI2
 10
243.59863164914509
 20
121.2830073963906
 30
0.0
 40
0.5
 50
270.0
 51
0.0
  0
LINE
  5
19C35
  8
KI2
 10
246.64706608540769
 20
116.8830073963906
 30
0.0
 11
246.64706608540769
 21
116.5830073963906
 31
0.0
  0
LINE
  5
19C36
  8
KI2
 10
246.14706608540769
 20
116.0830073963906
 30
0.0
 11
245.44706608540761
 21
116.0830073963906
 31
0.0
  0
LINE
  5
19C37
  8
KI2
 10
245.14706608540769
 20
116.3830073963906
 30
0.0
 11
245.44706608540761
 21
116.0830073963906
 31
0.0
  0
LINE
  5
19C38
  8
KI2
 10
242.6970660854077
 20
117.0830073963906
 30
0.0
 11
243.19706608540761
 21
116.3830073963906
 31
0.0
  0
LINE
  5
19C39
  8
KI2
 10
245.14706608540769
 20
116.3830073963906
 30
0.0
 11
243.19706608540761
 21
116.3830073963906
 31
0.0
  0
ARC
  5
19C3A
  8
KI2
 10
246.14706608540769
 20
116.5830073963906
 30
0.0
 40
0.5
 50
270.0
 51
0.0
  0
LINE
  5
19C3B
  8
KI2
 10
246.64706608540769
 20
116.8830073963906
 30
0.0
 11
246.04706608540781
 21
116.8830073963906
 31
0.0
  0
LINE
  5
19C3C
  8
KI2
 10
245.44706608540761
 20
117.5830073963906
 30
0.0
 11
246.04706608540781
 21
116.8830073963906
 31
0.0
  0
LINE
  5
19C3D
  8
KI2
 10
246.8470660854077
 20
125.7830073963906
 30
0.0
 11
246.8470660854077
 21
122.3830073963906
 31
0.0
  0
LINE
  5
19C3E
  8
KI2
 10
244.04706608540781
 20
124.6844656521782
 30
0.0
 11
244.04706608540781
 21
123.0830073963906
 31
0.0
  0
ARC
  5
19C3F
  8
KI2
 10
239.54706608540781
 20
124.6844656521782
 30
0.0
 40
0.3
 50
0.0
 51
49.99999999999811
  0
LINE
  5
19C40
  8
KI2
 10
239.73990236831349
 20
124.9142789851138
 30
0.0
 11
238.3470660854075
 21
126.0830073963906
 31
0.0
  0
ARC
  5
19C41
  8
KI2
 10
239.7470660854076
 20
122.3330073963906
 30
0.0
 40
0.75
 50
90.0
 51
270.0
  0
LINE
  5
19C42
  8
KI2
 10
239.79550052167039
 20
121.2830073963906
 30
0.0
 11
239.79550052167039
 21
121.5830073963906
 31
0.0
  0
LINE
  5
19C43
  8
KI2
 10
239.79550052167039
 20
121.5830073963906
 30
0.0
 11
239.7470660854076
 21
121.5830073963906
 31
0.0
  0
LINE
  5
19C44
  8
KI2
 10
239.7470660854076
 20
123.0830073963906
 30
0.0
 11
239.8470660854077
 21
123.0830073963906
 31
0.0
  0
ARC
  5
19C45
  8
KI2
 10
241.94706608540761
 20
120.7830073963906
 30
0.0
 40
0.3
 50
270.0
 51
0.0
  0
LINE
  5
19C46
  8
KI2
 10
238.4470660854077
 20
118.9830073963906
 30
0.0
 11
238.4470660854077
 21
117.5830073963906
 31
0.0
  0
LINE
  5
19C47
  8
KI2
 10
240.29550052167039
 20
120.7830073963906
 30
0.0
 11
241.64706608540769
 21
120.7830073963906
 31
0.0
  0
POINT
  5
19C48
  8
KI2
 10
238.4470660854077
 20
118.46891912357501
 30
0.0
  0
ARC
  5
19C49
  8
KI2
 10
241.94706608540761
 20
120.7830073963906
 30
0.0
 40
0.3
 50
180.0
 51
270.0
  0
ARC
  5
19C4A
  8
KI2
 10
240.29550052167039
 20
121.2830073963906
 30
0.0
 40
0.5
 50
180.0
 51
270.0
  0
LINE
  5
19C4B
  8
KI2
 10
238.7470660854076
 20
116.3830073963906
 30
0.0
 11
240.6970660854077
 21
116.3830073963906
 31
0.0
  0
LINE
  5
19C4C
  8
KI2
 10
238.7470660854076
 20
116.3830073963906
 30
0.0
 11
238.4470660854077
 21
116.0830073963906
 31
0.0
  0
LINE
  5
19C4D
  8
KI2
 10
241.19706608540761
 20
117.0830073963906
 30
0.0
 11
240.6970660854077
 21
116.3830073963906
 31
0.0
  0
LINE
  5
19C4E
  8
KI2
 10
241.64706608540769
 20
117.0830073963906
 30
0.0
 11
241.19706608540761
 21
117.0830073963906
 31
0.0
  0
ARC
  5
19C4F
  8
KI2
 10
241.94706608540761
 20
117.0830073963906
 30
0.0
 40
0.3
 50
0.0
 51
90.0
  0
ARC
  5
19C50
  8
KI2
 10
241.94706608540761
 20
117.0830073963906
 30
0.0
 40
0.3
 50
90.0
 51
180.0
  0
LINE
  5
19C51
  8
KI2
 10
239.8470660854077
 20
124.6844656521782
 30
0.0
 11
239.8470660854077
 21
123.0830073963906
 31
0.0
  0
LINE
  5
19C52
  8
KI2
 10
242.2470660854076
 20
117.0830073963906
 30
0.0
 11
242.6970660854077
 21
117.0830073963906
 31
0.0
  0
LINE
  5
19C53
  8
KI2
 10
243.59863164914509
 20
120.7830073963906
 30
0.0
 11
242.2470660854076
 21
120.7830073963906
 31
0.0
  0
LINE
  5
19C54
  8
KI2
 10
201.3470660854077
 20
126.0830073963906
 30
0.0
 11
202.3470660854077
 21
126.0830073963906
 31
0.0
  0
LINE
  5
19C55
  8
KI2
 10
202.44706608540761
 20
118.9830073963906
 30
0.0
 11
201.3470660854077
 21
122.0230073963906
 31
0.0
  0
LINE
  5
19C56
  8
KI2
 10
201.7470660854076
 20
116.0830073963906
 30
0.0
 11
202.44706608540761
 21
116.0830073963906
 31
0.0
  0
LINE
  5
19C57
  8
KI2
 10
202.44706608540761
 20
117.5830073963906
 30
0.0
 11
201.8470660854077
 21
116.8830073963906
 31
0.0
  0
ARC
  5
19C58
  8
KI2
 10
201.3470660854077
 20
125.7830073963906
 30
0.0
 40
0.3
 50
90.0
 51
180.0
  0
LINE
  5
19C59
  8
KI2
 10
201.04706608540781
 20
122.3830073963906
 30
0.0
 11
201.3470660854077
 21
122.0230073963906
 31
0.0
  0
LINE
  5
19C5A
  8
KI2
 10
201.2470660854076
 20
116.8830073963906
 30
0.0
 11
201.2470660854076
 21
116.5830073963906
 31
0.0
  0
ARC
  5
19C5B
  8
KI2
 10
201.7470660854076
 20
116.5830073963906
 30
0.0
 40
0.5
 50
180.0
 51
270.0
  0
LINE
  5
19C5C
  8
KI2
 10
201.2470660854076
 20
116.8830073963906
 30
0.0
 11
201.8470660854077
 21
116.8830073963906
 31
0.0
  0
LINE
  5
19C5D
  8
KI2
 10
201.04706608540781
 20
125.7830073963906
 30
0.0
 11
201.04706608540781
 21
122.3830073963906
 31
0.0
  0
ARC
  5
19C5E
  8
KI2
 10
210.54706608540781
 20
125.7830073963906
 30
0.0
 40
0.3
 50
0.0
 51
90.0
  0
ARC
  5
19C5F
  8
KI2
 10
208.3470660854077
 20
124.6844656521782
 30
0.0
 40
0.3
 50
130.00000000000179
 51
180.0
  0
LINE
  5
19C60
  8
KI2
 10
208.1542298025017
 20
124.9142789851138
 30
0.0
 11
209.54706608540781
 21
126.0830073963906
 31
0.0
  0
LINE
  5
19C61
  8
KI2
 10
210.54706608540781
 20
126.0830073963906
 30
0.0
 11
209.54706608540781
 21
126.0830073963906
 31
0.0
  0
LINE
  5
19C62
  8
KI2
 10
210.8470660854077
 20
122.3830073963906
 30
0.0
 11
210.54706608540781
 21
122.0230073963906
 31
0.0
  0
ARC
  5
19C63
  8
KI2
 10
208.14706608540769
 20
122.3330073963906
 30
0.0
 40
0.75
 50
270.0
 51
90.0
  0
LINE
  5
19C64
  8
KI2
 10
208.09863164914509
 20
121.2830073963906
 30
0.0
 11
208.09863164914509
 21
121.5830073963906
 31
0.0
  0
LINE
  5
19C65
  8
KI2
 10
208.09863164914509
 20
121.5830073963906
 30
0.0
 11
208.14706608540769
 21
121.5830073963906
 31
0.0
  0
LINE
  5
19C66
  8
KI2
 10
208.14706608540769
 20
123.0830073963906
 30
0.0
 11
208.04706608540781
 21
123.0830073963906
 31
0.0
  0
LINE
  5
19C67
  8
KI2
 10
209.4470660854077
 20
118.9830073963906
 30
0.0
 11
209.4470660854077
 21
117.5830073963906
 31
0.0
  0
POINT
  5
19C68
  8
KI2
 10
209.4470660854077
 20
118.46891912357501
 30
0.0
  0
LINE
  5
19C69
  8
KI2
 10
209.4470660854077
 20
118.9830073963906
 30
0.0
 11
210.54706608540781
 21
122.0230073963906
 31
0.0
  0
ARC
  5
19C6A
  8
KI2
 10
207.59863164914509
 20
121.2830073963906
 30
0.0
 40
0.5
 50
270.0
 51
0.0
  0
LINE
  5
19C6B
  8
KI2
 10
210.64706608540769
 20
116.8830073963906
 30
0.0
 11
210.64706608540769
 21
116.5830073963906
 31
0.0
  0
LINE
  5
19C6C
  8
KI2
 10
210.14706608540769
 20
116.0830073963906
 30
0.0
 11
209.4470660854077
 21
116.0830073963906
 31
0.0
  0
LINE
  5
19C6D
  8
KI2
 10
209.14706608540769
 20
116.3830073963906
 30
0.0
 11
209.4470660854077
 21
116.0830073963906
 31
0.0
  0
LINE
  5
19C6E
  8
KI2
 10
206.69706608540761
 20
117.0830073963906
 30
0.0
 11
207.1970660854077
 21
116.3830073963906
 31
0.0
  0
LINE
  5
19C6F
  8
KI2
 10
209.14706608540769
 20
116.3830073963906
 30
0.0
 11
207.1970660854077
 21
116.3830073963906
 31
0.0
  0
ARC
  5
19C70
  8
KI2
 10
210.14706608540769
 20
116.5830073963906
 30
0.0
 40
0.5
 50
270.0
 51
0.0
  0
LINE
  5
19C71
  8
KI2
 10
210.64706608540769
 20
116.8830073963906
 30
0.0
 11
210.04706608540781
 21
116.8830073963906
 31
0.0
  0
LINE
  5
19C72
  8
KI2
 10
209.4470660854077
 20
117.5830073963906
 30
0.0
 11
210.04706608540781
 21
116.8830073963906
 31
0.0
  0
LINE
  5
19C73
  8
KI2
 10
210.8470660854077
 20
125.7830073963906
 30
0.0
 11
210.8470660854077
 21
122.3830073963906
 31
0.0
  0
LINE
  5
19C74
  8
KI2
 10
208.04706608540781
 20
124.6844656521782
 30
0.0
 11
208.04706608540781
 21
123.0830073963906
 31
0.0
  0
ARC
  5
19C75
  8
KI2
 10
203.54706608540781
 20
124.6844656521782
 30
0.0
 40
0.3
 50
0.0
 51
49.99999999999811
  0
LINE
  5
19C76
  8
KI2
 10
203.73990236831361
 20
124.9142789851138
 30
0.0
 11
202.3470660854075
 21
126.0830073963906
 31
0.0
  0
ARC
  5
19C77
  8
KI2
 10
203.7470660854076
 20
122.3330073963906
 30
0.0
 40
0.75
 50
90.0
 51
270.0
  0
LINE
  5
19C78
  8
KI2
 10
203.79550052167039
 20
121.2830073963906
 30
0.0
 11
203.79550052167039
 21
121.5830073963906
 31
0.0
  0
LINE
  5
19C79
  8
KI2
 10
203.79550052167039
 20
121.5830073963906
 30
0.0
 11
203.7470660854076
 21
121.5830073963906
 31
0.0
  0
LINE
  5
19C7A
  8
KI2
 10
203.7470660854076
 20
123.0830073963906
 30
0.0
 11
203.8470660854077
 21
123.0830073963906
 31
0.0
  0
ARC
  5
19C7B
  8
KI2
 10
205.94706608540761
 20
120.7830073963906
 30
0.0
 40
0.3
 50
270.0
 51
0.0
  0
LINE
  5
19C7C
  8
KI2
 10
202.44706608540761
 20
118.9830073963906
 30
0.0
 11
202.44706608540761
 21
117.5830073963906
 31
0.0
  0
LINE
  5
19C7D
  8
KI2
 10
204.29550052167039
 20
120.7830073963906
 30
0.0
 11
205.64706608540769
 21
120.7830073963906
 31
0.0
  0
POINT
  5
19C7E
  8
KI2
 10
202.44706608540761
 20
118.46891912357501
 30
0.0
  0
ARC
  5
19C7F
  8
KI2
 10
205.94706608540761
 20
120.7830073963906
 30
0.0
 40
0.3
 50
180.0
 51
270.0
  0
ARC
  5
19C80
  8
KI2
 10
204.29550052167039
 20
121.2830073963906
 30
0.0
 40
0.5
 50
180.0
 51
270.0
  0
LINE
  5
19C81
  8
KI2
 10
202.7470660854076
 20
116.3830073963906
 30
0.0
 11
204.69706608540761
 21
116.3830073963906
 31
0.0
  0
LINE
  5
19C82
  8
KI2
 10
202.7470660854076
 20
116.3830073963906
 30
0.0
 11
202.44706608540761
 21
116.0830073963906
 31
0.0
  0
LINE
  5
19C83
  8
KI2
 10
205.1970660854077
 20
117.0830073963906
 30
0.0
 11
204.69706608540761
 21
116.3830073963906
 31
0.0
  0
LINE
  5
19C84
  8
KI2
 10
205.64706608540769
 20
117.0830073963906
 30
0.0
 11
205.1970660854077
 21
117.0830073963906
 31
0.0
  0
ARC
  5
19C85
  8
KI2
 10
205.94706608540761
 20
117.0830073963906
 30
0.0
 40
0.3
 50
0.0
 51
90.0
  0
ARC
  5
19C86
  8
KI2
 10
205.94706608540761
 20
117.0830073963906
 30
0.0
 40
0.3
 50
90.0
 51
180.0
  0
LINE
  5
19C87
  8
KI2
 10
203.8470660854077
 20
124.6844656521782
 30
0.0
 11
203.8470660854077
 21
123.0830073963906
 31
0.0
  0
LINE
  5
19C88
  8
KI2
 10
206.2470660854076
 20
117.0830073963906
 30
0.0
 11
206.69706608540761
 21
117.0830073963906
 31
0.0
  0
LINE
  5
19C89
  8
KI2
 10
207.59863164914509
 20
120.7830073963906
 30
0.0
 11
206.2470660854076
 21
120.7830073963906
 31
0.0
  0
TEXT
  5
19E01
  8
MJ
 10
204.19305486693199
 20
55.783007487720852
 30
0.0
 40
7.0
  1
埋込みレール
 41
0.8299999999999999
 72
     4
 11
223.94705486693189
 21
59.283007487720852
 31
0.0
  0
TEXT
  5
19E22
  8
MJ
 10
204.8352952062248
 20
279.65186288284468
 30
0.0
 40
7.0
  1
直貼りレール
 41
0.8299999999999999
 72
     4
 11
224.58929520622479
 21
283.15186288284468
 31
0.0
  0
LINE
  5
1C764
  8
KI1
 10
1023.815969808193
 20
291.98474779943803
 30
0.0
 11
1023.815969808193
 21
258.98474875116329
 31
0.0
  0
LINE
  5
1C765
  8
KI2
 10
1023.8159777704331
 20
283.6847499648905
 30
0.0
 11
1023.8159777704331
 21
282.98474996489051
 31
0.0
  0
LINE
  5
1C766
  8
KI2
 10
1029.815973805597
 20
283.6847499648905
 30
0.0
 11
1023.8159777704331
 21
283.6847499648905
 31
0.0
  0
LINE
  5
1C767
  8
KI2
 10
1029.815973805597
 20
282.98474996489051
 30
0.0
 11
1023.8159777704331
 21
282.98474996489051
 31
0.0
  0
LINE
  5
1C768
  8
KI2
 10
1023.815972451759
 20
267.98474996489028
 30
0.0
 11
1023.8159722825289
 21
267.28474996489052
 31
0.0
  0
LINE
  5
1C769
  8
KI2
 10
1023.8159722825289
 20
267.28474996489052
 30
0.0
 11
1029.8159730803229
 21
267.28474851434078
 31
0.0
  0
LINE
  5
1C76A
  8
KI2
 10
1023.815972451759
 20
267.98474996489028
 30
0.0
 11
1029.8159732495531
 21
267.98474851434082
 31
0.0
  0
LINE
  5
1C76B
  8
KI2
 10
1032.815973805597
 20
270.28474851434078
 30
0.0
 11
1032.815973805597
 21
280.68474996489061
 31
0.0
  0
LINE
  5
1C76C
  8
KI2
 10
1032.1159738055969
 20
270.28474851434078
 30
0.0
 11
1032.1159738055969
 21
280.68474996489061
 31
0.0
  0
ARC
  5
1C76D
  8
KI2
 10
1029.815973805597
 20
280.68474996489061
 30
0.0
 40
3.0
 50
0.0
 51
90.0
1001
GENIUS_GENODEF_13
1002
{
1000
HIER
1070
     0
1002
}
1002
{
1000
MANEDIT
1070
     0
1002
}
1002
{
1000
NOSEL
1070
     0
1002
}
1002
{
1000
BEHIND
1070
     0
1002
}
1002
{
1000
OTHER
1070
     0
1002
}
1002
{
1000
REACTOR
1002
}
1001
GENIUS_GENOBJ-N-FIL_13
1002
{
1000
OWNER
1000
GEN
1002
}
  0
ARC
  5
1C76E
  8
KI2
 10
1029.815973805597
 20
280.68474996489061
 30
0.0
 40
2.2999999999999989
 50
0.0
 51
90.0
1001
GENIUS_GENODEF_13
1002
{
1000
HIER
1070
     0
1002
}
1002
{
1000
MANEDIT
1070
     0
1002
}
1002
{
1000
NOSEL
1070
     0
1002
}
1002
{
1000
BEHIND
1070
     0
1002
}
1002
{
1000
OTHER
1070
     0
1002
}
1002
{
1000
REACTOR
1002
}
1001
GENIUS_GENOBJ-N-FIL_13
1002
{
1000
OWNER
1000
GEN
1002
}
  0
ARC
  5
1C76F
  8
KI2
 10
1029.815973805597
 20
270.28474851434078
 30
0.0
 40
3.0
 50
269.99998614827302
 51
0.0
1001
GENIUS_GENODEF_13
1002
{
1000
HIER
1070
     0
1002
}
1002
{
1000
MANEDIT
1070
     0
1002
}
1002
{
1000
NOSEL
1070
     0
1002
}
1002
{
1000
BEHIND
1070
     0
1002
}
1002
{
1000
OTHER
1070
     0
1002
}
1002
{
1000
REACTOR
1002
}
1001
GENIUS_GENOBJ-N-FIL_13
1002
{
1000
OWNER
1000
GEN
1002
}
  0
ARC
  5
1C770
  8
KI2
 10
1029.815973805597
 20
270.28474851434078
 30
0.0
 40
2.2999999999999989
 50
269.99998614827302
 51
0.0
1001
GENIUS_GENODEF_13
1002
{
1000
HIER
1070
     0
1002
}
1002
{
1000
MANEDIT
1070
     0
1002
}
1002
{
1000
NOSEL
1070
     0
1002
}
1002
{
1000
BEHIND
1070
     0
1002
}
1002
{
1000
OTHER
1070
     0
1002
}
1002
{
1000
REACTOR
1002
}
1001
GENIUS_GENOBJ-N-FIL_13
1002
{
1000
OWNER
1000
GEN
1002
}
  0
LINE
  5
1C771
  8
OS
 10
1045.3159698081929
 20
391.98474779943518
 30
0.0
 11
1045.3159698081929
 21
237.98474779943521
 31
0.0
  0
LINE
  5
1C772
  8
OS
 10
1043.3159698081929
 20
391.98474779943518
 30
0.0
 11
1043.3159698081929
 21
237.98474779943521
 31
0.0
  0
LINE
  5
1C773
  8
OS
 10
1032.815969808194
 20
391.98474779943518
 30
0.0
 11
1032.815969808194
 21
237.98474779943521
 31
0.0
  0
LINE
  5
1C774
  8
OS
 10
1026.8159698081929
 20
397.98474779943518
 30
0.0
 11
1026.8159698081929
 21
231.98474779943521
 31
0.0
  0
LINE
  5
1C775
  8
OS
 10
1034.8159698081929
 20
391.98474779943518
 30
0.0
 11
1034.8159698081929
 21
237.98474779943521
 31
0.0
  0
LINE
  5
1C776
  8
OS
 10
1045.3159698081929
 20
367.48474779943518
 30
0.0
 11
1091.315972256722
 21
321.48467815573758
 31
0.0
  0
LINE
  5
1C777
  8
OS
 10
1091.315972256722
 20
239.98474779943521
 30
0.0
 11
1045.3159698081929
 21
239.98474779943521
 31
0.0
  0
LINE
  5
1C778
  8
OS
 10
1091.315972256722
 20
237.98474779943521
 30
0.0
 11
1032.815969808194
 21
237.98474779943521
 31
0.0
  0
LINE
  5
1C779
  8
OS
 10
1091.315972256722
 20
231.98474779943521
 30
0.0
 11
1026.8159698081929
 21
231.98474779943521
 31
0.0
  0
LINE
  5
1C77A
  8
OS
 10
1091.315972256722
 20
308.48492125943608
 30
0.0
 11
1045.3159698081929
 21
262.48474779943518
 31
0.0
  0
LINE
  5
1C77B
  8
OS
 10
1091.315972256722
 20
248.48474779943521
 30
0.0
 11
1045.3159698081929
 21
248.48474779943521
 31
0.0
  0
LINE
  5
1C77C
  8
OS
 10
1091.315972256722
 20
250.48474779943521
 30
0.0
 11
1045.3159698081929
 21
250.48474779943521
 31
0.0
  0
LINE
  5
1C77D
  8
OS
 10
1091.315972256722
 20
262.48474779943518
 30
0.0
 11
1045.3159698081929
 21
262.48474779943518
 31
0.0
  0
LINE
  5
1C77E
  8
OS
 10
1091.315972256722
 20
389.98474779943518
 30
0.0
 11
1045.3159698081929
 21
389.98474779943518
 31
0.0
  0
LINE
  5
1C77F
  8
OS
 10
1091.315972256722
 20
391.98474779943518
 30
0.0
 11
1032.815969808194
 21
391.98474779943518
 31
0.0
  0
LINE
  5
1C780
  8
OS
 10
1091.315972256722
 20
397.98474779943518
 30
0.0
 11
1026.8159698081929
 21
397.98474779943518
 31
0.0
  0
LINE
  5
1C781
  8
OS
 10
1091.315972256722
 20
381.48474779943518
 30
0.0
 11
1045.3159698081929
 21
381.48474779943518
 31
0.0
  0
LINE
  5
1C782
  8
OS
 10
1091.315972256722
 20
379.48474779943518
 30
0.0
 11
1045.3159698081929
 21
379.48474779943518
 31
0.0
  0
LINE
  5
1C783
  8
OS
 10
1091.315972256722
 20
367.48474779943518
 30
0.0
 11
1045.3159698081929
 21
367.48474779943518
 31
0.0
  0
TEXT
  5
1C784
  8
SU
 10
1081.853813639907
 20
415.86158451676732
 30
0.0
 40
7.9999999999999982
  1
巾木
 41
0.9
  0
LINE
  5
1C785
  8
SU
 10
1071.3845155083191
 20
396.79939163974461
 30
0.0
 11
1069.5480011680841
 21
394.37509481837373
 31
0.0
  0
LINE
  5
1C786
  8
SU
 10
1070.498986034348
 20
397.26397484082798
 30
0.0
 11
1069.5480011680841
 21
394.37509481837373
 31
0.0
  0
LINE
  5
1C787
  8
SU
 10
1069.5480011680841
 20
394.37509481837373
 30
0.0
 11
1070.941750771334
 21
397.03168324028633
 31
0.0
  0
LINE
  5
1C788
  8
SU
 10
1070.941750771334
 20
397.03168324028633
 30
0.0
 11
1079.5564178127761
 21
413.45186708648112
 31
0.0
1001
ACAD
1000
DSTYLE
1002
{
1070
   371
1070
    13
1070
   176
1070
   256
1070
    41
1040
1.5
1070
   147
1040
1.0
1070
    77
1070
     0
1002
}
  0
LINE
  5
1C789
  8
SU
 10
1079.5564178127761
 20
413.45186708648112
 30
0.0
 11
1100.918080499076
 21
413.45186708648112
 31
0.0
1001
ACAD
1000
DSTYLE
1002
{
1070
   371
1070
    13
1070
   176
1070
   256
1070
    41
1040
1.5
1070
   147
1040
1.0
1070
    77
1070
     0
1002
}
  0
LINE
  5
1C78B
  8
KI2
 10
1023.815969808193
 20
265.4847490003981
 30
0.0
 11
1026.8159698081929
 21
265.48474900039798
 31
0.0
  0
LINE
  5
1C7D8
  8
PH
 10
759.81597380559776
 20
283.68474996489078
 30
0.0
 11
753.81597777043362
 21
283.68474996489078
 31
0.0
  0
LINE
  5
1C7D9
  8
PH
 10
759.81597380559776
 20
282.9847499648908
 30
0.0
 11
753.81597777043362
 21
282.9847499648908
 31
0.0
  0
LINE
  5
1C7DA
  8
PH
 10
753.81597245176044
 20
267.98474996489051
 30
0.0
 11
753.81597228252986
 21
267.28474996489069
 31
0.0
  0
LINE
  5
1C7DB
  8
PH
 10
753.81597228252986
 20
267.28474996489069
 30
0.0
 11
759.81597308032315
 21
267.284748514341
 31
0.0
  0
LINE
  5
1C7DC
  8
PH
 10
753.81597245176044
 20
267.98474996489051
 30
0.0
 11
759.81597324955374
 21
267.98474851434099
 31
0.0
  0
LINE
  5
1C7DD
  8
PH
 10
762.81597380559788
 20
270.284748514341
 30
0.0
 11
762.81597380559788
 21
280.68474996489078
 31
0.0
  0
LINE
  5
1C7DE
  8
PH
 10
762.11597380559795
 20
270.284748514341
 30
0.0
 11
762.11597380559795
 21
280.68474996489078
 31
0.0
  0
ARC
  5
1C7DF
  8
PH
 10
759.81597380559776
 20
280.68474996489078
 30
0.0
 40
3.0
 50
0.0
 51
90.0
1001
GENIUS_GENODEF_13
1002
{
1000
HIER
1070
     0
1002
}
1002
{
1000
MANEDIT
1070
     0
1002
}
1002
{
1000
NOSEL
1070
     0
1002
}
1002
{
1000
BEHIND
1070
     0
1002
}
1002
{
1000
OTHER
1070
     0
1002
}
1002
{
1000
REACTOR
1002
}
1001
GENIUS_GENOBJ-N-FIL_13
1002
{
1000
OWNER
1000
GEN
1002
}
  0
ARC
  5
1C7E0
  8
PH
 10
759.81597380559776
 20
280.68474996489078
 30
0.0
 40
2.2999999999999989
 50
0.0
 51
90.0
1001
GENIUS_GENODEF_13
1002
{
1000
HIER
1070
     0
1002
}
1002
{
1000
MANEDIT
1070
     0
1002
}
1002
{
1000
NOSEL
1070
     0
1002
}
1002
{
1000
BEHIND
1070
     0
1002
}
1002
{
1000
OTHER
1070
     0
1002
}
1002
{
1000
REACTOR
1002
}
1001
GENIUS_GENOBJ-N-FIL_13
1002
{
1000
OWNER
1000
GEN
1002
}
  0
ARC
  5
1C7E1
  8
PH
 10
759.81597380559776
 20
270.284748514341
 30
0.0
 40
3.0
 50
269.99998614827302
 51
0.0
1001
GENIUS_GENODEF_13
1002
{
1000
HIER
1070
     0
1002
}
1002
{
1000
MANEDIT
1070
     0
1002
}
1002
{
1000
NOSEL
1070
     0
1002
}
1002
{
1000
BEHIND
1070
     0
1002
}
1002
{
1000
OTHER
1070
     0
1002
}
1002
{
1000
REACTOR
1002
}
1001
GENIUS_GENOBJ-N-FIL_13
1002
{
1000
OWNER
1000
GEN
1002
}
  0
ARC
  5
1C7E2
  8
PH
 10
759.81597380559776
 20
270.284748514341
 30
0.0
 40
2.2999999999999989
 50
269.99998614827302
 51
0.0
1001
GENIUS_GENODEF_13
1002
{
1000
HIER
1070
     0
1002
}
1002
{
1000
MANEDIT
1070
     0
1002
}
1002
{
1000
NOSEL
1070
     0
1002
}
1002
{
1000
BEHIND
1070
     0
1002
}
1002
{
1000
OTHER
1070
     0
1002
}
1002
{
1000
REACTOR
1002
}
1001
GENIUS_GENOBJ-N-FIL_13
1002
{
1000
OWNER
1000
GEN
1002
}
  0
LINE
  5
1C93E
  8
OS
 10
80.447110634857836
 20
316.10574394672591
 30
0.0
 11
324.44711063485778
 21
316.10574394672591
 31
0.0
  0
LINE
  5
1C93F
  8
KI1
 10
94.947110634858504
 20
335.89997258078489
 30
0.0
 11
90.447110634858518
 21
328.10574394672477
 31
0.0
  0
LINE
  5
1C940
  8
KI1
 10
85.947110634858504
 20
335.89997258078489
 30
0.0
 11
94.947110634858504
 21
335.89997258078489
 31
0.0
  0
LINE
  5
1C941
  8
OS
 10
80.447110634857836
 20
318.10574394672591
 30
0.0
 11
324.44711063485778
 21
318.10574394672591
 31
0.0
  0
LINE
  5
1C942
  8
OS
 10
80.447110634857836
 20
322.10574394672591
 30
0.0
 11
324.44711063485778
 21
322.10574394672591
 31
0.0
  0
LINE
  5
1C943
  8
OS
 10
80.447110634857836
 20
326.10574394672591
 30
0.0
 11
324.44711063485778
 21
326.10574394672591
 31
0.0
  0
LINE
  5
1C944
  8
KI1
 10
90.447110634858518
 20
328.10574394672477
 30
0.0
 11
85.947110634858504
 21
335.89997258078489
 31
0.0
  0
LINE
  5
1C945
  8
OS
 10
80.447110634857836
 20
320.10574394672591
 30
0.0
 11
324.44711063485778
 21
320.10574394672551
 31
0.0
  0
LINE
  5
1C946
  8
OS
 10
80.447110634857836
 20
324.10574394672591
 30
0.0
 11
324.44711063485778
 21
324.10574394672591
 31
0.0
  0
LINE
  5
1C947
  8
OS
 10
80.447110634857836
 20
328.10574394672591
 30
0.0
 11
324.44711063485778
 21
328.10574394672591
 31
0.0
  0
TEXT
  5
1C948
  8
OS
 10
84.814967777715665
 20
340.13204394142292
 30
0.0
 40
7.5
  1
FL
 41
0.8299999999999999
 72
     1
 11
90.447110634858518
 21
340.13204394142292
 31
0.0
 73
     1
  0
LINE
  5
1C9E3
  8
KI1
 10
94.947110634858504
 20
132.0772361217798
 30
0.0
 11
90.447110634858518
 21
124.2830074877197
 31
0.0
  0
LINE
  5
1C9E4
  8
KI1
 10
85.947110634858504
 20
132.0772361217798
 30
0.0
 11
94.947110634858504
 21
132.0772361217798
 31
0.0
  0
LINE
  5
1C9E5
  8
KI1
 10
90.447110634858518
 20
124.2830074877197
 30
0.0
 11
85.947110634858504
 21
132.0772361217798
 31
0.0
  0
TEXT
  5
1C9E6
  8
OS
 10
84.814967777715665
 20
136.30930748241781
 30
0.0
 40
7.5
  1
FL
 41
0.8299999999999999
 72
     1
 11
90.447110634858518
 21
136.30930748241781
 31
0.0
 73
     1
  0
LINE
  5
1CC4A
  8
SU
 10
753.81596980819404
 20
392.9847477994353
 30
0.0
 11
753.81596980819404
 21
442.98474779943541
 31
0.0
  0
LINE
  5
1CC4B
  8
SU
 10
762.81597380559788
 20
439.98474779943541
 30
0.0
 11
753.81596980819404
 21
439.98474779943541
 31
0.0
  0
LINE
  5
1CC4E
  8
SU
 10
1026.815969808194
 20
398.98474779943541
 30
0.0
 11
1026.815969808194
 21
442.98474779943541
 31
0.0
  0
LINE
  5
1CC4F
  8
SU
 10
762.81597380559788
 20
281.68474996489078
 30
0.0
 11
762.81597380559788
 21
442.98474779943541
 31
0.0
  0
LINE
  5
1CC50
  8
SU
 10
1026.815969808194
 20
439.98474779943541
 30
0.0
 11
762.81597380559788
 21
439.98474779943541
 31
0.0
  0
LINE
  5
1CC54
  8
SU
 10
1023.815969808193
 20
190.98474779943501
 30
0.0
 11
1032.815969808194
 21
190.98474779943501
 31
0.0
  0
LINE
  5
1CC57
  8
SU
 10
258.44703725171303
 20
626.10574442541451
 30
0.0
 11
258.44703725171303
 21
574.10574394563082
 31
0.0
  0
LINE
  5
1CC58
  8
SU
 10
262.79698270684929
 20
623.10574424387642
 30
0.0
 11
262.79698270684929
 21
574.10574394563082
 31
0.0
  0
LINE
  5
1CC59
  8
SU
 10
258.44703725171303
 20
577.10574394563082
 30
0.0
 11
262.79698270684929
 21
577.10574394563082
 31
0.0
  0
LINE
  5
1CC5A
  8
SU
 10
262.79698270684929
 20
577.10574394563082
 30
0.0
 11
287.44698270684938
 21
577.10574394563082
 31
0.0
  0
LINE
  5
1CC5E
  8
SU
 10
325.44711063485778
 20
124.28300748772079
 30
0.0
 11
387.4471106348563
 21
124.28300748772079
 31
0.0
  0
LINE
  5
1CC5F
  8
SU
 10
384.44711063485641
 20
244.28300748772079
 30
0.0
 11
384.4471106348563
 21
124.28300748772079
 31
0.0
  0
LINE
  5
1CC61
  8
SU
 10
259.44704608547841
 20
131.28300748772079
 30
0.0
 11
367.44711063485659
 21
131.28300748772079
 31
0.0
  0
LINE
  5
1CC62
  8
SU
 10
364.4471106348567
 20
131.28300748772079
 30
0.0
 11
364.4471106348567
 21
244.28300748772079
 31
0.0
  0
LINE
  5
1CC66
  8
SU
 10
180.447046085409
 20
123.28300748772079
 30
0.0
 11
180.447046085409
 21
68.044736933131816
 31
0.0
  0
LINE
  5
1CC67
  8
SU
 10
197.447046085409
 20
71.044736933131816
 30
0.0
 11
180.447046085409
 21
71.044736933131816
 31
0.0
  0
LINE
  5
1CC6B
  8
SU
 10
256.94706608540741
 20
126.88300739639089
 30
0.0
 11
347.44711063485778
 21
126.88300739639089
 31
0.0
  0
LINE
  5
1CC6C
  8
SU
 10
344.44711063485778
 20
124.28300748772079
 30
0.0
 11
344.44711063485778
 21
114.6830074877208
 31
0.0
  0
LINE
  5
1CC6D
  8
SU
 10
344.44711063485778
 20
126.88300739639089
 30
0.0
 11
344.44711063485789
 21
160.8563407297242
 31
0.0
  0
LINE
  5
1CC6E
  8
SU
 10
344.44711063485778
 20
124.28300748772079
 30
0.0
 11
344.44711063485778
 21
126.88300739639089
 31
0.0
  0
LINE
  5
1CC72
  8
SU
 10
364.4471106348567
 20
636.60574418643648
 30
0.0
 11
364.4471106348567
 21
627.10574520988223
 31
0.0
  0
LINE
  5
1CC75
  8
SU
 10
225.4470385188024
 20
577.10574394563082
 30
0.0
 11
258.44703851880257
 21
577.10574394563082
 31
0.0
  0
LINE
  5
1CC77
  8
SU
 10
189.4470385188024
 20
577.10574394563082
 30
0.0
 11
222.44703730372731
 21
577.10574394563082
 31
0.0
  0
LINE
  5
1CC79
  8
SU
 10
1022.815969808194
 20
164.9847477994353
 30
0.0
 11
1032.815969808194
 21
170.9847477994353
 31
0.0
  0
LINE
  5
1CC7A
  8
SU
 10
1022.815969808194
 20
176.9847477994353
 30
0.0
 11
1032.815969808194
 21
170.9847477994353
 31
0.0
  0
LINE
  5
1CC7B
  8
SU
 10
1022.815969808194
 20
164.9847477994353
 30
0.0
 11
1022.815969808194
 21
176.9847477994353
 31
0.0
  0
LINE
  5
1CC7C
  8
SU
 10
1032.7482418636259
 20
170.94411103269471
 30
0.0
 11
1032.7482418636259
 21
171.0253845661756
 31
0.0
  0
LINE
  5
1CC7D
  8
SU
 10
1032.5482418636259
 20
170.82411103269479
 30
0.0
 11
1032.5482418636259
 21
171.14538456617549
 31
0.0
  0
LINE
  5
1CC7E
  8
SU
 10
1032.3482418636261
 20
170.7041110326947
 30
0.0
 11
1032.3482418636261
 21
171.2653845661757
 31
0.0
  0
LINE
  5
1CC7F
  8
SU
 10
1032.148241863626
 20
170.58411103269481
 30
0.0
 11
1032.148241863626
 21
171.3853845661757
 31
0.0
  0
LINE
  5
1CC80
  8
SU
 10
1031.948241863626
 20
170.46411103269489
 30
0.0
 11
1031.948241863626
 21
171.50538456617559
 31
0.0
  0
LINE
  5
1CC81
  8
SU
 10
1031.7482418636259
 20
170.3441110326948
 30
0.0
 11
1031.7482418636259
 21
171.62538456617551
 31
0.0
  0
LINE
  5
1CC82
  8
SU
 10
1031.5482418636259
 20
170.22411103269471
 30
0.0
 11
1031.5482418636259
 21
171.74538456617569
 31
0.0
  0
LINE
  5
1CC83
  8
SU
 10
1031.3482418636261
 20
170.10411103269479
 30
0.0
 11
1031.3482418636261
 21
171.86538456617581
 31
0.0
  0
LINE
  5
1CC84
  8
SU
 10
1031.148241863626
 20
169.9841110326949
 30
0.0
 11
1031.148241863626
 21
171.9853845661757
 31
0.0
  0
LINE
  5
1CC85
  8
SU
 10
1030.948241863626
 20
169.86411103269501
 30
0.0
 11
1030.948241863626
 21
172.10538456617559
 31
0.0
  0
LINE
  5
1CC86
  8
SU
 10
1030.7482418636259
 20
169.7441110326946
 30
0.0
 11
1030.7482418636259
 21
172.22538456617571
 31
0.0
  0
LINE
  5
1CC87
  8
SU
 10
1030.5482418636259
 20
169.62411103269471
 30
0.0
 11
1030.5482418636259
 21
172.3453845661758
 31
0.0
  0
LINE
  5
1CC88
  8
SU
 10
1030.3482418636261
 20
169.50411103269491
 30
0.0
 11
1030.3482418636261
 21
172.46538456617569
 31
0.0
  0
LINE
  5
1CC89
  8
SU
 10
1030.148241863626
 20
169.3841110326947
 30
0.0
 11
1030.148241863626
 21
172.58538456617561
 31
0.0
  0
LINE
  5
1CC8A
  8
SU
 10
1029.948241863626
 20
169.26411103269481
 30
0.0
 11
1029.948241863626
 21
172.7053845661757
 31
0.0
  0
LINE
  5
1CC8B
  8
SU
 10
1029.7482418636259
 20
169.1441110326947
 30
0.0
 11
1029.7482418636259
 21
172.82538456617559
 31
0.0
  0
LINE
  5
1CC8C
  8
SU
 10
1029.548241863627
 20
169.0241110326948
 30
0.0
 11
1029.548241863627
 21
172.9453845661757
 31
0.0
  0
LINE
  5
1CC8D
  8
SU
 10
1029.3482418636261
 20
168.90411103269469
 30
0.0
 11
1029.3482418636261
 21
173.0653845661756
 31
0.0
  0
LINE
  5
1CC8E
  8
SU
 10
1029.148241863626
 20
168.7841110326948
 30
0.0
 11
1029.148241863626
 21
173.18538456617571
 31
0.0
  0
LINE
  5
1CC8F
  8
SU
 10
1028.948241863626
 20
168.66411103269471
 30
0.0
 11
1028.948241863626
 21
173.3053845661756
 31
0.0
  0
LINE
  5
1CC90
  8
SU
 10
1028.7482418636259
 20
168.54411103269479
 30
0.0
 11
1028.7482418636259
 21
173.42538456617569
 31
0.0
  0
LINE
  5
1CC91
  8
SU
 10
1028.5482418636259
 20
168.4241110326949
 30
0.0
 11
1028.5482418636259
 21
173.54538456617561
 31
0.0
  0
LINE
  5
1CC92
  8
SU
 10
1028.3482418636261
 20
168.30411103269481
 30
0.0
 11
1028.3482418636261
 21
173.6653845661757
 31
0.0
  0
LINE
  5
1CC93
  8
SU
 10
1028.148241863626
 20
168.18411103269469
 30
0.0
 11
1028.148241863626
 21
173.78538456617559
 31
0.0
  0
LINE
  5
1CC94
  8
SU
 10
1027.948241863626
 20
168.0641110326948
 30
0.0
 11
1027.948241863626
 21
173.90538456617571
 31
0.0
  0
LINE
  5
1CC95
  8
SU
 10
1027.7482418636259
 20
167.94411103269471
 30
0.0
 11
1027.7482418636259
 21
174.0253845661756
 31
0.0
  0
LINE
  5
1CC96
  8
SU
 10
1027.5482418636259
 20
167.82411103269479
 30
0.0
 11
1027.5482418636259
 21
174.14538456617549
 31
0.0
  0
LINE
  5
1CC97
  8
SU
 10
1027.3482418636261
 20
167.7041110326947
 30
0.0
 11
1027.3482418636261
 21
174.26538456617561
 31
0.0
  0
LINE
  5
1CC98
  8
SU
 10
1027.148241863626
 20
167.58411103269481
 30
0.0
 11
1027.148241863626
 21
174.38538456617579
 31
0.0
  0
LINE
  5
1CC99
  8
SU
 10
1026.948241863626
 20
167.46411103269489
 30
0.0
 11
1026.948241863626
 21
174.50538456617571
 31
0.0
  0
LINE
  5
1CC9A
  8
SU
 10
1026.7482418636259
 20
167.3441110326948
 30
0.0
 11
1026.7482418636259
 21
174.6253845661756
 31
0.0
  0
LINE
  5
1CC9B
  8
SU
 10
1026.5482418636259
 20
167.22411103269471
 30
0.0
 11
1026.5482418636259
 21
174.74538456617569
 31
0.0
  0
LINE
  5
1CC9C
  8
SU
 10
1026.3482418636261
 20
167.10411103269479
 30
0.0
 11
1026.3482418636261
 21
174.86538456617581
 31
0.0
  0
LINE
  5
1CC9D
  8
SU
 10
1026.148241863626
 20
166.9841110326949
 30
0.0
 11
1026.148241863626
 21
174.9853845661757
 31
0.0
  0
LINE
  5
1CC9E
  8
SU
 10
1025.948241863626
 20
166.86411103269501
 30
0.0
 11
1025.948241863626
 21
175.10538456617559
 31
0.0
  0
LINE
  5
1CC9F
  8
SU
 10
1025.7482418636259
 20
166.7441110326946
 30
0.0
 11
1025.7482418636259
 21
175.22538456617571
 31
0.0
  0
LINE
  5
1CCA0
  8
SU
 10
1025.5482418636259
 20
166.62411103269471
 30
0.0
 11
1025.5482418636259
 21
175.3453845661758
 31
0.0
  0
LINE
  5
1CCA1
  8
SU
 10
1025.3482418636261
 20
166.50411103269491
 30
0.0
 11
1025.3482418636261
 21
175.46538456617569
 31
0.0
  0
LINE
  5
1CCA2
  8
SU
 10
1025.148241863626
 20
166.3841110326947
 30
0.0
 11
1025.148241863626
 21
175.58538456617561
 31
0.0
  0
LINE
  5
1CCA3
  8
SU
 10
1024.948241863626
 20
166.26411103269481
 30
0.0
 11
1024.948241863626
 21
175.7053845661757
 31
0.0
  0
LINE
  5
1CCA4
  8
SU
 10
1024.7482418636259
 20
166.1441110326947
 30
0.0
 11
1024.7482418636259
 21
175.82538456617559
 31
0.0
  0
LINE
  5
1CCA5
  8
SU
 10
1024.5482418636259
 20
166.0241110326948
 30
0.0
 11
1024.5482418636259
 21
175.9453845661757
 31
0.0
  0
LINE
  5
1CCA6
  8
SU
 10
1024.3482418636261
 20
165.90411103269469
 30
0.0
 11
1024.3482418636261
 21
176.0653845661756
 31
0.0
  0
LINE
  5
1CCA7
  8
SU
 10
1024.148241863626
 20
165.7841110326948
 30
0.0
 11
1024.148241863626
 21
176.18538456617571
 31
0.0
  0
LINE
  5
1CCA8
  8
SU
 10
1023.948241863626
 20
165.66411103269471
 30
0.0
 11
1023.948241863626
 21
176.3053845661756
 31
0.0
  0
LINE
  5
1CCA9
  8
SU
 10
1023.748241863626
 20
165.54411103269479
 30
0.0
 11
1023.748241863626
 21
176.42538456617569
 31
0.0
  0
LINE
  5
1CCAA
  8
SU
 10
1023.548241863626
 20
165.4241110326949
 30
0.0
 11
1023.548241863626
 21
176.54538456617561
 31
0.0
  0
LINE
  5
1CCAB
  8
SU
 10
1023.348241863626
 20
165.30411103269481
 30
0.0
 11
1023.348241863626
 21
176.6653845661757
 31
0.0
  0
LINE
  5
1CCAC
  8
SU
 10
1023.148241863626
 20
165.18411103269469
 30
0.0
 11
1023.148241863626
 21
176.78538456617559
 31
0.0
  0
LINE
  5
1CCAD
  8
SU
 10
1022.948241863626
 20
165.0641110326948
 30
0.0
 11
1022.948241863626
 21
176.90538456617571
 31
0.0
  0
LINE
  5
1CCAE
  8
SU
 10
390.44711063485641
 20
654.10574354355197
 30
0.0
 11
384.44711063485641
 21
664.10574354355197
 31
0.0
  0
LINE
  5
1CCAF
  8
SU
 10
378.44711063485641
 20
654.10574354355197
 30
0.0
 11
384.44711063485641
 21
664.10574354355197
 31
0.0
  0
LINE
  5
1CCB0
  8
SU
 10
390.44711063485641
 20
654.10574354355197
 30
0.0
 11
378.44711063485641
 21
654.10574354355197
 31
0.0
  0
LINE
  5
1CCB1
  8
SU
 10
384.48774740159689
 20
664.03801559898477
 30
0.0
 11
384.406473868116
 21
664.03801559898477
 31
0.0
  0
LINE
  5
1CCB2
  8
SU
 10
384.60774740159678
 20
663.83801559898495
 30
0.0
 11
384.2864738681161
 21
663.83801559898495
 31
0.0
  0
LINE
  5
1CCB3
  8
SU
 10
384.72774740159701
 20
663.63801559898468
 30
0.0
 11
384.16647386811599
 21
663.63801559898468
 31
0.0
  0
LINE
  5
1CCB4
  8
SU
 10
384.84774740159679
 20
663.43801559898486
 30
0.0
 11
384.04647386811592
 21
663.43801559898486
 31
0.0
  0
LINE
  5
1CCB5
  8
SU
 10
384.96774740159668
 20
663.2380155989847
 30
0.0
 11
383.92647386811598
 21
663.2380155989847
 31
0.0
  0
LINE
  5
1CCB6
  8
SU
 10
385.08774740159691
 20
663.03801559898488
 30
0.0
 11
383.80647386811609
 21
663.03801559898488
 31
0.0
  0
LINE
  5
1CCB7
  8
SU
 10
385.20774740159698
 20
662.83801559898507
 30
0.0
 11
383.68647386811602
 21
662.83801559898507
 31
0.0
  0
LINE
  5
1CCB8
  8
SU
 10
385.32774740159681
 20
662.63801559898468
 30
0.0
 11
383.56647386811579
 21
662.63801559898468
 31
0.0
  0
LINE
  5
1CCB9
  8
SU
 10
385.4477474015967
 20
662.43801559898486
 30
0.0
 11
383.4464738681159
 21
662.43801559898486
 31
0.0
  0
LINE
  5
1CCBA
  8
SU
 10
385.56774740159659
 20
662.2380155989847
 30
0.0
 11
383.32647386811612
 21
662.2380155989847
 31
0.0
  0
LINE
  5
1CCBB
  8
SU
 10
385.68774740159699
 20
662.03801559898488
 30
0.0
 11
383.20647386811601
 21
662.03801559898488
 31
0.0
  0
LINE
  5
1CCBC
  8
SU
 10
385.80774740159688
 20
661.83801559898495
 30
0.0
 11
383.08647386811577
 21
661.83801559898495
 31
0.0
  0
LINE
  5
1CCBD
  8
SU
 10
385.92774740159678
 20
661.63801559898479
 30
0.0
 11
382.96647386811588
 21
661.63801559898479
 31
0.0
  0
LINE
  5
1CCBE
  8
SU
 10
386.04774740159689
 20
661.43801559898498
 30
0.0
 11
382.84647386811599
 21
661.43801559898498
 31
0.0
  0
LINE
  5
1CCBF
  8
SU
 10
386.16774740159678
 20
661.23801559898459
 30
0.0
 11
382.72647386811587
 21
661.23801559898459
 31
0.0
  0
LINE
  5
1CCC0
  8
SU
 10
386.2877474015969
 20
661.03801559898477
 30
0.0
 11
382.60647386811598
 21
661.03801559898477
 31
0.0
  0
LINE
  5
1CCC1
  8
SU
 10
386.40774740159679
 20
660.83801559898495
 30
0.0
 11
382.48647386811592
 21
660.83801559898495
 31
0.0
  0
LINE
  5
1CCC2
  8
SU
 10
386.52774740159691
 20
660.63801559898479
 30
0.0
 11
382.36647386811597
 21
660.63801559898479
 31
0.0
  0
LINE
  5
1CCC3
  8
SU
 10
386.6477474015968
 20
660.43801559898498
 30
0.0
 11
382.24647386811591
 21
660.43801559898498
 31
0.0
  0
LINE
  5
1CCC4
  8
SU
 10
386.76774740159692
 20
660.23801559898459
 30
0.0
 11
382.12647386811602
 21
660.23801559898459
 31
0.0
  0
LINE
  5
1CCC5
  8
SU
 10
386.88774740159681
 20
660.03801559898477
 30
0.0
 11
382.0064738681159
 21
660.03801559898477
 31
0.0
  0
LINE
  5
1CCC6
  8
SU
 10
387.0077474015967
 20
659.83801559898495
 30
0.0
 11
381.88647386811601
 21
659.83801559898495
 31
0.0
  0
LINE
  5
1CCC7
  8
SU
 10
387.12774740159682
 20
659.63801559898479
 30
0.0
 11
381.7664738681159
 21
659.63801559898479
 31
0.0
  0
LINE
  5
1CCC8
  8
SU
 10
387.24774740159688
 20
659.43801559898486
 30
0.0
 11
381.646473868116
 21
659.43801559898486
 31
0.0
  0
LINE
  5
1CCC9
  8
SU
 10
387.36774740159677
 20
659.2380155989847
 30
0.0
 11
381.52647386811589
 21
659.2380155989847
 31
0.0
  0
LINE
  5
1CCCA
  8
SU
 10
387.48774740159701
 20
659.03801559898488
 30
0.0
 11
381.406473868116
 21
659.03801559898488
 31
0.0
  0
LINE
  5
1CCCB
  8
SU
 10
387.6077474015969
 20
658.83801559898507
 30
0.0
 11
381.2864738681161
 21
658.83801559898507
 31
0.0
  0
LINE
  5
1CCCC
  8
SU
 10
387.7277474015969
 20
658.63801559898468
 30
0.0
 11
381.16647386811599
 21
658.63801559898468
 31
0.0
  0
LINE
  5
1CCCD
  8
SU
 10
387.84774740159679
 20
658.43801559898486
 30
0.0
 11
381.04647386811581
 21
658.43801559898486
 31
0.0
  0
LINE
  5
1CCCE
  8
SU
 10
387.96774740159668
 20
658.2380155989847
 30
0.0
 11
380.92647386811598
 21
658.2380155989847
 31
0.0
  0
LINE
  5
1CCCF
  8
SU
 10
388.08774740159691
 20
658.03801559898488
 30
0.0
 11
380.80647386811609
 21
658.03801559898488
 31
0.0
  0
LINE
  5
1CCD0
  8
SU
 10
388.20774740159698
 20
657.83801559898495
 30
0.0
 11
380.68647386811602
 21
657.83801559898495
 31
0.0
  0
LINE
  5
1CCD1
  8
SU
 10
388.32774740159692
 20
657.63801559898479
 30
0.0
 11
380.56647386811591
 21
657.63801559898479
 31
0.0
  0
LINE
  5
1CCD2
  8
SU
 10
388.44774740159681
 20
657.43801559898498
 30
0.0
 11
380.44647386811602
 21
657.43801559898498
 31
0.0
  0
LINE
  5
1CCD3
  8
SU
 10
388.56774740159671
 20
657.2380155989847
 30
0.0
 11
380.32647386811612
 21
657.2380155989847
 31
0.0
  0
LINE
  5
1CCD4
  8
SU
 10
388.68774740159699
 20
657.03801559898477
 30
0.0
 11
380.20647386811589
 21
657.03801559898477
 31
0.0
  0
LINE
  5
1CCD5
  8
SU
 10
388.80774740159688
 20
656.83801559898495
 30
0.0
 11
380.08647386811577
 21
656.83801559898495
 31
0.0
  0
LINE
  5
1CCD6
  8
SU
 10
388.92774740159678
 20
656.63801559898479
 30
0.0
 11
379.96647386811588
 21
656.63801559898479
 31
0.0
  0
LINE
  5
1CCD7
  8
SU
 10
389.04774740159689
 20
656.43801559898498
 30
0.0
 11
379.84647386811611
 21
656.43801559898498
 31
0.0
  0
LINE
  5
1CCD8
  8
SU
 10
389.16774740159678
 20
656.23801559898459
 30
0.0
 11
379.72647386811587
 21
656.23801559898459
 31
0.0
  0
LINE
  5
1CCD9
  8
SU
 10
389.2877474015969
 20
656.03801559898477
 30
0.0
 11
379.6064738681161
 21
656.03801559898477
 31
0.0
  0
LINE
  5
1CCDA
  8
SU
 10
389.40774740159679
 20
655.83801559898495
 30
0.0
 11
379.48647386811592
 21
655.83801559898495
 31
0.0
  0
LINE
  5
1CCDB
  8
SU
 10
389.52774740159691
 20
655.63801559898479
 30
0.0
 11
379.36647386811597
 21
655.63801559898479
 31
0.0
  0
LINE
  5
1CCDC
  8
SU
 10
389.6477474015968
 20
655.43801559898486
 30
0.0
 11
379.24647386811591
 21
655.43801559898486
 31
0.0
  0
LINE
  5
1CCDD
  8
SU
 10
389.76774740159692
 20
655.2380155989847
 30
0.0
 11
379.12647386811602
 21
655.2380155989847
 31
0.0
  0
LINE
  5
1CCDE
  8
SU
 10
389.88774740159681
 20
655.03801559898488
 30
0.0
 11
379.0064738681159
 21
655.03801559898488
 31
0.0
  0
LINE
  5
1CCDF
  8
SU
 10
390.0077474015967
 20
654.83801559898507
 30
0.0
 11
378.88647386811601
 21
654.83801559898507
 31
0.0
  0
LINE
  5
1CCE0
  8
SU
 10
390.12774740159682
 20
654.63801559898468
 30
0.0
 11
378.7664738681159
 21
654.63801559898468
 31
0.0
  0
LINE
  5
1CCE1
  8
SU
 10
390.24774740159688
 20
654.43801559898486
 30
0.0
 11
378.646473868116
 21
654.43801559898486
 31
0.0
  0
LINE
  5
1CCE2
  8
SU
 10
390.36774740159677
 20
654.2380155989847
 30
0.0
 11
378.52647386811589
 21
654.2380155989847
 31
0.0
  0
LINE
  5
1CCE3
  8
SU
 10
390.44711063485641
 20
338.10574394672591
 30
0.0
 11
384.44711063485641
 21
328.10574394672591
 31
0.0
  0
LINE
  5
1CCE4
  8
SU
 10
378.44711063485641
 20
338.10574394672591
 30
0.0
 11
384.44711063485641
 21
328.10574394672591
 31
0.0
  0
LINE
  5
1CCE5
  8
SU
 10
390.44711063485641
 20
338.10574394672591
 30
0.0
 11
378.44711063485641
 21
338.10574394672591
 31
0.0
  0
LINE
  5
1CCE6
  8
SU
 10
384.48774740159689
 20
328.1734718912931
 30
0.0
 11
384.406473868116
 21
328.1734718912931
 31
0.0
  0
LINE
  5
1CCE7
  8
SU
 10
384.60774740159678
 20
328.37347189129292
 30
0.0
 11
384.2864738681161
 21
328.37347189129292
 31
0.0
  0
LINE
  5
1CCE8
  8
SU
 10
384.72774740159701
 20
328.5734718912932
 30
0.0
 11
384.16647386811599
 21
328.5734718912932
 31
0.0
  0
LINE
  5
1CCE9
  8
SU
 10
384.84774740159679
 20
328.77347189129301
 30
0.0
 11
384.04647386811592
 21
328.77347189129301
 31
0.0
  0
LINE
  5
1CCEA
  8
SU
 10
384.96774740159668
 20
328.97347189129317
 30
0.0
 11
383.92647386811598
 21
328.97347189129317
 31
0.0
  0
LINE
  5
1CCEB
  8
SU
 10
385.08774740159691
 20
329.17347189129299
 30
0.0
 11
383.80647386811609
 21
329.17347189129299
 31
0.0
  0
LINE
  5
1CCEC
  8
SU
 10
385.20774740159698
 20
329.37347189129292
 30
0.0
 11
383.68647386811602
 21
329.37347189129292
 31
0.0
  0
LINE
  5
1CCED
  8
SU
 10
385.32774740159681
 20
329.57347189129308
 30
0.0
 11
383.56647386811579
 21
329.57347189129308
 31
0.0
  0
LINE
  5
1CCEE
  8
SU
 10
385.4477474015967
 20
329.77347189129301
 30
0.0
 11
383.4464738681159
 21
329.77347189129301
 31
0.0
  0
LINE
  5
1CCEF
  8
SU
 10
385.56774740159659
 20
329.97347189129317
 30
0.0
 11
383.32647386811612
 21
329.97347189129317
 31
0.0
  0
LINE
  5
1CCF0
  8
SU
 10
385.68774740159699
 20
330.1734718912931
 30
0.0
 11
383.20647386811601
 21
330.1734718912931
 31
0.0
  0
LINE
  5
1CCF1
  8
SU
 10
385.80774740159688
 20
330.37347189129292
 30
0.0
 11
383.08647386811577
 21
330.37347189129292
 31
0.0
  0
LINE
  5
1CCF2
  8
SU
 10
385.92774740159678
 20
330.5734718912932
 30
0.0
 11
382.96647386811588
 21
330.5734718912932
 31
0.0
  0
LINE
  5
1CCF3
  8
SU
 10
386.04774740159689
 20
330.77347189129301
 30
0.0
 11
382.84647386811599
 21
330.77347189129301
 31
0.0
  0
LINE
  5
1CCF4
  8
SU
 10
386.16774740159678
 20
330.97347189129317
 30
0.0
 11
382.72647386811587
 21
330.97347189129317
 31
0.0
  0
LINE
  5
1CCF5
  8
SU
 10
386.2877474015969
 20
331.17347189129299
 30
0.0
 11
382.60647386811598
 21
331.17347189129299
 31
0.0
  0
LINE
  5
1CCF6
  8
SU
 10
386.40774740159679
 20
331.37347189129292
 30
0.0
 11
382.48647386811592
 21
331.37347189129292
 31
0.0
  0
LINE
  5
1CCF7
  8
SU
 10
386.52774740159691
 20
331.57347189129308
 30
0.0
 11
382.36647386811597
 21
331.57347189129308
 31
0.0
  0
LINE
  5
1CCF8
  8
SU
 10
386.6477474015968
 20
331.77347189129301
 30
0.0
 11
382.24647386811591
 21
331.77347189129301
 31
0.0
  0
LINE
  5
1CCF9
  8
SU
 10
386.76774740159692
 20
331.97347189129317
 30
0.0
 11
382.12647386811602
 21
331.97347189129317
 31
0.0
  0
LINE
  5
1CCFA
  8
SU
 10
386.88774740159681
 20
332.1734718912931
 30
0.0
 11
382.0064738681159
 21
332.1734718912931
 31
0.0
  0
LINE
  5
1CCFB
  8
SU
 10
387.0077474015967
 20
332.37347189129292
 30
0.0
 11
381.88647386811601
 21
332.37347189129292
 31
0.0
  0
LINE
  5
1CCFC
  8
SU
 10
387.12774740159682
 20
332.5734718912932
 30
0.0
 11
381.7664738681159
 21
332.5734718912932
 31
0.0
  0
LINE
  5
1CCFD
  8
SU
 10
387.24774740159688
 20
332.77347189129301
 30
0.0
 11
381.646473868116
 21
332.77347189129301
 31
0.0
  0
LINE
  5
1CCFE
  8
SU
 10
387.36774740159677
 20
332.97347189129317
 30
0.0
 11
381.52647386811589
 21
332.97347189129317
 31
0.0
  0
LINE
  5
1CCFF
  8
SU
 10
387.48774740159701
 20
333.17347189129299
 30
0.0
 11
381.406473868116
 21
333.17347189129299
 31
0.0
  0
LINE
  5
1CD00
  8
SU
 10
387.6077474015969
 20
333.37347189129292
 30
0.0
 11
381.2864738681161
 21
333.37347189129292
 31
0.0
  0
LINE
  5
1CD01
  8
SU
 10
387.7277474015969
 20
333.57347189129308
 30
0.0
 11
381.16647386811599
 21
333.57347189129308
 31
0.0
  0
LINE
  5
1CD02
  8
SU
 10
387.84774740159679
 20
333.77347189129301
 30
0.0
 11
381.04647386811581
 21
333.77347189129301
 31
0.0
  0
LINE
  5
1CD03
  8
SU
 10
387.96774740159668
 20
333.97347189129317
 30
0.0
 11
380.92647386811598
 21
333.97347189129317
 31
0.0
  0
LINE
  5
1CD04
  8
SU
 10
388.08774740159691
 20
334.1734718912931
 30
0.0
 11
380.80647386811609
 21
334.1734718912931
 31
0.0
  0
LINE
  5
1CD05
  8
SU
 10
388.20774740159698
 20
334.37347189129292
 30
0.0
 11
380.68647386811602
 21
334.37347189129292
 31
0.0
  0
LINE
  5
1CD06
  8
SU
 10
388.32774740159692
 20
334.5734718912932
 30
0.0
 11
380.56647386811591
 21
334.5734718912932
 31
0.0
  0
LINE
  5
1CD07
  8
SU
 10
388.44774740159681
 20
334.77347189129301
 30
0.0
 11
380.44647386811602
 21
334.77347189129301
 31
0.0
  0
LINE
  5
1CD08
  8
SU
 10
388.56774740159671
 20
334.97347189129317
 30
0.0
 11
380.32647386811612
 21
334.97347189129317
 31
0.0
  0
LINE
  5
1CD09
  8
SU
 10
388.68774740159699
 20
335.17347189129299
 30
0.0
 11
380.20647386811589
 21
335.17347189129299
 31
0.0
  0
LINE
  5
1CD0A
  8
SU
 10
388.80774740159688
 20
335.37347189129281
 30
0.0
 11
380.08647386811577
 21
335.37347189129281
 31
0.0
  0
LINE
  5
1CD0B
  8
SU
 10
388.92774740159678
 20
335.57347189129308
 30
0.0
 11
379.96647386811588
 21
335.57347189129308
 31
0.0
  0
LINE
  5
1CD0C
  8
SU
 10
389.04774740159689
 20
335.77347189129301
 30
0.0
 11
379.84647386811611
 21
335.77347189129301
 31
0.0
  0
LINE
  5
1CD0D
  8
SU
 10
389.16774740159678
 20
335.97347189129317
 30
0.0
 11
379.72647386811587
 21
335.97347189129317
 31
0.0
  0
LINE
  5
1CD0E
  8
SU
 10
389.2877474015969
 20
336.1734718912931
 30
0.0
 11
379.6064738681161
 21
336.1734718912931
 31
0.0
  0
LINE
  5
1CD0F
  8
SU
 10
389.40774740159679
 20
336.37347189129292
 30
0.0
 11
379.48647386811592
 21
336.37347189129292
 31
0.0
  0
LINE
  5
1CD10
  8
SU
 10
389.52774740159691
 20
336.5734718912932
 30
0.0
 11
379.36647386811597
 21
336.5734718912932
 31
0.0
  0
LINE
  5
1CD11
  8
SU
 10
389.6477474015968
 20
336.77347189129301
 30
0.0
 11
379.24647386811591
 21
336.77347189129301
 31
0.0
  0
LINE
  5
1CD12
  8
SU
 10
389.76774740159692
 20
336.97347189129317
 30
0.0
 11
379.12647386811602
 21
336.97347189129317
 31
0.0
  0
LINE
  5
1CD13
  8
SU
 10
389.88774740159681
 20
337.17347189129299
 30
0.0
 11
379.0064738681159
 21
337.17347189129299
 31
0.0
  0
LINE
  5
1CD14
  8
SU
 10
390.0077474015967
 20
337.37347189129281
 30
0.0
 11
378.88647386811601
 21
337.37347189129281
 31
0.0
  0
LINE
  5
1CD15
  8
SU
 10
390.12774740159682
 20
337.57347189129308
 30
0.0
 11
378.7664738681159
 21
337.57347189129308
 31
0.0
  0
LINE
  5
1CD16
  8
SU
 10
390.24774740159688
 20
337.7734718912929
 30
0.0
 11
378.646473868116
 21
337.7734718912929
 31
0.0
  0
LINE
  5
1CD17
  8
SU
 10
390.36774740159677
 20
337.97347189129317
 30
0.0
 11
378.52647386811589
 21
337.97347189129317
 31
0.0
  0
LINE
  5
1CD18
  8
SU
 10
390.44711063485641
 20
134.28300748772079
 30
0.0
 11
384.44711063485641
 21
124.28300748772079
 31
0.0
  0
LINE
  5
1CD19
  8
SU
 10
378.44711063485641
 20
134.28300748772079
 30
0.0
 11
384.44711063485641
 21
124.28300748772079
 31
0.0
  0
LINE
  5
1CD1A
  8
SU
 10
390.44711063485641
 20
134.28300748772079
 30
0.0
 11
378.44711063485641
 21
134.28300748772079
 31
0.0
  0
LINE
  5
1CD1B
  8
SU
 10
384.48774740159689
 20
124.350735432288
 30
0.0
 11
384.406473868116
 21
124.350735432288
 31
0.0
  0
LINE
  5
1CD1C
  8
SU
 10
384.60774740159678
 20
124.55073543228779
 30
0.0
 11
384.2864738681161
 21
124.55073543228779
 31
0.0
  0
LINE
  5
1CD1D
  8
SU
 10
384.72774740159701
 20
124.750735432288
 30
0.0
 11
384.16647386811599
 21
124.750735432288
 31
0.0
  0
LINE
  5
1CD1E
  8
SU
 10
384.84774740159679
 20
124.9507354322879
 30
0.0
 11
384.04647386811592
 21
124.9507354322879
 31
0.0
  0
LINE
  5
1CD1F
  8
SU
 10
384.96774740159668
 20
125.1507354322882
 30
0.0
 11
383.92647386811598
 21
125.1507354322882
 31
0.0
  0
LINE
  5
1CD20
  8
SU
 10
385.08774740159691
 20
125.350735432288
 30
0.0
 11
383.80647386811609
 21
125.350735432288
 31
0.0
  0
LINE
  5
1CD21
  8
SU
 10
385.20774740159698
 20
125.55073543228779
 30
0.0
 11
383.68647386811602
 21
125.55073543228779
 31
0.0
  0
LINE
  5
1CD22
  8
SU
 10
385.32774740159681
 20
125.750735432288
 30
0.0
 11
383.56647386811579
 21
125.750735432288
 31
0.0
  0
LINE
  5
1CD23
  8
SU
 10
385.4477474015967
 20
125.9507354322879
 30
0.0
 11
383.4464738681159
 21
125.9507354322879
 31
0.0
  0
LINE
  5
1CD24
  8
SU
 10
385.56774740159659
 20
126.1507354322882
 30
0.0
 11
383.32647386811612
 21
126.1507354322882
 31
0.0
  0
LINE
  5
1CD25
  8
SU
 10
385.68774740159699
 20
126.350735432288
 30
0.0
 11
383.20647386811601
 21
126.350735432288
 31
0.0
  0
LINE
  5
1CD26
  8
SU
 10
385.80774740159688
 20
126.55073543228779
 30
0.0
 11
383.08647386811577
 21
126.55073543228779
 31
0.0
  0
LINE
  5
1CD27
  8
SU
 10
385.92774740159678
 20
126.750735432288
 30
0.0
 11
382.96647386811588
 21
126.750735432288
 31
0.0
  0
LINE
  5
1CD28
  8
SU
 10
386.04774740159689
 20
126.9507354322879
 30
0.0
 11
382.84647386811599
 21
126.9507354322879
 31
0.0
  0
LINE
  5
1CD29
  8
SU
 10
386.16774740159678
 20
127.1507354322881
 30
0.0
 11
382.72647386811587
 21
127.1507354322881
 31
0.0
  0
LINE
  5
1CD2A
  8
SU
 10
386.2877474015969
 20
127.350735432288
 30
0.0
 11
382.60647386811598
 21
127.350735432288
 31
0.0
  0
LINE
  5
1CD2B
  8
SU
 10
386.40774740159679
 20
127.55073543228779
 30
0.0
 11
382.48647386811592
 21
127.55073543228779
 31
0.0
  0
LINE
  5
1CD2C
  8
SU
 10
386.52774740159691
 20
127.750735432288
 30
0.0
 11
382.36647386811597
 21
127.750735432288
 31
0.0
  0
LINE
  5
1CD2D
  8
SU
 10
386.6477474015968
 20
127.9507354322879
 30
0.0
 11
382.24647386811591
 21
127.9507354322879
 31
0.0
  0
LINE
  5
1CD2E
  8
SU
 10
386.76774740159692
 20
128.15073543228809
 30
0.0
 11
382.12647386811602
 21
128.15073543228809
 31
0.0
  0
LINE
  5
1CD2F
  8
SU
 10
386.88774740159681
 20
128.35073543228799
 30
0.0
 11
382.0064738681159
 21
128.35073543228799
 31
0.0
  0
LINE
  5
1CD30
  8
SU
 10
387.0077474015967
 20
128.55073543228781
 30
0.0
 11
381.88647386811601
 21
128.55073543228781
 31
0.0
  0
LINE
  5
1CD31
  8
SU
 10
387.12774740159682
 20
128.750735432288
 30
0.0
 11
381.7664738681159
 21
128.750735432288
 31
0.0
  0
LINE
  5
1CD32
  8
SU
 10
387.24774740159688
 20
128.9507354322879
 30
0.0
 11
381.646473868116
 21
128.9507354322879
 31
0.0
  0
LINE
  5
1CD33
  8
SU
 10
387.36774740159677
 20
129.15073543228809
 30
0.0
 11
381.52647386811589
 21
129.15073543228809
 31
0.0
  0
LINE
  5
1CD34
  8
SU
 10
387.48774740159701
 20
129.35073543228799
 30
0.0
 11
381.406473868116
 21
129.35073543228799
 31
0.0
  0
LINE
  5
1CD35
  8
SU
 10
387.6077474015969
 20
129.55073543228781
 30
0.0
 11
381.2864738681161
 21
129.55073543228781
 31
0.0
  0
LINE
  5
1CD36
  8
SU
 10
387.7277474015969
 20
129.750735432288
 30
0.0
 11
381.16647386811599
 21
129.750735432288
 31
0.0
  0
LINE
  5
1CD37
  8
SU
 10
387.84774740159679
 20
129.9507354322879
 30
0.0
 11
381.04647386811581
 21
129.9507354322879
 31
0.0
  0
LINE
  5
1CD38
  8
SU
 10
387.96774740159668
 20
130.15073543228809
 30
0.0
 11
380.92647386811598
 21
130.15073543228809
 31
0.0
  0
LINE
  5
1CD39
  8
SU
 10
388.08774740159691
 20
130.35073543228799
 30
0.0
 11
380.80647386811609
 21
130.35073543228799
 31
0.0
  0
LINE
  5
1CD3A
  8
SU
 10
388.20774740159698
 20
130.55073543228781
 30
0.0
 11
380.68647386811602
 21
130.55073543228781
 31
0.0
  0
LINE
  5
1CD3B
  8
SU
 10
388.32774740159692
 20
130.75073543228811
 30
0.0
 11
380.56647386811591
 21
130.75073543228811
 31
0.0
  0
LINE
  5
1CD3C
  8
SU
 10
388.44774740159681
 20
130.9507354322879
 30
0.0
 11
380.44647386811602
 21
130.9507354322879
 31
0.0
  0
LINE
  5
1CD3D
  8
SU
 10
388.56774740159671
 20
131.15073543228809
 30
0.0
 11
380.32647386811612
 21
131.15073543228809
 31
0.0
  0
LINE
  5
1CD3E
  8
SU
 10
388.68774740159699
 20
131.35073543228799
 30
0.0
 11
380.20647386811589
 21
131.35073543228799
 31
0.0
  0
LINE
  5
1CD3F
  8
SU
 10
388.80774740159688
 20
131.55073543228781
 30
0.0
 11
380.08647386811577
 21
131.55073543228781
 31
0.0
  0
LINE
  5
1CD40
  8
SU
 10
388.92774740159678
 20
131.75073543228811
 30
0.0
 11
379.96647386811588
 21
131.75073543228811
 31
0.0
  0
LINE
  5
1CD41
  8
SU
 10
389.04774740159689
 20
131.9507354322879
 30
0.0
 11
379.84647386811611
 21
131.9507354322879
 31
0.0
  0
LINE
  5
1CD42
  8
SU
 10
389.16774740159678
 20
132.15073543228809
 30
0.0
 11
379.72647386811587
 21
132.15073543228809
 31
0.0
  0
LINE
  5
1CD43
  8
SU
 10
389.2877474015969
 20
132.35073543228799
 30
0.0
 11
379.6064738681161
 21
132.35073543228799
 31
0.0
  0
LINE
  5
1CD44
  8
SU
 10
389.40774740159679
 20
132.55073543228781
 30
0.0
 11
379.48647386811592
 21
132.55073543228781
 31
0.0
  0
LINE
  5
1CD45
  8
SU
 10
389.52774740159691
 20
132.75073543228811
 30
0.0
 11
379.36647386811597
 21
132.75073543228811
 31
0.0
  0
LINE
  5
1CD46
  8
SU
 10
389.6477474015968
 20
132.9507354322879
 30
0.0
 11
379.24647386811591
 21
132.9507354322879
 31
0.0
  0
LINE
  5
1CD47
  8
SU
 10
389.76774740159692
 20
133.15073543228809
 30
0.0
 11
379.12647386811602
 21
133.15073543228809
 31
0.0
  0
LINE
  5
1CD48
  8
SU
 10
389.88774740159681
 20
133.35073543228799
 30
0.0
 11
379.0064738681159
 21
133.35073543228799
 31
0.0
  0
LINE
  5
1CD49
  8
SU
 10
390.0077474015967
 20
133.55073543228781
 30
0.0
 11
378.88647386811601
 21
133.55073543228781
 31
0.0
  0
LINE
  5
1CD4A
  8
SU
 10
390.12774740159682
 20
133.75073543228811
 30
0.0
 11
378.7664738681159
 21
133.75073543228811
 31
0.0
  0
LINE
  5
1CD4B
  8
SU
 10
390.24774740159688
 20
133.9507354322879
 30
0.0
 11
378.646473868116
 21
133.9507354322879
 31
0.0
  0
LINE
  5
1CD4C
  8
SU
 10
390.36774740159677
 20
134.15073543228809
 30
0.0
 11
378.52647386811589
 21
134.15073543228809
 31
0.0
  0
LINE
  5
1CD4D
  8
SU
 10
584.81596980819415
 20
164.9847477994353
 30
0.0
 11
574.81596980819415
 21
170.9847477994353
 31
0.0
  0
LINE
  5
1CD4E
  8
SU
 10
584.81596980819415
 20
176.9847477994353
 30
0.0
 11
574.81596980819415
 21
170.9847477994353
 31
0.0
  0
LINE
  5
1CD4F
  8
SU
 10
584.81596980819415
 20
164.9847477994353
 30
0.0
 11
584.81596980819415
 21
176.9847477994353
 31
0.0
  0
LINE
  5
1CD50
  8
SU
 10
574.88369775276146
 20
170.94411103269471
 30
0.0
 11
574.88369775276146
 21
171.0253845661756
 31
0.0
  0
LINE
  5
1CD51
  8
SU
 10
575.08369775276128
 20
170.82411103269479
 30
0.0
 11
575.08369775276128
 21
171.14538456617549
 31
0.0
  0
LINE
  5
1CD52
  8
SU
 10
575.28369775276155
 20
170.7041110326947
 30
0.0
 11
575.28369775276155
 21
171.2653845661757
 31
0.0
  0
LINE
  5
1CD53
  8
SU
 10
575.48369775276126
 20
170.58411103269481
 30
0.0
 11
575.48369775276126
 21
171.3853845661757
 31
0.0
  0
LINE
  5
1CD54
  8
SU
 10
575.68369775276165
 20
170.46411103269489
 30
0.0
 11
575.68369775276165
 21
171.50538456617559
 31
0.0
  0
LINE
  5
1CD55
  8
SU
 10
575.88369775276135
 20
170.3441110326948
 30
0.0
 11
575.88369775276135
 21
171.62538456617551
 31
0.0
  0
LINE
  5
1CD56
  8
SU
 10
576.08369775276117
 20
170.22411103269471
 30
0.0
 11
576.08369775276117
 21
171.74538456617569
 31
0.0
  0
LINE
  5
1CD57
  8
SU
 10
576.28369775276155
 20
170.10411103269479
 30
0.0
 11
576.28369775276155
 21
171.86538456617581
 31
0.0
  0
LINE
  5
1CD58
  8
SU
 10
576.48369775276137
 20
169.9841110326949
 30
0.0
 11
576.48369775276137
 21
171.9853845661757
 31
0.0
  0
LINE
  5
1CD59
  8
SU
 10
576.68369775276165
 20
169.86411103269501
 30
0.0
 11
576.68369775276165
 21
172.10538456617559
 31
0.0
  0
LINE
  5
1CD5A
  8
SU
 10
576.88369775276135
 20
169.7441110326946
 30
0.0
 11
576.88369775276135
 21
172.22538456617571
 31
0.0
  0
LINE
  5
1CD5B
  8
SU
 10
577.08369775276117
 20
169.62411103269471
 30
0.0
 11
577.08369775276117
 21
172.3453845661758
 31
0.0
  0
LINE
  5
1CD5C
  8
SU
 10
577.28369775276155
 20
169.50411103269491
 30
0.0
 11
577.28369775276155
 21
172.46538456617569
 31
0.0
  0
LINE
  5
1CD5D
  8
SU
 10
577.48369775276137
 20
169.3841110326947
 30
0.0
 11
577.48369775276137
 21
172.58538456617561
 31
0.0
  0
LINE
  5
1CD5E
  8
SU
 10
577.68369775276165
 20
169.26411103269481
 30
0.0
 11
577.68369775276165
 21
172.7053845661757
 31
0.0
  0
LINE
  5
1CD5F
  8
SU
 10
577.88369775276135
 20
169.1441110326947
 30
0.0
 11
577.88369775276135
 21
172.82538456617559
 31
0.0
  0
LINE
  5
1CD60
  8
SU
 10
578.08369775276117
 20
169.0241110326948
 30
0.0
 11
578.08369775276117
 21
172.9453845661757
 31
0.0
  0
LINE
  5
1CD61
  8
SU
 10
578.28369775276155
 20
168.90411103269469
 30
0.0
 11
578.28369775276155
 21
173.0653845661756
 31
0.0
  0
LINE
  5
1CD62
  8
SU
 10
578.48369775276126
 20
168.7841110326948
 30
0.0
 11
578.48369775276126
 21
173.18538456617571
 31
0.0
  0
LINE
  5
1CD63
  8
SU
 10
578.68369775276165
 20
168.66411103269471
 30
0.0
 11
578.68369775276165
 21
173.3053845661756
 31
0.0
  0
LINE
  5
1CD64
  8
SU
 10
578.88369775276146
 20
168.54411103269479
 30
0.0
 11
578.88369775276146
 21
173.42538456617569
 31
0.0
  0
LINE
  5
1CD65
  8
SU
 10
579.08369775276128
 20
168.4241110326949
 30
0.0
 11
579.08369775276128
 21
173.54538456617561
 31
0.0
  0
LINE
  5
1CD66
  8
SU
 10
579.28369775276155
 20
168.30411103269481
 30
0.0
 11
579.28369775276155
 21
173.6653845661757
 31
0.0
  0
LINE
  5
1CD67
  8
SU
 10
579.48369775276126
 20
168.18411103269469
 30
0.0
 11
579.48369775276126
 21
173.78538456617559
 31
0.0
  0
LINE
  5
1CD68
  8
SU
 10
579.68369775276165
 20
168.0641110326948
 30
0.0
 11
579.68369775276165
 21
173.90538456617571
 31
0.0
  0
LINE
  5
1CD69
  8
SU
 10
579.88369775276135
 20
167.94411103269471
 30
0.0
 11
579.88369775276135
 21
174.0253845661756
 31
0.0
  0
LINE
  5
1CD6A
  8
SU
 10
580.08369775276117
 20
167.82411103269479
 30
0.0
 11
580.08369775276117
 21
174.14538456617549
 31
0.0
  0
LINE
  5
1CD6B
  8
SU
 10
580.28369775276155
 20
167.7041110326947
 30
0.0
 11
580.28369775276155
 21
174.26538456617561
 31
0.0
  0
LINE
  5
1CD6C
  8
SU
 10
580.48369775276126
 20
167.58411103269481
 30
0.0
 11
580.48369775276126
 21
174.38538456617579
 31
0.0
  0
LINE
  5
1CD6D
  8
SU
 10
580.68369775276165
 20
167.46411103269489
 30
0.0
 11
580.68369775276165
 21
174.50538456617571
 31
0.0
  0
LINE
  5
1CD6E
  8
SU
 10
580.88369775276135
 20
167.3441110326948
 30
0.0
 11
580.88369775276135
 21
174.6253845661756
 31
0.0
  0
LINE
  5
1CD6F
  8
SU
 10
581.08369775276117
 20
167.22411103269471
 30
0.0
 11
581.08369775276117
 21
174.74538456617569
 31
0.0
  0
LINE
  5
1CD70
  8
SU
 10
581.28369775276155
 20
167.10411103269479
 30
0.0
 11
581.28369775276155
 21
174.86538456617581
 31
0.0
  0
LINE
  5
1CD71
  8
SU
 10
581.48369775276137
 20
166.9841110326949
 30
0.0
 11
581.48369775276137
 21
174.9853845661757
 31
0.0
  0
LINE
  5
1CD72
  8
SU
 10
581.68369775276165
 20
166.86411103269501
 30
0.0
 11
581.68369775276165
 21
175.10538456617559
 31
0.0
  0
LINE
  5
1CD73
  8
SU
 10
581.88369775276135
 20
166.7441110326946
 30
0.0
 11
581.88369775276135
 21
175.22538456617571
 31
0.0
  0
LINE
  5
1CD74
  8
SU
 10
582.08369775276117
 20
166.62411103269471
 30
0.0
 11
582.08369775276117
 21
175.3453845661758
 31
0.0
  0
LINE
  5
1CD75
  8
SU
 10
582.28369775276155
 20
166.50411103269491
 30
0.0
 11
582.28369775276155
 21
175.46538456617569
 31
0.0
  0
LINE
  5
1CD76
  8
SU
 10
582.48369775276126
 20
166.3841110326947
 30
0.0
 11
582.48369775276126
 21
175.58538456617561
 31
0.0
  0
LINE
  5
1CD77
  8
SU
 10
582.68369775276165
 20
166.26411103269481
 30
0.0
 11
582.68369775276165
 21
175.7053845661757
 31
0.0
  0
LINE
  5
1CD78
  8
SU
 10
582.88369775276135
 20
166.1441110326947
 30
0.0
 11
582.88369775276135
 21
175.82538456617559
 31
0.0
  0
LINE
  5
1CD79
  8
SU
 10
583.08369775276128
 20
166.0241110326948
 30
0.0
 11
583.08369775276128
 21
175.9453845661757
 31
0.0
  0
LINE
  5
1CD7A
  8
SU
 10
583.28369775276155
 20
165.90411103269469
 30
0.0
 11
583.28369775276155
 21
176.0653845661756
 31
0.0
  0
LINE
  5
1CD7B
  8
SU
 10
583.48369775276126
 20
165.7841110326948
 30
0.0
 11
583.48369775276126
 21
176.18538456617571
 31
0.0
  0
LINE
  5
1CD7C
  8
SU
 10
583.68369775276165
 20
165.66411103269471
 30
0.0
 11
583.68369775276165
 21
176.3053845661756
 31
0.0
  0
LINE
  5
1CD7D
  8
SU
 10
583.88369775276135
 20
165.54411103269479
 30
0.0
 11
583.88369775276135
 21
176.42538456617569
 31
0.0
  0
LINE
  5
1CD7E
  8
SU
 10
584.08369775276117
 20
165.4241110326949
 30
0.0
 11
584.08369775276117
 21
176.54538456617561
 31
0.0
  0
LINE
  5
1CD7F
  8
SU
 10
584.28369775276155
 20
165.30411103269481
 30
0.0
 11
584.28369775276155
 21
176.6653845661757
 31
0.0
  0
LINE
  5
1CD80
  8
SU
 10
584.48369775276126
 20
165.18411103269469
 30
0.0
 11
584.48369775276126
 21
176.78538456617559
 31
0.0
  0
LINE
  5
1CD81
  8
SU
 10
584.68369775276165
 20
165.0641110326948
 30
0.0
 11
584.68369775276165
 21
176.90538456617571
 31
0.0
  0
LINE
  5
1CD82
  8
SU
 10
257.19698153595982
 20
674.60574354355197
 30
0.0
 11
257.19698153595982
 21
706.60574060528245
 31
0.0
  0
LINE
  5
1CD83
  8
SU
 10
262.79698213245092
 20
638.10574424387642
 30
0.0
 11
262.79698213245092
 21
706.60574060528245
 31
0.0
  0
LINE
  5
1CD84
  8
SU
 10
257.19698153595982
 20
703.60574060528245
 30
0.0
 11
262.79698213245092
 21
703.60574060528245
 31
0.0
  0
LINE
  5
1CD88
  8
SU
 10
180.447046085409
 20
125.28300748772089
 30
0.0
 11
180.447046085409
 21
161.17861459537539
 31
0.0
  0
LINE
  5
1CD89
  8
SU
 10
187.9470660854069
 20
158.17861459537539
 30
0.0
 11
180.447046085409
 21
158.17861459537539
 31
0.0
  0
LINE
  5
1CD8A
  8
SU
 10
180.447046085409
 20
158.17861459537539
 30
0.0
 11
156.07371275207569
 21
158.17861459537539
 31
0.0
  0
LINE
  5
1CD8E
  8
SU
 10
185.0969827068497
 20
597.10574374017563
 30
0.0
 11
180.447046085409
 21
597.10574374017563
 31
0.0
  0
LINE
  5
1CD8F
  8
SU
 10
180.447046085409
 20
597.10574374017563
 30
0.0
 11
156.07371275207569
 21
597.10574374017563
 31
0.0
  0
LINE
  5
1CD92
  8
SU
 10
180.447046085409
 20
327.10574394672608
 30
0.0
 11
180.447046085409
 21
292.1057439467258
 31
0.0
  0
LINE
  5
1CD93
  8
SU
 10
195.947046085409
 20
295.10574394672591
 30
0.0
 11
180.447046085409
 21
295.10574394672591
 31
0.0
  0
LINE
  5
1CD94
  8
SU
 10
180.447046085409
 20
295.10574394672591
 30
0.0
 11
151.3703794187424
 21
295.10574394672591
 31
0.0
  0
LINE
  5
1CD97
  8
SU
 10
190.6969815359603
 20
674.60574354355197
 30
0.0
 11
190.6969815359603
 21
706.60574060528245
 31
0.0
  0
LINE
  5
1CD98
  8
SU
 10
180.447046085409
 20
665.10574354355208
 30
0.0
 11
180.447046085409
 21
706.60574060528245
 31
0.0
  0
LINE
  5
1CD99
  8
SU
 10
190.6969815359603
 20
703.60574060528245
 30
0.0
 11
180.447046085409
 21
703.60574060528245
 31
0.0
  0
LINE
  5
1CD9D
  8
SU
 10
185.0969827068497
 20
623.1057408107406
 30
0.0
 11
185.0969827068497
 21
594.10574394563082
 31
0.0
  0
LINE
  5
1CD9F
  8
SU
 10
185.0969827068497
 20
597.10574394563082
 30
0.0
 11
262.79698270684958
 21
597.10574394563082
 31
0.0
  0
LINE
  5
1CDA3
  8
SU
 10
189.447046085409
 20
626.10574473009865
 30
0.0
 11
189.447046085409
 21
574.10574394562991
 31
0.0
  0
LINE
  5
1CDA4
  8
SU
 10
180.447046085409
 20
626.10574473009865
 30
0.0
 11
180.447046085409
 21
574.10574394562991
 31
0.0
  0
LINE
  5
1CDA5
  8
SU
 10
189.447046085409
 20
577.1057439456298
 30
0.0
 11
180.447046085409
 21
577.1057439456298
 31
0.0
  0
LINE
  5
1CDA9
  8
OS
 10
190.6969815359603
 20
673.60574354355185
 30
0.0
 11
257.19698153595982
 21
673.60574354355185
 31
0.0
1001
GENIUS_GENREC_14
1002
{
1000
PYDIR
1011
190.6969815359603
1021
0.0
1031
0.0
1021
664.10574354355197
1031
0.0
1002
}
1002
{
1000
PXDIR
1011
257.19698153595982
1021
0.0
1031
0.0
1021
673.60574354355185
1031
0.0
1002
}
1002
{
1000
PORI
1011
190.6969815359603
1021
0.0
1031
0.0
1021
673.60574354355185
1031
0.0
1002
}
1002
{
1000
PINS
1011
190.6969815359603
1021
0.0
1031
0.0
1021
673.60574354355185
1031
0.0
1002
}
1002
{
1000
PINS2
1011
257.19698153595982
1021
0.0
1031
0.0
1021
664.10574354355197
1031
0.0
1002
}
1002
{
1000
C
1070
     1
1002
}
1001
GENIUS_GENODEF_13
1002
{
1000
HIER
1070
     0
1002
}
1002
{
1000
MANEDIT
1070
     0
1002
}
1002
{
1000
NOSEL
1070
     0
1002
}
1002
{
1000
BEHIND
1070
     0
1002
}
1002
{
1000
OTHER
1070
     0
1002
}
1002
{
1000
REACTOR
1002
}
1001
GENIUS_GENOBJ-N-REC_13
1002
{
1000
OWNER
1000
GEN
1002
}
  0
LINE
  5
1CDAA
  8
OS
 10
257.19698153595982
 20
673.60574354355185
 30
0.0
 11
257.19698153595982
 21
664.10574354355197
 31
0.0
1001
GENIUS_GENREC_14
1002
{
1000
PYDIR
1011
190.6969815359603
1021
0.0
1031
0.0
1021
664.10574354355197
1031
0.0
1002
}
1002
{
1000
PXDIR
1011
257.19698153595982
1021
0.0
1031
0.0
1021
673.60574354355185
1031
0.0
1002
}
1002
{
1000
PORI
1011
190.6969815359603
1021
0.0
1031
0.0
1021
673.60574354355185
1031
0.0
1002
}
1002
{
1000
PINS
1011
190.6969815359603
1021
0.0
1031
0.0
1021
673.60574354355185
1031
0.0
1002
}
1002
{
1000
PINS2
1011
257.19698153595982
1021
0.0
1031
0.0
1021
664.10574354355197
1031
0.0
1002
}
1002
{
1000
C
1070
     1
1002
}
1001
GENIUS_GENODEF_13
1002
{
1000
HIER
1070
     0
1002
}
1002
{
1000
MANEDIT
1070
     0
1002
}
1002
{
1000
NOSEL
1070
     0
1002
}
1002
{
1000
BEHIND
1070
     0
1002
}
1002
{
1000
OTHER
1070
     0
1002
}
1002
{
1000
REACTOR
1002
}
1001
GENIUS_GENOBJ-N-REC_13
1002
{
1000
OWNER
1000
GEN
1002
}
  0
LINE
  5
1CDAB
  8
OS
 10
257.19698153595982
 20
664.10574354355197
 30
0.0
 11
190.6969815359603
 21
664.10574354355197
 31
0.0
1001
GENIUS_GENREC_14
1002
{
1000
PYDIR
1011
190.6969815359603
1021
0.0
1031
0.0
1021
664.10574354355197
1031
0.0
1002
}
1002
{
1000
PXDIR
1011
257.19698153595982
1021
0.0
1031
0.0
1021
673.60574354355185
1031
0.0
1002
}
1002
{
1000
PORI
1011
190.6969815359603
1021
0.0
1031
0.0
1021
673.60574354355185
1031
0.0
1002
}
1002
{
1000
PINS
1011
190.6969815359603
1021
0.0
1031
0.0
1021
673.60574354355185
1031
0.0
1002
}
1002
{
1000
PINS2
1011
257.19698153595982
1021
0.0
1031
0.0
1021
664.10574354355197
1031
0.0
1002
}
1002
{
1000
C
1070
     1
1002
}
1001
GENIUS_GENODEF_13
1002
{
1000
HIER
1070
     0
1002
}
1002
{
1000
MANEDIT
1070
     0
1002
}
1002
{
1000
NOSEL
1070
     0
1002
}
1002
{
1000
BEHIND
1070
     0
1002
}
1002
{
1000
OTHER
1070
     0
1002
}
1002
{
1000
REACTOR
1002
}
1001
GENIUS_GENOBJ-N-REC_13
1002
{
1000
OWNER
1000
GEN
1002
}
  0
LINE
  5
1CDAC
  8
OS
 10
190.6969815359603
 20
664.10574354355197
 30
0.0
 11
190.6969815359603
 21
673.60574354355185
 31
0.0
1001
GENIUS_GENREC_14
1002
{
1000
PYDIR
1011
190.6969815359603
1021
0.0
1031
0.0
1021
664.10574354355197
1031
0.0
1002
}
1002
{
1000
PXDIR
1011
257.19698153595982
1021
0.0
1031
0.0
1021
673.60574354355185
1031
0.0
1002
}
1002
{
1000
PORI
1011
190.6969815359603
1021
0.0
1031
0.0
1021
673.60574354355185
1031
0.0
1002
}
1002
{
1000
PINS
1011
190.6969815359603
1021
0.0
1031
0.0
1021
673.60574354355185
1031
0.0
1002
}
1002
{
1000
PINS2
1011
257.19698153595982
1021
0.0
1031
0.0
1021
664.10574354355197
1031
0.0
1002
}
1002
{
1000
C
1070
     1
1002
}
1001
GENIUS_GENODEF_13
1002
{
1000
HIER
1070
     0
1002
}
1002
{
1000
MANEDIT
1070
     0
1002
}
1002
{
1000
NOSEL
1070
     0
1002
}
1002
{
1000
BEHIND
1070
     0
1002
}
1002
{
1000
OTHER
1070
     0
1002
}
1002
{
1000
REACTOR
1002
}
1001
GENIUS_GENOBJ-N-REC_13
1002
{
1000
OWNER
1000
GEN
1002
}
  0
LINE
  5
1CDAD
  8
SU
 10
257.19698153595982
 20
703.60574060528245
 30
0.0
 11
190.6969815359603
 21
703.60574060528245
 31
0.0
  0
LINE
  5
1CDAF
  8
SU
 10
718.81596980819324
 20
293.98474875116341
 30
0.0
 11
718.81596980819324
 21
207.9847477994351
 31
0.0
  0
LINE
  5
1CDB0
  8
SU
 10
753.81596980819347
 20
335.98474779943513
 30
0.0
 11
753.81596980819347
 21
207.9847477994351
 31
0.0
  0
LINE
  5
1CDB1
  8
SU
 10
718.81596980819324
 20
210.9847477994351
 30
0.0
 11
753.81596980819347
 21
210.9847477994351
 31
0.0
  0
LINE
  5
1CDB5
  8
SU
 10
888.81596980819347
 20
293.98474875116341
 30
0.0
 11
888.81596980819347
 21
207.98474779943501
 31
0.0
  0
LINE
  5
1CDB6
  8
SU
 10
853.81596980819347
 20
210.98474779943501
 30
0.0
 11
888.81596980819347
 21
210.98474779943501
 31
0.0
  0
LINE
  5
1CDBA
  8
SU
 10
1023.815969808193
 20
257.98474875116341
 30
0.0
 11
1023.815969808193
 21
187.98474779943501
 31
0.0
  0
LINE
  5
1CDBB
  8
SU
 10
853.81596980819347
 20
257.98474875116341
 30
0.0
 11
853.81596980819347
 21
187.98474779943501
 31
0.0
  0
LINE
  5
1CDBC
  8
SU
 10
1023.815969808193
 20
190.98474779943501
 30
0.0
 11
853.81596980819347
 21
190.98474779943501
 31
0.0
  0
LINE
  5
1CDC0
  8
SU
 10
574.81596980819415
 20
236.9847477994351
 30
0.0
 11
574.81596980819415
 21
167.98474779943501
 31
0.0
  0
LINE
  5
1CDC1
  8
SU
 10
1032.815969808194
 20
236.98474779943521
 30
0.0
 11
1032.815969808194
 21
167.98474779943501
 31
0.0
  0
LINE
  5
1CDC2
  8
SU
 10
574.81596980819415
 20
170.98474779943501
 30
0.0
 11
1032.815969808194
 21
170.98474779943501
 31
0.0
  0
LINE
  5
1CDC4
  8
SU
 10
852.81596980819347
 20
291.98474779943803
 30
0.0
 11
820.81596980819347
 21
291.98474779943803
 31
0.0
  0
LINE
  5
1CDC5
  8
SU
 10
852.81596980819347
 20
258.98474875116329
 30
0.0
 11
820.81596980819347
 21
258.98474875116329
 31
0.0
  0
LINE
  5
1CDC6
  8
SU
 10
823.81596980819359
 20
291.98474779943803
 30
0.0
 11
823.81596980819359
 21
258.98474875116329
 31
0.0
  0
LINE
  5
1CDCA
  8
SU
 10
823.81596980819359
 20
294.98474875116329
 30
0.0
 11
823.81596980819359
 21
291.98474779943803
 31
0.0
  0
LINE
  5
1CDCD
  8
SU
 10
754.81596980819359
 20
336.9847477994353
 30
0.0
 11
826.8159698081937
 21
336.9847477994353
 31
0.0
  0
LINE
  5
1CDCE
  8
SU
 10
823.81596980819359
 20
327.98474779943808
 30
0.0
 11
823.81596980819359
 21
336.9847477994353
 31
0.0
  0
LINE
  5
1CDD1
  8
SU
 10
719.81596980819336
 20
327.98474779943808
 30
0.0
 11
826.81596980819359
 21
327.98474779943808
 31
0.0
  0
LINE
  5
1CDD2
  8
SU
 10
719.81596980819336
 20
294.98474875116329
 30
0.0
 11
826.81596980819359
 21
294.98474875116329
 31
0.0
  0
LINE
  5
1CDD3
  8
SU
 10
823.81596980819359
 20
327.98474779943808
 30
0.0
 11
823.81596980819359
 21
294.98474875116329
 31
0.0
  0
LINE
  5
1CDD7
  8
SU
 10
187.9470660854069
 20
126.18300739639059
 30
0.0
 11
187.9470660854069
 21
161.2187266703545
 31
0.0
  0
LINE
  5
1CDD8
  8
SU
 10
259.94706608540702
 20
126.18300739639059
 30
0.0
 11
259.94706608540702
 21
161.2187266703545
 31
0.0
  0
LINE
  5
1CDD9
  8
SU
 10
187.9470660854069
 20
158.2187266703545
 30
0.0
 11
259.94706608540702
 21
158.2187266703545
 31
0.0
  0
LINE
  5
1CDDD
  8
SU
 10
325.44711063485778
 20
112.28300748772079
 30
0.0
 11
387.44711063485659
 21
112.2830074877207
 31
0.0
  0
LINE
  5
1CDDE
  8
SU
 10
384.44711063485659
 20
124.28300748772079
 30
0.0
 11
384.44711063485659
 21
112.2830074877207
 31
0.0
  0
LINE
  5
1CDE1
  8
SU
 10
197.447046085409
 20
111.28300748772079
 30
0.0
 11
197.447046085409
 21
68.044736933131844
 31
0.0
  0
LINE
  5
1CDE2
  8
SU
 10
250.447046085409
 20
111.28300748772079
 30
0.0
 11
250.447046085409
 21
68.044736933131844
 31
0.0
  0
LINE
  5
1CDE3
  8
SU
 10
197.447046085409
 20
71.044736933131844
 30
0.0
 11
250.447046085409
 21
71.044736933131844
 31
0.0
  0
LINE
  5
1CDE7
  8
SU
 10
199.74706608540711
 20
111.98300739639031
 30
0.0
 11
199.74706608540711
 21
88.403389818432061
 31
0.0
  0
LINE
  5
1CDE8
  8
SU
 10
248.1470660854072
 20
111.98300739639031
 30
0.0
 11
248.1470660854072
 21
88.403389818432061
 31
0.0
  0
LINE
  5
1CDE9
  8
SU
 10
199.74706608540711
 20
91.403389818432046
 30
0.0
 11
248.1470660854072
 21
91.403389818432046
 31
0.0
  0
LINE
  5
1CDED
  8
SU
 10
364.4471106348567
 20
131.28300748772079
 30
0.0
 11
364.44711063485659
 21
124.28300748772079
 31
0.0
  0
LINE
  5
1CDF0
  8
SU
 10
222.44704608540911
 20
593.10574394563082
 30
0.0
 11
222.44704608540911
 21
574.10574394563082
 31
0.0
  0
LINE
  5
1CDF1
  8
SU
 10
225.447046085409
 20
593.10574394563082
 30
0.0
 11
225.447046085409
 21
574.10574394563082
 31
0.0
  0
LINE
  5
1CDF2
  8
SU
 10
222.44704608540911
 20
577.10574394563082
 30
0.0
 11
225.447046085409
 21
577.10574394563082
 31
0.0
  0
LINE
  5
1CDF6
  8
SU
 10
263.29703725171248
 20
623.60574394563082
 30
0.0
 11
347.4471106348567
 21
623.60574394563082
 31
0.0
  0
LINE
  5
1CDF7
  8
SU
 10
344.4471106348567
 20
627.10574442541451
 30
0.0
 11
344.4471106348567
 21
623.60574394563082
 31
0.0
  0
LINE
  5
1CDF8
  8
SU
 10
344.4471106348567
 20
623.60574394563082
 30
0.0
 11
344.4471106348567
 21
599.23241061229749
 31
0.0
  0
LINE
  5
1CDFC
  8
SU
 10
262.4969821545431
 20
636.60574418643648
 30
0.0
 11
367.44711063485681
 21
636.60574418643648
 31
0.0
  0
LINE
  5
1CDFD
  8
SU
 10
364.44711063485681
 20
664.10574354355219
 30
0.0
 11
364.4471106348567
 21
636.60574418643648
 31
0.0
  0
LINE
  5
1CE01
  8
SU
 10
195.94704608548
 20
327.10574394672631
 30
0.0
 11
195.94704608548
 21
292.1057439467258
 31
0.0
  0
LINE
  5
1CE02
  8
SU
 10
251.947046085409
 20
327.10574394672608
 30
0.0
 11
251.947046085409
 21
292.1057439467258
 31
0.0
  0
LINE
  5
1CE03
  8
SU
 10
195.94704608548
 20
295.10574394672591
 30
0.0
 11
251.947046085409
 21
295.10574394672591
 31
0.0
  0
LINE
  5
1CE07
  8
SU
 10
248.24706868196751
 20
333.10573902738793
 30
0.0
 11
347.44711063485761
 21
333.10573902738793
 31
0.0
  0
LINE
  5
1CE08
  8
SU
 10
344.44711063485761
 20
333.10573902738793
 30
0.0
 11
344.44711063485761
 21
328.10574394672591
 31
0.0
  0
LINE
  5
1CE09
  8
SU
 10
344.44711063485761
 20
328.10574394672591
 30
0.0
 11
344.44711063485761
 21
312.03241061339259
 31
0.0
  0
LINE
  5
1CE0D
  8
SU
 10
364.4471106348567
 20
337.1057439467258
 30
0.0
 11
364.4471106348567
 21
328.10574394672591
 31
0.0
  0
LINE
  5
1CE10
  8
SU
 10
325.44711063485778
 20
664.10574354355219
 30
0.0
 11
387.4471106348567
 21
664.10574354355219
 31
0.0
  0
LINE
  5
1CE11
  8
SU
 10
325.44711063485778
 20
328.10574394672591
 30
0.0
 11
387.44711063485659
 21
328.10574394672591
 31
0.0
  0
LINE
  5
1CE12
  8
SU
 10
384.4471106348567
 20
664.10574354355219
 30
0.0
 11
384.44711063485659
 21
328.10574394672591
 31
0.0
  0
LINE
  5
1CE14
  8
SU
 10
259.44704608540911
 20
337.1057439467258
 30
0.0
 11
367.44711063485659
 21
337.1057439467258
 31
0.0
  0
LINE
  5
1CE15
  8
SU
 10
259.44703730372697
 20
627.10574520988223
 30
0.0
 11
367.44711063485659
 21
627.10574520988223
 31
0.0
  0
LINE
  5
1CE16
  8
SU
 10
364.44711063485659
 20
337.1057439467258
 30
0.0
 11
364.4471106348567
 21
627.10574520988223
 31
0.0
  0
TEXT
  5
1CE1A
  8
SU
 10
755.68763847356263
 20
441.28474779943542
 30
0.0
 40
7.0
  1
9
 41
0.8299999999999999
  0
TEXT
  5
1CE1C
  8
SU
 10
881.84030514022925
 20
441.28474779943542
 30
0.0
 40
7.0
  1
有効開口
 41
0.8299999999999999
  0
TEXT
  5
1CE1F
  8
SU
 10
1025.68763647486
 20
192.284747799435
 30
0.0
 40
7.0
  1
9
 41
0.8299999999999999
  0
TEXT
  5
1CE21
  8
SU
 10
272.86698270684929
 20
578.40574394563066
 30
0.0
 40
7.0
  1
4.4
 41
0.8299999999999999
  0
TEXT
  5
1CE24
  8
SU
 10
383.14711063485629
 20
211.5433046439455
 30
0.0
 40
10.0
  1
H
 50
90.0
 41
0.8299999999999999
  0
TEXT
  5
1CE25
  8
SU
 10
363.14711063485657
 20
209.67438750812229
 30
0.0
 40
7.0
  1
DH
 50
90.0
 41
0.8299999999999999
  0
TEXT
  5
1CE27
  8
SU
 10
182.9987127520757
 20
72.344736933131813
 30
0.0
 40
7.0
  1
17
 41
0.8299999999999999
  0
TEXT
  5
1CE2A
  8
SU
 10
343.14711063485782
 20
146.55300739639091
 30
0.0
 40
7.0
  1
2.6
 50
90.0
 41
0.8299999999999999
  0
TEXT
  5
1CE2D
  8
SU
 10
363.14711063485657
 20
603.20241187654892
 30
0.0
 40
7.0
  1
9.5
 50
90.0
 41
0.8299999999999999
  0
TEXT
  5
1CE2E
  8
SU
 10
236.41370518546921
 20
578.40574394563066
 30
0.0
 40
7.0
  1
33
 41
0.8299999999999999
  0
TEXT
  5
1CE2F
  8
SU
 10
200.4137045779315
 20
578.40574394563066
 30
0.0
 40
7.0
  1
33
 41
0.8299999999999999
  0
TEXT
  5
1CE32
  8
SU
 10
253.08031516753871
 20
707.10574060528245
 30
0.0
 40
7.0
  1
5.6
 41
0.8299999999999999
  0
TEXT
  5
1CE33
  8
SU
 10
156.54371275207569
 20
159.4786145953754
 30
0.0
 40
7.0
  1
7.5
 41
0.8299999999999999
  0
TEXT
  5
1CE35
  8
SU
 10
156.54371275207569
 20
598.40574374017547
 30
0.0
 40
7.0
  1
4.7
 41
0.8299999999999999
  0
TEXT
  5
1CE37
  8
SU
 10
151.01037941874239
 20
296.40574394672592
 30
0.0
 40
7.0
  1
15.5
 41
0.8299999999999999
  0
TEXT
  5
1CE3B
  8
SU
 10
175.47368047735131
 20
707.10574060528245
 30
0.0
 40
7.0
  1
10.3
 41
0.8299999999999999
  0
TEXT
  5
1CE3C
  8
SU
 10
197.75844158702381
 20
598.40574394563066
 30
0.0
 40
7.0
  1
77.7
 41
0.8299999999999999
  0
TEXT
  5
1CE3F
  8
SU
 10
182.3187127520757
 20
578.40574394562975
 30
0.0
 40
7.0
  1
9
 41
0.8299999999999999
  0
TEXT
  5
1CE42
  8
SU
 10
214.12531486929339
 20
704.90574060528252
 30
0.0
 40
7.0
  1
66.5
 41
0.8299999999999999
  0
TEXT
  5
1CE43
  8
SU
 10
726.90930314152683
 20
223.9514144661018
 30
0.0
 40
7.0
  1
(25)
 41
0.8299999999999999
  0
TEXT
  5
1CE44
  8
SU
 10
730.78263647486006
 20
212.28474779943511
 30
0.0
 40
7.0
  1
35
 41
0.8299999999999999
  0
TEXT
  5
1CE47
  8
SU
 10
861.90930314152695
 20
223.95141446610171
 30
0.0
 40
7.0
  1
(25)
 41
0.8299999999999999
  0
TEXT
  5
1CE48
  8
SU
 10
865.78263647486006
 20
212.284747799435
 30
0.0
 40
7.0
  1
35
 41
0.8299999999999999
  0
TEXT
  5
1CE4B
  8
SU
 10
932.31430314152658
 20
192.284747799435
 30
0.0
 40
7.0
  1
DW
 41
0.8299999999999999
  0
TEXT
  5
1CE4E
  8
SU
 10
799.07311266533679
 20
172.284747799435
 30
0.0
 40
10.0
  1
W
 41
0.8299999999999999
  0
TEXT
  5
1CE4F
  8
SU
 10
822.51596980819352
 20
269.95141494196753
 30
0.0
 40
7.0
  1
33
 50
90.0
 41
0.8299999999999999
  0
TEXT
  5
1CE52
  8
SU
 10
822.31596980819359
 20
285.98141446610481
 30
0.0
 40
7.0
  1
3
 50
90.0
 41
0.8299999999999999
  0
TEXT
  5
1CE53
  8
SU
 10
822.51596980819363
 20
329.85641446610322
 30
0.0
 40
7.0
  1
9
 50
90.0
 41
0.8299999999999999
  0
TEXT
  5
1CE55
  8
SU
 10
822.51596980819352
 20
305.95141494196753
 30
0.0
 40
7.0
  1
33
 50
90.0
 41
0.8299999999999999
  0
TEXT
  5
1CE58
  8
SU
 10
229.8601141017225
 20
159.51872667035451
 30
0.0
 40
7.0
  1
72
 41
0.8299999999999999
  0
TEXT
  5
1CE5B
  8
SU
 10
383.14711063485657
 20
112.3346741543874
 30
0.0
 40
7.0
  1
12
 50
90.0
 41
0.8299999999999999
  0
TEXT
  5
1CE5D
  8
SU
 10
217.2710863235497
 20
72.344736933131841
 30
0.0
 40
7.0
  1
53
 41
0.8299999999999999
  0
TEXT
  5
1CE60
  8
SU
 10
214.38031087059019
 20
92.703389818432058
 30
0.0
 40
7.0
  1
48.4
 41
0.8299999999999999
  0
TEXT
  5
1CE63
  8
SU
 10
363.14711063485657
 20
125.0163408210541
 30
0.0
 40
7.0
  1
7
 50
90.0
 41
0.8299999999999999
  0
TEXT
  5
1CE67
  8
SU
 10
227.9170385188024
 20
568.60574394563082
 30
0.0
 40
7.0
  1
3
 41
0.8299999999999999
  0
TEXT
  5
1CE68
  8
SU
 10
343.14711063485669
 20
599.7024106122974
 30
0.0
 40
7.0
  1
3.5
 50
90.0
 41
0.8299999999999999
  0
TEXT
  5
1CE6B
  8
SU
 10
363.14711063485669
 20
640.67241053166094
 30
0.0
 40
7.0
  1
27.5
 50
90.0
 41
0.8299999999999999
  0
TEXT
  5
1CE6E
  8
SU
 10
218.41371275211119
 20
296.40574394672592
 30
0.0
 40
7.0
  1
56
 41
0.8299999999999999
  0
TEXT
  5
1CE71
  8
SU
 10
343.14711063485748
 20
312.50241061339273
 30
0.0
 40
7.0
  1
5
 50
90.0
 41
0.8299999999999999
  0
TEXT
  5
1CE74
  8
SU
 10
363.14711063485657
 20
329.97741061339252
 30
0.0
 40
7.0
  1
9
 50
90.0
 41
0.8299999999999999
  0
TEXT
  5
1CE76
  8
SU
 10
383.14711063485657
 20
478.36338098184842
 30
0.0
 40
10.0
  1
H
 50
90.0
 41
0.8299999999999999
  0
TEXT
  5
1CE77
  8
SU
 10
363.14711063485657
 20
476.15741124497072
 30
0.0
 40
7.0
  1
DH
 50
90.0
 41
0.8299999999999999
  0
ARC
  5
1CE7A
  8
SU
 10
753.81596980819404
 20
439.98474779943541
 30
0.0
 40
0.6000000000000229
 50
0.0
 51
180.0
  0
ARC
  5
1CE7B
  8
SU
 10
753.81596980819404
 20
439.98474779943541
 30
0.0
 40
0.6000000000000229
 50
180.0
 51
0.0
  0
ARC
  5
1CE7C
  8
SU
 10
762.81597380559788
 20
439.98474779943541
 30
0.0
 40
0.6000000000000229
 50
0.0
 51
180.0
  0
ARC
  5
1CE7D
  8
SU
 10
762.81597380559788
 20
439.98474779943541
 30
0.0
 40
0.6000000000000229
 50
180.0
 51
0.0
  0
ARC
  5
1CE7E
  8
SU
 10
1026.815969808194
 20
439.98474779943541
 30
0.0
 40
0.5999999999999091
 50
180.0
 51
0.0
  0
ARC
  5
1CE7F
  8
SU
 10
1026.815969808194
 20
439.98474779943541
 30
0.0
 40
0.5999999999999091
 50
0.0
 51
180.0
  0
ARC
  5
1CE80
  8
SU
 10
1032.815969808194
 20
190.98474779943501
 30
0.0
 40
0.5999999999999091
 50
180.0
 51
0.0
  0
ARC
  5
1CE81
  8
SU
 10
1032.815969808194
 20
190.98474779943501
 30
0.0
 40
0.5999999999999091
 50
0.0
 51
180.0
  0
ARC
  5
1CE82
  8
SU
 10
262.79698270684929
 20
577.10574394563082
 30
0.0
 40
0.6000000000000229
 50
180.0
 51
0.0
  0
ARC
  5
1CE83
  8
SU
 10
262.79698270684929
 20
577.10574394563082
 30
0.0
 40
0.6000000000000229
 50
0.0
 51
180.0
  0
ARC
  5
1CE84
  8
SU
 10
258.44703725171303
 20
577.10574394563082
 30
0.0
 40
0.6000000000000229
 50
0.0
 51
180.0
  0
ARC
  5
1CE85
  8
SU
 10
258.44703725171303
 20
577.10574394563082
 30
0.0
 40
0.6000000000000229
 50
180.0
 51
0.0
  0
ARC
  5
1CE86
  8
SU
 10
364.4471106348567
 20
131.28300748772079
 30
0.0
 40
0.5999999999999944
 50
90.0
 51
270.0
  0
ARC
  5
1CE87
  8
SU
 10
364.4471106348567
 20
131.28300748772079
 30
0.0
 40
0.5999999999999944
 50
270.0
 51
90.0
  0
ARC
  5
1CE88
  8
SU
 10
180.447046085409
 20
71.044736933131816
 30
0.0
 40
0.5999999999999944
 50
0.0
 51
180.0
  0
ARC
  5
1CE89
  8
SU
 10
180.447046085409
 20
71.044736933131816
 30
0.0
 40
0.5999999999999944
 50
180.0
 51
0.0
  0
ARC
  5
1CE8A
  8
SU
 10
197.447046085409
 20
71.044736933131816
 30
0.0
 40
0.5999999999999944
 50
180.0
 51
0.0
  0
ARC
  5
1CE8B
  8
SU
 10
197.447046085409
 20
71.044736933131816
 30
0.0
 40
0.5999999999999944
 50
0.0
 51
180.0
  0
ARC
  5
1CE8C
  8
SU
 10
344.44711063485778
 20
126.88300739639089
 30
0.0
 40
0.5999999999999944
 50
90.0
 51
270.0
  0
ARC
  5
1CE8D
  8
SU
 10
344.44711063485778
 20
126.88300739639089
 30
0.0
 40
0.5999999999999944
 50
270.0
 51
90.0
  0
ARC
  5
1CE8E
  8
SU
 10
344.44711063485778
 20
124.28300748772079
 30
0.0
 40
0.5999999999999944
 50
270.0
 51
90.0
  0
ARC
  5
1CE8F
  8
SU
 10
344.44711063485778
 20
124.28300748772079
 30
0.0
 40
0.5999999999999944
 50
90.0
 51
270.0
  0
ARC
  5
1CE90
  8
SU
 10
262.79698213245092
 20
703.60574060528245
 30
0.0
 40
0.6000000000000229
 50
180.0
 51
0.0
  0
ARC
  5
1CE91
  8
SU
 10
262.79698213245092
 20
703.60574060528245
 30
0.0
 40
0.6000000000000229
 50
0.0
 51
180.0
  0
ARC
  5
1CE92
  8
SU
 10
257.19698153595982
 20
703.60574060528245
 30
0.0
 40
0.6000000000000229
 50
0.0
 51
180.0
  0
ARC
  5
1CE93
  8
SU
 10
257.19698153595982
 20
703.60574060528245
 30
0.0
 40
0.6000000000000229
 50
180.0
 51
0.0
  0
ARC
  5
1CE94
  8
SU
 10
180.447046085409
 20
158.17861459537539
 30
0.0
 40
0.5999999999999944
 50
0.0
 51
180.0
  0
ARC
  5
1CE95
  8
SU
 10
180.447046085409
 20
158.17861459537539
 30
0.0
 40
0.5999999999999944
 50
180.0
 51
0.0
  0
ARC
  5
1CE96
  8
SU
 10
180.447046085409
 20
597.10574374017563
 30
0.0
 40
0.5999999999999944
 50
0.0
 51
180.0
  0
ARC
  5
1CE97
  8
SU
 10
180.447046085409
 20
597.10574374017563
 30
0.0
 40
0.5999999999999944
 50
180.0
 51
0.0
  0
ARC
  5
1CE98
  8
SU
 10
180.447046085409
 20
295.10574394672591
 30
0.0
 40
0.5999999999999944
 50
0.0
 51
180.0
  0
ARC
  5
1CE99
  8
SU
 10
180.447046085409
 20
295.10574394672591
 30
0.0
 40
0.5999999999999944
 50
180.0
 51
0.0
  0
ARC
  5
1CE9A
  8
SU
 10
180.447046085409
 20
703.60574060528245
 30
0.0
 40
0.5999999999999944
 50
0.0
 51
180.0
  0
ARC
  5
1CE9B
  8
SU
 10
180.447046085409
 20
703.60574060528245
 30
0.0
 40
0.5999999999999944
 50
180.0
 51
0.0
  0
ARC
  5
1CE9C
  8
SU
 10
190.6969815359603
 20
703.60574060528245
 30
0.0
 40
0.5999999999999944
 50
180.0
 51
0.0
  0
ARC
  5
1CE9D
  8
SU
 10
190.6969815359603
 20
703.60574060528245
 30
0.0
 40
0.5999999999999944
 50
0.0
 51
180.0
  0
ARC
  5
1CE9E
  8
SU
 10
262.79698270684958
 20
597.10574394563082
 30
0.0
 40
0.6000000000000229
 50
180.0
 51
0.0
  0
ARC
  5
1CE9F
  8
SU
 10
262.79698270684958
 20
597.10574394563082
 30
0.0
 40
0.6000000000000229
 50
0.0
 51
180.0
  0
ARC
  5
1CEA0
  8
SU
 10
185.0969827068497
 20
597.10574394563082
 30
0.0
 40
0.5999999999999944
 50
0.0
 51
180.0
  0
ARC
  5
1CEA1
  8
SU
 10
185.0969827068497
 20
597.10574394563082
 30
0.0
 40
0.5999999999999944
 50
180.0
 51
0.0
  0
ARC
  5
1CEA2
  8
SU
 10
180.447046085409
 20
577.1057439456298
 30
0.0
 40
0.5999999999999944
 50
0.0
 51
180.0
  0
ARC
  5
1CEA3
  8
SU
 10
180.447046085409
 20
577.1057439456298
 30
0.0
 40
0.5999999999999944
 50
180.0
 51
0.0
  0
ARC
  5
1CEA4
  8
SU
 10
189.447046085409
 20
577.1057439456298
 30
0.0
 40
0.5999999999999944
 50
180.0
 51
0.0
  0
ARC
  5
1CEA5
  8
SU
 10
189.447046085409
 20
577.1057439456298
 30
0.0
 40
0.5999999999999944
 50
0.0
 51
180.0
  0
ARC
  5
1CEA6
  8
SU
 10
753.81596980819347
 20
210.9847477994351
 30
0.0
 40
0.6000000000000229
 50
180.0
 51
0.0
  0
ARC
  5
1CEA7
  8
SU
 10
753.81596980819347
 20
210.9847477994351
 30
0.0
 40
0.6000000000000229
 50
0.0
 51
180.0
  0
ARC
  5
1CEA8
  8
SU
 10
718.81596980819324
 20
210.9847477994351
 30
0.0
 40
0.6000000000000229
 50
0.0
 51
180.0
  0
ARC
  5
1CEA9
  8
SU
 10
718.81596980819324
 20
210.9847477994351
 30
0.0
 40
0.6000000000000229
 50
180.0
 51
0.0
  0
ARC
  5
1CEAA
  8
SU
 10
888.81596980819347
 20
210.98474779943501
 30
0.0
 40
0.6000000000000229
 50
180.0
 51
0.0
  0
ARC
  5
1CEAB
  8
SU
 10
888.81596980819347
 20
210.98474779943501
 30
0.0
 40
0.6000000000000229
 50
0.0
 51
180.0
  0
ARC
  5
1CEAC
  8
SU
 10
853.81596980819347
 20
210.98474779943501
 30
0.0
 40
0.6000000000000229
 50
0.0
 51
180.0
  0
ARC
  5
1CEAD
  8
SU
 10
853.81596980819347
 20
210.98474779943501
 30
0.0
 40
0.6000000000000229
 50
180.0
 51
0.0
  0
ARC
  5
1CEAE
  8
SU
 10
853.81596980819347
 20
190.98474779943501
 30
0.0
 40
0.6000000000000229
 50
0.0
 51
180.0
  0
ARC
  5
1CEAF
  8
SU
 10
853.81596980819347
 20
190.98474779943501
 30
0.0
 40
0.6000000000000229
 50
180.0
 51
0.0
  0
ARC
  5
1CEB0
  8
SU
 10
1023.815969808193
 20
190.98474779943501
 30
0.0
 40
0.6000000000000229
 50
180.0
 51
0.0
  0
ARC
  5
1CEB1
  8
SU
 10
1023.815969808193
 20
190.98474779943501
 30
0.0
 40
0.5999999999999091
 50
0.0
 51
180.0
  0
ARC
  5
1CEB2
  8
SU
 10
823.81596980819359
 20
258.98474875116329
 30
0.0
 40
0.6000000000000229
 50
90.0
 51
270.0
  0
ARC
  5
1CEB3
  8
SU
 10
823.81596980819359
 20
258.98474875116329
 30
0.0
 40
0.6000000000000229
 50
270.0
 51
90.0
  0
ARC
  5
1CEB4
  8
SU
 10
823.81596980819359
 20
291.98474779943803
 30
0.0
 40
0.6000000000000229
 50
270.0
 51
90.0
  0
ARC
  5
1CEB5
  8
SU
 10
823.81596980819359
 20
291.98474779943803
 30
0.0
 40
0.6000000000000229
 50
90.0
 51
270.0
  0
ARC
  5
1CEB6
  8
SU
 10
823.81596980819359
 20
336.9847477994353
 30
0.0
 40
0.6000000000000229
 50
270.0
 51
90.0
  0
ARC
  5
1CEB7
  8
SU
 10
823.81596980819359
 20
336.9847477994353
 30
0.0
 40
0.6000000000000229
 50
90.0
 51
270.0
  0
ARC
  5
1CEB8
  8
SU
 10
823.81596980819359
 20
294.98474875116329
 30
0.0
 40
0.6000000000000229
 50
90.0
 51
270.0
  0
ARC
  5
1CEB9
  8
SU
 10
823.81596980819359
 20
294.98474875116329
 30
0.0
 40
0.6000000000000229
 50
270.0
 51
90.0
  0
ARC
  5
1CEBA
  8
SU
 10
823.81596980819359
 20
327.98474779943808
 30
0.0
 40
0.6000000000000229
 50
270.0
 51
90.0
  0
ARC
  5
1CEBB
  8
SU
 10
823.81596980819359
 20
327.98474779943808
 30
0.0
 40
0.6000000000000229
 50
90.0
 51
270.0
  0
ARC
  5
1CEBC
  8
SU
 10
259.94706608540702
 20
158.2187266703545
 30
0.0
 40
0.6000000000000229
 50
180.0
 51
0.0
  0
ARC
  5
1CEBD
  8
SU
 10
259.94706608540702
 20
158.2187266703545
 30
0.0
 40
0.6000000000000229
 50
0.0
 51
180.0
  0
ARC
  5
1CEBE
  8
SU
 10
187.9470660854069
 20
158.2187266703545
 30
0.0
 40
0.5999999999999944
 50
0.0
 51
180.0
  0
ARC
  5
1CEBF
  8
SU
 10
187.9470660854069
 20
158.2187266703545
 30
0.0
 40
0.5999999999999944
 50
180.0
 51
0.0
  0
ARC
  5
1CEC0
  8
SU
 10
384.44711063485659
 20
112.2830074877207
 30
0.0
 40
0.5999999999999944
 50
90.0
 51
270.0
  0
ARC
  5
1CEC1
  8
SU
 10
384.44711063485659
 20
112.2830074877207
 30
0.0
 40
0.5999999999999944
 50
270.0
 51
90.0
  0
ARC
  5
1CEC2
  8
SU
 10
250.447046085409
 20
71.044736933131844
 30
0.0
 40
0.5999999999999944
 50
180.0
 51
0.0
  0
ARC
  5
1CEC3
  8
SU
 10
250.447046085409
 20
71.044736933131844
 30
0.0
 40
0.5999999999999944
 50
0.0
 51
180.0
  0
ARC
  5
1CEC6
  8
SU
 10
248.1470660854072
 20
91.403389818432046
 30
0.0
 40
0.5999999999999944
 50
180.0
 51
0.0
  0
ARC
  5
1CEC7
  8
SU
 10
248.1470660854072
 20
91.403389818432046
 30
0.0
 40
0.5999999999999944
 50
0.0
 51
180.0
  0
ARC
  5
1CEC8
  8
SU
 10
199.74706608540711
 20
91.403389818432046
 30
0.0
 40
0.5999999999999944
 50
0.0
 51
180.0
  0
ARC
  5
1CEC9
  8
SU
 10
199.74706608540711
 20
91.403389818432046
 30
0.0
 40
0.5999999999999944
 50
180.0
 51
0.0
  0
ARC
  5
1CECA
  8
SU
 10
364.44711063485659
 20
124.28300748772079
 30
0.0
 40
0.5999999999999944
 50
90.0
 51
270.0
  0
ARC
  5
1CECB
  8
SU
 10
364.44711063485659
 20
124.28300748772079
 30
0.0
 40
0.5999999999999944
 50
270.0
 51
90.0
  0
ARC
  5
1CECC
  8
SU
 10
225.447046085409
 20
577.10574394563082
 30
0.0
 40
0.5999999999999944
 50
180.0
 51
0.0
  0
ARC
  5
1CECD
  8
SU
 10
225.447046085409
 20
577.10574394563082
 30
0.0
 40
0.5999999999999944
 50
0.0
 51
180.0
  0
ARC
  5
1CECE
  8
SU
 10
222.44704608540911
 20
577.10574394563082
 30
0.0
 40
0.5999999999999944
 50
0.0
 51
180.0
  0
ARC
  5
1CECF
  8
SU
 10
222.44704608540911
 20
577.10574394563082
 30
0.0
 40
0.5999999999999944
 50
180.0
 51
0.0
  0
ARC
  5
1CED0
  8
SU
 10
344.4471106348567
 20
623.60574394563082
 30
0.0
 40
0.6000000000000229
 50
90.0
 51
270.0
  0
ARC
  5
1CED1
  8
SU
 10
344.4471106348567
 20
623.60574394563082
 30
0.0
 40
0.6000000000000229
 50
270.0
 51
90.0
  0
ARC
  5
1CED2
  8
SU
 10
344.4471106348567
 20
627.10574442541451
 30
0.0
 40
0.6000000000000229
 50
270.0
 51
90.0
  0
ARC
  5
1CED3
  8
SU
 10
344.4471106348567
 20
627.10574442541451
 30
0.0
 40
0.6000000000000229
 50
90.0
 51
270.0
  0
ARC
  5
1CED4
  8
SU
 10
364.4471106348567
 20
636.60574418643648
 30
0.0
 40
0.6000000000000229
 50
90.0
 51
270.0
  0
ARC
  5
1CED5
  8
SU
 10
364.4471106348567
 20
636.60574418643648
 30
0.0
 40
0.6000000000000229
 50
270.0
 51
90.0
  0
ARC
  5
1CED6
  8
SU
 10
364.44711063485681
 20
664.10574354355219
 30
0.0
 40
0.6000000000000229
 50
270.0
 51
90.0
  0
ARC
  5
1CED7
  8
SU
 10
364.44711063485681
 20
664.10574354355219
 30
0.0
 40
0.6000000000000229
 50
90.0
 51
270.0
  0
ARC
  5
1CED8
  8
SU
 10
251.947046085409
 20
295.10574394672591
 30
0.0
 40
0.5999999999999944
 50
180.0
 51
0.0
  0
ARC
  5
1CED9
  8
SU
 10
251.947046085409
 20
295.10574394672591
 30
0.0
 40
0.5999999999999944
 50
0.0
 51
180.0
  0
ARC
  5
1CEDA
  8
SU
 10
195.94704608548
 20
295.10574394672591
 30
0.0
 40
0.5999999999999944
 50
0.0
 51
180.0
  0
ARC
  5
1CEDB
  8
SU
 10
195.94704608548
 20
295.10574394672591
 30
0.0
 40
0.5999999999999944
 50
180.0
 51
0.0
  0
ARC
  5
1CEDC
  8
SU
 10
344.44711063485761
 20
328.10574394672591
 30
0.0
 40
0.6000000000000229
 50
90.0
 51
270.0
  0
ARC
  5
1CEDD
  8
SU
 10
344.44711063485761
 20
328.10574394672591
 30
0.0
 40
0.6000000000000229
 50
270.0
 51
90.0
  0
ARC
  5
1CEDE
  8
SU
 10
344.44711063485761
 20
333.10573902738793
 30
0.0
 40
0.6000000000000229
 50
270.0
 51
90.0
  0
ARC
  5
1CEDF
  8
SU
 10
344.44711063485761
 20
333.10573902738793
 30
0.0
 40
0.6000000000000229
 50
90.0
 51
270.0
  0
ARC
  5
1CEE0
  8
SU
 10
364.4471106348567
 20
328.10574394672591
 30
0.0
 40
0.6000000000000229
 50
90.0
 51
270.0
  0
ARC
  5
1CEE1
  8
SU
 10
364.4471106348567
 20
328.10574394672591
 30
0.0
 40
0.6000000000000229
 50
270.0
 51
90.0
  0
ARC
  5
1CEE2
  8
SU
 10
364.4471106348567
 20
627.10574520988223
 30
0.0
 40
0.6000000000000229
 50
270.0
 51
90.0
  0
ARC
  5
1CEE3
  8
SU
 10
364.4471106348567
 20
627.10574520988223
 30
0.0
 40
0.6000000000000229
 50
90.0
 51
270.0
  0
ARC
  5
1CEE4
  8
SU
 10
364.44711063485659
 20
337.1057439467258
 30
0.0
 40
0.6000000000000229
 50
90.0
 51
270.0
  0
ARC
  5
1CEE5
  8
SU
 10
364.44711063485659
 20
337.1057439467258
 30
0.0
 40
0.6000000000000229
 50
270.0
 51
90.0
  0
ENDSEC
  0
EOF
